ISO-10303-21;
HEADER;
FILE_DESCRIPTION((''),'2;1');
FILE_NAME('PION_VMA','2022-03-10T12:51:17',('cf72119'),(''),
'CREO PARAMETRIC BY PTC INC, 2021072','CREO PARAMETRIC BY PTC INC, 2021072','');
FILE_SCHEMA(('AUTOMOTIVE_DESIGN { 1 0 10303 214 1 1 1 1 }'));
ENDSEC;
DATA;
#37=CARTESIAN_POINT('',(0.E0,0.E0,-1.645E1));
#38=DIRECTION('',(0.E0,0.E0,1.E0));
#39=DIRECTION('',(0.E0,-1.E0,0.E0));
#40=AXIS2_PLACEMENT_3D('',#37,#38,#39);
#42=CARTESIAN_POINT('',(0.E0,0.E0,-1.645E1));
#43=DIRECTION('',(0.E0,0.E0,1.E0));
#44=DIRECTION('',(0.E0,1.E0,0.E0));
#45=AXIS2_PLACEMENT_3D('',#42,#43,#44);
#47=DIRECTION('',(-1.763133425561E-11,7.071067811865E-1,-7.071067811865E-1));
#48=VECTOR('',#47,7.071067811907E-1);
#49=CARTESIAN_POINT('',(-1.121990850010E-10,-2.999999999974E0,
-1.595000000003E1));
#50=LINE('',#49,#48);
#51=CARTESIAN_POINT('',(0.E0,0.E0,-1.595E1));
#52=DIRECTION('',(0.E0,0.E0,1.E0));
#53=DIRECTION('',(0.E0,-1.E0,0.E0));
#54=AXIS2_PLACEMENT_3D('',#51,#52,#53);
#56=DIRECTION('',(1.495981878819E-11,-3.489712222884E-12,1.E0));
#57=VECTOR('',#56,7.500000000026E0);
#58=CARTESIAN_POINT('',(-1.121990850010E-10,-2.999999999974E0,
-1.595000000003E1));
#59=LINE('',#58,#57);
#60=DIRECTION('',(-1.495985019441E-11,3.489712222884E-12,1.E0));
#61=VECTOR('',#60,7.500000000026E0);
#62=CARTESIAN_POINT('',(1.121988764584E-10,2.999999999974E0,-1.595000000003E1));
#63=LINE('',#62,#61);
#64=CARTESIAN_POINT('',(0.E0,0.E0,-1.595E1));
#65=DIRECTION('',(0.E0,0.E0,1.E0));
#66=DIRECTION('',(0.E0,1.E0,0.E0));
#67=AXIS2_PLACEMENT_3D('',#64,#65,#66);
#69=DIRECTION('',(1.763023517389E-11,-7.071067811865E-1,-7.071067811865E-1));
#70=VECTOR('',#69,7.071067811907E-1);
#71=CARTESIAN_POINT('',(1.121988764584E-10,2.999999999974E0,-1.595000000003E1));
#72=LINE('',#71,#70);
#73=CARTESIAN_POINT('',(0.E0,0.E0,-8.45E0));
#74=DIRECTION('',(0.E0,0.E0,-1.E0));
#75=DIRECTION('',(0.E0,1.E0,0.E0));
#76=AXIS2_PLACEMENT_3D('',#73,#74,#75);
#78=CARTESIAN_POINT('',(0.E0,0.E0,-8.45E0));
#79=DIRECTION('',(0.E0,0.E0,1.E0));
#80=DIRECTION('',(0.E0,1.E0,0.E0));
#81=AXIS2_PLACEMENT_3D('',#78,#79,#80);
#83=CARTESIAN_POINT('',(0.E0,0.E0,-8.45E0));
#84=DIRECTION('',(0.E0,0.E0,1.E0));
#85=DIRECTION('',(0.E0,1.E0,0.E0));
#86=AXIS2_PLACEMENT_3D('',#83,#84,#85);
#88=DIRECTION('',(0.E0,0.E0,1.E0));
#89=VECTOR('',#88,1.E0);
#90=CARTESIAN_POINT('',(0.E0,2.9E0,-8.45E0));
#91=LINE('',#90,#89);
#92=CARTESIAN_POINT('',(0.E0,0.E0,-8.45E0));
#93=DIRECTION('',(0.E0,0.E0,-1.E0));
#94=DIRECTION('',(0.E0,1.E0,0.E0));
#95=AXIS2_PLACEMENT_3D('',#92,#93,#94);
#97=DIRECTION('',(0.E0,0.E0,1.E0));
#98=VECTOR('',#97,1.E0);
#99=CARTESIAN_POINT('',(0.E0,-2.9E0,-8.45E0));
#100=LINE('',#99,#98);
#101=CARTESIAN_POINT('',(0.E0,0.E0,-7.45E0));
#102=DIRECTION('',(0.E0,0.E0,-1.E0));
#103=DIRECTION('',(0.E0,1.E0,0.E0));
#104=AXIS2_PLACEMENT_3D('',#101,#102,#103);
#106=CARTESIAN_POINT('',(0.E0,0.E0,-7.45E0));
#107=DIRECTION('',(0.E0,0.E0,1.E0));
#108=DIRECTION('',(0.E0,1.E0,0.E0));
#109=AXIS2_PLACEMENT_3D('',#106,#107,#108);
#111=CARTESIAN_POINT('',(0.E0,3.9E0,-7.45E0));
#112=CARTESIAN_POINT('',(2.168912797469E-1,3.899758181742E0,-7.45E0));
#113=CARTESIAN_POINT('',(6.439496752372E-1,3.864489668664E0,-7.45E0));
#114=CARTESIAN_POINT('',(1.272352629619E0,3.705503386687E0,-7.45E0));
#115=CARTESIAN_POINT('',(1.864607385678E0,3.445620240382E0,-7.45E0));
#116=CARTESIAN_POINT('',(2.406386824737E0,3.091701430017E0,-7.45E0));
#117=CARTESIAN_POINT('',(2.882422792311E0,2.653461959425E0,-7.45E0));
#118=CARTESIAN_POINT('',(3.279861515770E0,2.142839508325E0,-7.45E0));
#119=CARTESIAN_POINT('',(3.587826735953E0,1.573766907338E0,-7.45E0));
#120=CARTESIAN_POINT('',(3.797927384146E0,9.617657992016E-1,-7.45E0));
#121=CARTESIAN_POINT('',(3.904429950442E0,3.235302949503E-1,-7.45E0));
#122=CARTESIAN_POINT('',(3.904429950442E0,-3.235302949503E-1,-7.45E0));
#123=CARTESIAN_POINT('',(3.797927384146E0,-9.617657992016E-1,-7.45E0));
#124=CARTESIAN_POINT('',(3.587826735953E0,-1.573766907338E0,-7.45E0));
#125=CARTESIAN_POINT('',(3.279861515770E0,-2.142839508325E0,-7.45E0));
#126=CARTESIAN_POINT('',(2.882422792311E0,-2.653461959425E0,-7.45E0));
#127=CARTESIAN_POINT('',(2.406386824737E0,-3.091701430017E0,-7.45E0));
#128=CARTESIAN_POINT('',(1.864607385678E0,-3.445620240382E0,-7.45E0));
#129=CARTESIAN_POINT('',(1.272352629619E0,-3.705503386687E0,-7.45E0));
#130=CARTESIAN_POINT('',(6.439496752372E-1,-3.864489668664E0,-7.45E0));
#131=CARTESIAN_POINT('',(2.168912797469E-1,-3.899758181742E0,-7.45E0));
#132=CARTESIAN_POINT('',(0.E0,-3.9E0,-7.45E0));
#134=CARTESIAN_POINT('',(0.E0,3.9E0,-7.45E0));
#135=CARTESIAN_POINT('',(-2.168912797469E-1,3.899758181742E0,-7.45E0));
#136=CARTESIAN_POINT('',(-6.439496752372E-1,3.864489668664E0,-7.45E0));
#137=CARTESIAN_POINT('',(-1.272352629619E0,3.705503386687E0,-7.45E0));
#138=CARTESIAN_POINT('',(-1.864607385678E0,3.445620240382E0,-7.45E0));
#139=CARTESIAN_POINT('',(-2.406386824737E0,3.091701430017E0,-7.45E0));
#140=CARTESIAN_POINT('',(-2.882422792311E0,2.653461959425E0,-7.45E0));
#141=CARTESIAN_POINT('',(-3.279861515770E0,2.142839508325E0,-7.45E0));
#142=CARTESIAN_POINT('',(-3.587826735953E0,1.573766907338E0,-7.45E0));
#143=CARTESIAN_POINT('',(-3.797927384146E0,9.617657992016E-1,-7.45E0));
#144=CARTESIAN_POINT('',(-3.904429950442E0,3.235302949503E-1,-7.45E0));
#145=CARTESIAN_POINT('',(-3.904429950442E0,-3.235302949503E-1,-7.45E0));
#146=CARTESIAN_POINT('',(-3.797927384146E0,-9.617657992016E-1,-7.45E0));
#147=CARTESIAN_POINT('',(-3.587826735953E0,-1.573766907338E0,-7.45E0));
#148=CARTESIAN_POINT('',(-3.279861515770E0,-2.142839508325E0,-7.45E0));
#149=CARTESIAN_POINT('',(-2.882422792311E0,-2.653461959425E0,-7.45E0));
#150=CARTESIAN_POINT('',(-2.406386824737E0,-3.091701430017E0,-7.45E0));
#151=CARTESIAN_POINT('',(-1.864607385678E0,-3.445620240382E0,-7.45E0));
#152=CARTESIAN_POINT('',(-1.272352629619E0,-3.705503386687E0,-7.45E0));
#153=CARTESIAN_POINT('',(-6.439496752372E-1,-3.864489668664E0,-7.45E0));
#154=CARTESIAN_POINT('',(-2.168912797469E-1,-3.899758181742E0,-7.45E0));
#155=CARTESIAN_POINT('',(0.E0,-3.9E0,-7.45E0));
#157=CARTESIAN_POINT('',(0.E0,0.E0,-5.E-1));
#158=DIRECTION('',(0.E0,0.E0,1.E0));
#159=DIRECTION('',(0.E0,1.E0,0.E0));
#160=AXIS2_PLACEMENT_3D('',#157,#158,#159);
#162=CARTESIAN_POINT('',(0.E0,0.E0,-7.45E0));
#163=DIRECTION('',(0.E0,0.E0,1.E0));
#164=DIRECTION('',(0.E0,1.E0,0.E0));
#165=AXIS2_PLACEMENT_3D('',#162,#163,#164);
#167=DIRECTION('',(1.286969345326E-10,7.071067811865E-1,-7.071067811865E-1));
#168=VECTOR('',#167,7.071067811931E-1);
#169=CARTESIAN_POINT('',(-6.370166288279E-10,3.499999999968E0,
3.237736005228E-11));
#170=LINE('',#169,#168);
#171=CARTESIAN_POINT('',(0.E0,0.E0,0.E0));
#172=DIRECTION('',(0.E0,0.E0,1.E0));
#173=DIRECTION('',(0.E0,1.E0,0.E0));
#174=AXIS2_PLACEMENT_3D('',#171,#172,#173);
#176=CARTESIAN_POINT('',(0.E0,0.E0,0.E0));
#177=DIRECTION('',(0.E0,0.E0,1.E0));
#178=DIRECTION('',(0.E0,-1.E0,0.E0));
#179=AXIS2_PLACEMENT_3D('',#176,#177,#178);
#181=DIRECTION('',(-1.286962255160E-10,-7.071067811865E-1,-7.071067811865E-1));
#182=VECTOR('',#181,7.071067811931E-1);
#183=CARTESIAN_POINT('',(6.370160703222E-10,-3.499999999968E0,
3.237736005228E-11));
#184=LINE('',#183,#182);
#185=CARTESIAN_POINT('',(0.E0,0.E0,-5.E-1));
#186=DIRECTION('',(0.E0,0.E0,1.E0));
#187=DIRECTION('',(0.E0,-1.E0,0.E0));
#188=AXIS2_PLACEMENT_3D('',#185,#186,#187);
#190=DIRECTION('',(-7.856318758258E-11,-3.993096820409E-12,1.E0));
#191=VECTOR('',#190,6.950000000028E0);
#192=CARTESIAN_POINT('',(0.E0,4.E0,-7.45E0));
#193=LINE('',#192,#191);
#194=CARTESIAN_POINT('',(0.E0,0.E0,-7.45E0));
#195=DIRECTION('',(0.E0,0.E0,-1.E0));
#196=DIRECTION('',(0.E0,1.E0,0.E0));
#197=AXIS2_PLACEMENT_3D('',#194,#195,#196);
#199=DIRECTION('',(7.856326455577E-11,3.993096820409E-12,1.E0));
#200=VECTOR('',#199,6.950000000028E0);
#201=CARTESIAN_POINT('',(0.E0,-4.E0,-7.45E0));
#202=LINE('',#201,#200);
#203=CARTESIAN_POINT('',(0.E0,4.E0,-7.45E0));
#204=CARTESIAN_POINT('',(0.E0,-4.E0,-7.45E0));
#205=VERTEX_POINT('',#203);
#206=VERTEX_POINT('',#204);
#207=CARTESIAN_POINT('',(0.E0,3.5E0,0.E0));
#208=CARTESIAN_POINT('',(0.E0,-3.5E0,0.E0));
#209=VERTEX_POINT('',#207);
#210=VERTEX_POINT('',#208);
#211=CARTESIAN_POINT('',(0.E0,4.E0,-5.E-1));
#212=CARTESIAN_POINT('',(0.E0,-4.E0,-5.E-1));
#213=VERTEX_POINT('',#211);
#214=VERTEX_POINT('',#212);
#215=CARTESIAN_POINT('',(0.E0,2.9E0,-8.45E0));
#216=CARTESIAN_POINT('',(0.E0,2.9E0,-7.45E0));
#217=VERTEX_POINT('',#215);
#218=VERTEX_POINT('',#216);
#219=CARTESIAN_POINT('',(0.E0,-2.9E0,-8.45E0));
#220=CARTESIAN_POINT('',(0.E0,-2.9E0,-7.45E0));
#221=VERTEX_POINT('',#219);
#222=VERTEX_POINT('',#220);
#223=CARTESIAN_POINT('',(0.E0,3.E0,-8.45E0));
#224=CARTESIAN_POINT('',(0.E0,-3.E0,-8.45E0));
#225=VERTEX_POINT('',#223);
#226=VERTEX_POINT('',#224);
#227=VERTEX_POINT('',#134);
#228=VERTEX_POINT('',#155);
#229=CARTESIAN_POINT('',(0.E0,-3.E0,-1.595E1));
#230=CARTESIAN_POINT('',(0.E0,3.E0,-1.595E1));
#231=VERTEX_POINT('',#229);
#232=VERTEX_POINT('',#230);
#233=CARTESIAN_POINT('',(0.E0,-2.5E0,-1.645E1));
#234=CARTESIAN_POINT('',(0.E0,2.5E0,-1.645E1));
#235=VERTEX_POINT('',#233);
#236=VERTEX_POINT('',#234);
#237=CARTESIAN_POINT('',(0.E0,0.E0,-1.645E1));
#238=DIRECTION('',(0.E0,0.E0,1.E0));
#239=DIRECTION('',(0.E0,1.E0,0.E0));
#240=AXIS2_PLACEMENT_3D('',#237,#238,#239);
#241=PLANE('',#240);
#243=ORIENTED_EDGE('',*,*,#242,.T.);
#245=ORIENTED_EDGE('',*,*,#244,.T.);
#246=EDGE_LOOP('',(#243,#245));
#247=FACE_OUTER_BOUND('',#246,.F.);
#249=CARTESIAN_POINT('',(0.E0,0.E0,-1.620000000002E1));
#250=DIRECTION('',(0.E0,0.E0,1.E0));
#251=DIRECTION('',(0.E0,-1.E0,0.E0));
#252=AXIS2_PLACEMENT_3D('',#249,#250,#251);
#253=CONICAL_SURFACE('',#252,2.749999999977E0,4.5E1);
#255=ORIENTED_EDGE('',*,*,#254,.T.);
#257=ORIENTED_EDGE('',*,*,#256,.T.);
#258=ORIENTED_EDGE('',*,*,#242,.F.);
#260=ORIENTED_EDGE('',*,*,#259,.F.);
#261=EDGE_LOOP('',(#255,#257,#258,#260));
#262=FACE_OUTER_BOUND('',#261,.F.);
#264=CARTESIAN_POINT('',(0.E0,0.E0,0.E0));
#265=DIRECTION('',(0.E0,0.E0,1.E0));
#266=DIRECTION('',(0.E0,1.E0,0.E0));
#267=AXIS2_PLACEMENT_3D('',#264,#265,#266);
#268=CYLINDRICAL_SURFACE('',#267,3.E0);
#269=ORIENTED_EDGE('',*,*,#254,.F.);
#271=ORIENTED_EDGE('',*,*,#270,.T.);
#273=ORIENTED_EDGE('',*,*,#272,.F.);
#275=ORIENTED_EDGE('',*,*,#274,.F.);
#276=EDGE_LOOP('',(#269,#271,#273,#275));
#277=FACE_OUTER_BOUND('',#276,.F.);
#279=CARTESIAN_POINT('',(0.E0,0.E0,0.E0));
#280=DIRECTION('',(0.E0,0.E0,1.E0));
#281=DIRECTION('',(0.E0,1.E0,0.E0));
#282=AXIS2_PLACEMENT_3D('',#279,#280,#281);
#283=CYLINDRICAL_SURFACE('',#282,3.E0);
#285=ORIENTED_EDGE('',*,*,#284,.F.);
#286=ORIENTED_EDGE('',*,*,#274,.T.);
#288=ORIENTED_EDGE('',*,*,#287,.T.);
#289=ORIENTED_EDGE('',*,*,#270,.F.);
#290=EDGE_LOOP('',(#285,#286,#288,#289));
#291=FACE_OUTER_BOUND('',#290,.F.);
#293=CARTESIAN_POINT('',(0.E0,0.E0,-1.620000000002E1));
#294=DIRECTION('',(0.E0,0.E0,1.E0));
#295=DIRECTION('',(0.E0,-1.E0,0.E0));
#296=AXIS2_PLACEMENT_3D('',#293,#294,#295);
#297=CONICAL_SURFACE('',#296,2.749999999977E0,4.5E1);
#298=ORIENTED_EDGE('',*,*,#284,.T.);
#299=ORIENTED_EDGE('',*,*,#259,.T.);
#300=ORIENTED_EDGE('',*,*,#244,.F.);
#301=ORIENTED_EDGE('',*,*,#256,.F.);
#302=EDGE_LOOP('',(#298,#299,#300,#301));
#303=FACE_OUTER_BOUND('',#302,.F.);
#305=CARTESIAN_POINT('',(0.E0,0.E0,-8.45E0));
#306=DIRECTION('',(0.E0,0.E0,1.E0));
#307=DIRECTION('',(0.E0,1.E0,0.E0));
#308=AXIS2_PLACEMENT_3D('',#305,#306,#307);
#309=PLANE('',#308);
#310=ORIENTED_EDGE('',*,*,#272,.T.);
#311=ORIENTED_EDGE('',*,*,#287,.F.);
#312=EDGE_LOOP('',(#310,#311));
#313=FACE_OUTER_BOUND('',#312,.F.);
#315=ORIENTED_EDGE('',*,*,#314,.T.);
#317=ORIENTED_EDGE('',*,*,#316,.F.);
#318=EDGE_LOOP('',(#315,#317));
#319=FACE_BOUND('',#318,.F.);
#321=CARTESIAN_POINT('',(0.E0,0.E0,0.E0));
#322=DIRECTION('',(0.E0,0.E0,1.E0));
#323=DIRECTION('',(0.E0,1.E0,0.E0));
#324=AXIS2_PLACEMENT_3D('',#321,#322,#323);
#325=CYLINDRICAL_SURFACE('',#324,2.9E0);
#327=ORIENTED_EDGE('',*,*,#326,.T.);
#329=ORIENTED_EDGE('',*,*,#328,.T.);
#331=ORIENTED_EDGE('',*,*,#330,.F.);
#332=ORIENTED_EDGE('',*,*,#314,.F.);
#333=EDGE_LOOP('',(#327,#329,#331,#332));
#334=FACE_OUTER_BOUND('',#333,.F.);
#336=CARTESIAN_POINT('',(0.E0,0.E0,0.E0));
#337=DIRECTION('',(0.E0,0.E0,1.E0));
#338=DIRECTION('',(0.E0,1.E0,0.E0));
#339=AXIS2_PLACEMENT_3D('',#336,#337,#338);
#340=CYLINDRICAL_SURFACE('',#339,2.9E0);
#341=ORIENTED_EDGE('',*,*,#326,.F.);
#342=ORIENTED_EDGE('',*,*,#316,.T.);
#343=ORIENTED_EDGE('',*,*,#330,.T.);
#345=ORIENTED_EDGE('',*,*,#344,.F.);
#346=EDGE_LOOP('',(#341,#342,#343,#345));
#347=FACE_OUTER_BOUND('',#346,.F.);
#349=CARTESIAN_POINT('',(0.E0,0.E0,-7.45E0));
#350=DIRECTION('',(0.E0,0.E0,1.E0));
#351=DIRECTION('',(0.E0,1.E0,0.E0));
#352=AXIS2_PLACEMENT_3D('',#349,#350,#351);
#353=PLANE('',#352);
#355=ORIENTED_EDGE('',*,*,#354,.T.);
#357=ORIENTED_EDGE('',*,*,#356,.F.);
#358=EDGE_LOOP('',(#355,#357));
#359=FACE_OUTER_BOUND('',#358,.F.);
#360=ORIENTED_EDGE('',*,*,#344,.T.);
#361=ORIENTED_EDGE('',*,*,#328,.F.);
#362=EDGE_LOOP('',(#360,#361));
#363=FACE_BOUND('',#362,.F.);
#365=CARTESIAN_POINT('',(0.E0,0.E0,-7.45E0));
#366=DIRECTION('',(0.E0,0.E0,1.E0));
#367=DIRECTION('',(0.E0,1.E0,0.E0));
#368=AXIS2_PLACEMENT_3D('',#365,#366,#367);
#369=PLANE('',#368);
#371=ORIENTED_EDGE('',*,*,#370,.T.);
#373=ORIENTED_EDGE('',*,*,#372,.F.);
#374=EDGE_LOOP('',(#371,#373));
#375=FACE_OUTER_BOUND('',#374,.F.);
#376=ORIENTED_EDGE('',*,*,#356,.T.);
#377=ORIENTED_EDGE('',*,*,#354,.F.);
#378=EDGE_LOOP('',(#376,#377));
#379=FACE_BOUND('',#378,.F.);
#381=CARTESIAN_POINT('',(0.E0,0.E0,0.E0));
#382=DIRECTION('',(0.E0,0.E0,1.E0));
#383=DIRECTION('',(0.E0,1.E0,0.E0));
#384=AXIS2_PLACEMENT_3D('',#381,#382,#383);
#385=CYLINDRICAL_SURFACE('',#384,4.E0);
#387=ORIENTED_EDGE('',*,*,#386,.T.);
#389=ORIENTED_EDGE('',*,*,#388,.F.);
#390=ORIENTED_EDGE('',*,*,#370,.F.);
#392=ORIENTED_EDGE('',*,*,#391,.T.);
#393=EDGE_LOOP('',(#387,#389,#390,#392));
#394=FACE_OUTER_BOUND('',#393,.F.);
#396=CARTESIAN_POINT('',(0.E0,0.E0,-2.499999999685E-1));
#397=DIRECTION('',(0.E0,0.E0,-1.E0));
#398=DIRECTION('',(0.E0,-1.E0,0.E0));
#399=AXIS2_PLACEMENT_3D('',#396,#397,#398);
#400=CONICAL_SURFACE('',#399,3.749999999968E0,4.5E1);
#402=ORIENTED_EDGE('',*,*,#401,.T.);
#404=ORIENTED_EDGE('',*,*,#403,.T.);
#405=ORIENTED_EDGE('',*,*,#386,.F.);
#407=ORIENTED_EDGE('',*,*,#406,.F.);
#408=EDGE_LOOP('',(#402,#404,#405,#407));
#409=FACE_OUTER_BOUND('',#408,.F.);
#411=CARTESIAN_POINT('',(0.E0,0.E0,0.E0));
#412=DIRECTION('',(0.E0,0.E0,1.E0));
#413=DIRECTION('',(0.E0,1.E0,0.E0));
#414=AXIS2_PLACEMENT_3D('',#411,#412,#413);
#415=PLANE('',#414);
#416=ORIENTED_EDGE('',*,*,#401,.F.);
#418=ORIENTED_EDGE('',*,*,#417,.F.);
#419=EDGE_LOOP('',(#416,#418));
#420=FACE_OUTER_BOUND('',#419,.F.);
#422=CARTESIAN_POINT('',(0.E0,0.E0,-2.499999999685E-1));
#423=DIRECTION('',(0.E0,0.E0,-1.E0));
#424=DIRECTION('',(0.E0,-1.E0,0.E0));
#425=AXIS2_PLACEMENT_3D('',#422,#423,#424);
#426=CONICAL_SURFACE('',#425,3.749999999968E0,4.5E1);
#427=ORIENTED_EDGE('',*,*,#417,.T.);
#428=ORIENTED_EDGE('',*,*,#406,.T.);
#430=ORIENTED_EDGE('',*,*,#429,.F.);
#431=ORIENTED_EDGE('',*,*,#403,.F.);
#432=EDGE_LOOP('',(#427,#428,#430,#431));
#433=FACE_OUTER_BOUND('',#432,.F.);
#435=CARTESIAN_POINT('',(0.E0,0.E0,0.E0));
#436=DIRECTION('',(0.E0,0.E0,1.E0));
#437=DIRECTION('',(0.E0,1.E0,0.E0));
#438=AXIS2_PLACEMENT_3D('',#435,#436,#437);
#439=CYLINDRICAL_SURFACE('',#438,4.E0);
#440=ORIENTED_EDGE('',*,*,#429,.T.);
#441=ORIENTED_EDGE('',*,*,#391,.F.);
#442=ORIENTED_EDGE('',*,*,#372,.T.);
#443=ORIENTED_EDGE('',*,*,#388,.T.);
#444=EDGE_LOOP('',(#440,#441,#442,#443));
#445=FACE_OUTER_BOUND('',#444,.F.);
#451=PLANE_ANGLE_MEASURE_WITH_UNIT(PLANE_ANGLE_MEASURE(1.745329251994E-2),#450);
#452=(CONVERSION_BASED_UNIT('DEGREE',#451)NAMED_UNIT(*)PLANE_ANGLE_UNIT());
#454=UNCERTAINTY_MEASURE_WITH_UNIT(LENGTH_MEASURE(1.996744634278E-3),#449,
'distance_accuracy_value',
'Maximum model space distance between geometric entities at asserted connectivities');
#457=APPLICATION_CONTEXT('automotive_design');
#458=APPLICATION_PROTOCOL_DEFINITION('international standard',
'automotive_design',2001,#457);
#459=PRODUCT_DEFINITION_CONTEXT('part definition',#457,'design');
#460=PRODUCT_CONTEXT('',#457,'mechanical');
#461=PRODUCT('PION_VMA','PION_VMA','NOT SPECIFIED',(#460));
#462=PRODUCT_DEFINITION_FORMATION('1','LAST_VERSION',#461);
#470=DERIVED_UNIT_ELEMENT(#469,2.E0);
#471=DERIVED_UNIT((#470));
#472=MEASURE_REPRESENTATION_ITEM('surface area measure',AREA_MEASURE(
4.469618896865E2),#471);
#477=DERIVED_UNIT_ELEMENT(#476,3.E0);
#478=DERIVED_UNIT((#477));
#479=MEASURE_REPRESENTATION_ITEM('volume measure',VOLUME_MEASURE(
6.218573225047E2),#478);
#483=CARTESIAN_POINT('centre point',(0.E0,0.E0,-7.050430678538E0));
#488=DERIVED_UNIT_ELEMENT(#487,2.E0);
#489=DERIVED_UNIT((#488));
#490=MEASURE_REPRESENTATION_ITEM('surface area measure',AREA_MEASURE(
4.469618896865E2),#489);
#495=DERIVED_UNIT_ELEMENT(#494,3.E0);
#496=DERIVED_UNIT((#495));
#497=MEASURE_REPRESENTATION_ITEM('volume measure',VOLUME_MEASURE(
6.218573225047E2),#496);
#501=CARTESIAN_POINT('centre point',(0.E0,0.E0,-7.050430678538E0));
#506=PRODUCT_RELATED_PRODUCT_CATEGORY('part','',(#461));
#1=COLOUR_RGB('',0.E0,0.E0,5.E-1);
#2=COLOUR_RGB('',0.E0,0.E0,7.5E-1);
#3=DRAUGHTING_PRE_DEFINED_COLOUR('blue');
#4=COLOUR_RGB('',0.E0,5.E-1,5.E-1);
#5=COLOUR_RGB('',0.E0,7.5E-1,7.5E-1);
#6=COLOUR_RGB('',0.E0,7.5E-1,1.E0);
#7=COLOUR_RGB('',0.E0,1.E0,7.5E-1);
#8=DRAUGHTING_PRE_DEFINED_COLOUR('cyan');
#9=COLOUR_RGB('',2.E-1,2.E-1,2.E-1);
#10=COLOUR_RGB('',2.5E-1,7.5E-1,1.E0);
#11=COLOUR_RGB('',4.E-1,4.E-1,4.E-1);
#12=COLOUR_RGB('',5.E-1,0.E0,0.E0);
#13=COLOUR_RGB('',5.E-1,0.E0,5.E-1);
#14=COLOUR_RGB('',5.E-1,2.5E-1,0.E0);
#15=COLOUR_RGB('',5.E-1,5.E-1,5.E-1);
#16=COLOUR_RGB('',5.E-1,5.E-1,1.E0);
#17=COLOUR_RGB('',5.E-1,1.E0,7.5E-1);
#18=COLOUR_RGB('',6.E-1,6.E-1,6.E-1);
#19=COLOUR_RGB('',6.35294E-1,6.86275E-1,7.4902E-1);
#20=COLOUR_RGB('',7.5E-1,0.E0,0.E0);
#21=COLOUR_RGB('',7.5E-1,0.E0,7.5E-1);
#22=COLOUR_RGB('',7.5E-1,0.E0,1.E0);
#23=COLOUR_RGB('',7.5E-1,2.5E-1,0.E0);
#24=COLOUR_RGB('',7.5E-1,5.E-1,0.E0);
#25=COLOUR_RGB('',7.5E-1,5.E-1,1.E0);
#26=COLOUR_RGB('',7.5E-1,7.5E-1,1.E0);
#27=COLOUR_RGB('',7.5E-1,1.E0,7.5E-1);
#28=COLOUR_RGB('',8.E-1,8.E-1,8.E-1);
#29=DRAUGHTING_PRE_DEFINED_COLOUR('red');
#30=DRAUGHTING_PRE_DEFINED_COLOUR('magenta');
#31=COLOUR_RGB('',1.E0,5.E-1,0.E0);
#32=COLOUR_RGB('',1.E0,7.5E-1,0.E0);
#33=DRAUGHTING_PRE_DEFINED_COLOUR('yellow');
#34=COLOUR_RGB('',1.E0,1.E0,5.E-1);
#35=COLOUR_RGB('',1.E0,1.E0,7.5E-1);
#36=DRAUGHTING_PRE_DEFINED_COLOUR('white');
#41=CIRCLE('',#40,2.5E0);
#46=CIRCLE('',#45,2.5E0);
#55=CIRCLE('',#54,3.E0);
#68=CIRCLE('',#67,3.E0);
#77=CIRCLE('',#76,3.E0);
#82=CIRCLE('',#81,3.E0);
#87=CIRCLE('',#86,2.9E0);
#96=CIRCLE('',#95,2.9E0);
#105=CIRCLE('',#104,2.9E0);
#110=CIRCLE('',#109,2.9E0);
#133=B_SPLINE_CURVE_WITH_KNOTS('',3,(#111,#112,#113,#114,#115,#116,#117,#118,
#119,#120,#121,#122,#123,#124,#125,#126,#127,#128,#129,#130,#131,#132),
.UNSPECIFIED.,.F.,.F.,(4,1,1,1,1,1,1,1,1,1,1,1,1,1,1,1,1,1,1,4),(0.E0,
5.263157894737E-2,1.052631578947E-1,1.578947368421E-1,2.105263157895E-1,
2.631578947368E-1,3.157894736842E-1,3.684210526316E-1,4.210526315789E-1,
4.736842105263E-1,5.263157894737E-1,5.789473684211E-1,6.315789473684E-1,
6.842105263158E-1,7.368421052632E-1,7.894736842105E-1,8.421052631579E-1,
8.947368421053E-1,9.473684210526E-1,1.E0),.UNSPECIFIED.);
#156=B_SPLINE_CURVE_WITH_KNOTS('',3,(#134,#135,#136,#137,#138,#139,#140,#141,
#142,#143,#144,#145,#146,#147,#148,#149,#150,#151,#152,#153,#154,#155),
.UNSPECIFIED.,.F.,.F.,(4,1,1,1,1,1,1,1,1,1,1,1,1,1,1,1,1,1,1,4),(0.E0,
5.263157894737E-2,1.052631578947E-1,1.578947368421E-1,2.105263157895E-1,
2.631578947368E-1,3.157894736842E-1,3.684210526316E-1,4.210526315789E-1,
4.736842105263E-1,5.263157894737E-1,5.789473684211E-1,6.315789473684E-1,
6.842105263158E-1,7.368421052632E-1,7.894736842105E-1,8.421052631579E-1,
8.947368421053E-1,9.473684210526E-1,1.E0),.UNSPECIFIED.);
#161=CIRCLE('',#160,4.E0);
#166=CIRCLE('',#165,4.E0);
#175=CIRCLE('',#174,3.5E0);
#180=CIRCLE('',#179,3.5E0);
#189=CIRCLE('',#188,4.E0);
#198=CIRCLE('',#197,4.E0);
#242=EDGE_CURVE('',#235,#236,#41,.T.);
#244=EDGE_CURVE('',#236,#235,#46,.T.);
#248=ADVANCED_FACE('',(#247),#241,.F.);
#254=EDGE_CURVE('',#231,#232,#55,.T.);
#256=EDGE_CURVE('',#232,#236,#72,.T.);
#259=EDGE_CURVE('',#231,#235,#50,.T.);
#263=ADVANCED_FACE('',(#262),#253,.T.);
#270=EDGE_CURVE('',#231,#226,#59,.T.);
#272=EDGE_CURVE('',#225,#226,#77,.T.);
#274=EDGE_CURVE('',#232,#225,#63,.T.);
#278=ADVANCED_FACE('',(#277),#268,.T.);
#284=EDGE_CURVE('',#232,#231,#68,.T.);
#287=EDGE_CURVE('',#225,#226,#82,.T.);
#292=ADVANCED_FACE('',(#291),#283,.T.);
#304=ADVANCED_FACE('',(#303),#297,.T.);
#314=EDGE_CURVE('',#217,#221,#87,.T.);
#316=EDGE_CURVE('',#217,#221,#96,.T.);
#320=ADVANCED_FACE('',(#313,#319),#309,.T.);
#326=EDGE_CURVE('',#217,#218,#91,.T.);
#328=EDGE_CURVE('',#218,#222,#110,.T.);
#330=EDGE_CURVE('',#221,#222,#100,.T.);
#335=ADVANCED_FACE('',(#334),#325,.T.);
#344=EDGE_CURVE('',#218,#222,#105,.T.);
#348=ADVANCED_FACE('',(#347),#340,.T.);
#354=EDGE_CURVE('',#227,#228,#156,.T.);
#356=EDGE_CURVE('',#227,#228,#133,.T.);
#364=ADVANCED_FACE('',(#359,#363),#353,.F.);
#370=EDGE_CURVE('',#205,#206,#166,.T.);
#372=EDGE_CURVE('',#205,#206,#198,.T.);
#380=ADVANCED_FACE('',(#375,#379),#369,.F.);
#386=EDGE_CURVE('',#213,#214,#161,.T.);
#388=EDGE_CURVE('',#206,#214,#202,.T.);
#391=EDGE_CURVE('',#205,#213,#193,.T.);
#395=ADVANCED_FACE('',(#394),#385,.T.);
#401=EDGE_CURVE('',#209,#210,#175,.T.);
#403=EDGE_CURVE('',#210,#214,#184,.T.);
#406=EDGE_CURVE('',#209,#213,#170,.T.);
#410=ADVANCED_FACE('',(#409),#400,.T.);
#417=EDGE_CURVE('',#210,#209,#180,.T.);
#421=ADVANCED_FACE('',(#420),#415,.T.);
#429=EDGE_CURVE('',#214,#213,#189,.T.);
#434=ADVANCED_FACE('',(#433),#426,.T.);
#446=ADVANCED_FACE('',(#445),#439,.T.);
#447=CLOSED_SHELL('',(#248,#263,#278,#292,#304,#320,#335,#348,#364,#380,#395,
#410,#421,#434,#446));
#448=MANIFOLD_SOLID_BREP('',#447);
#449=(LENGTH_UNIT()NAMED_UNIT(*)SI_UNIT(.MILLI.,.METRE.));
#450=(NAMED_UNIT(*)PLANE_ANGLE_UNIT()SI_UNIT($,.RADIAN.));
#453=(NAMED_UNIT(*)SI_UNIT($,.STERADIAN.)SOLID_ANGLE_UNIT());
#455=(GEOMETRIC_REPRESENTATION_CONTEXT(3)GLOBAL_UNCERTAINTY_ASSIGNED_CONTEXT((
#454))GLOBAL_UNIT_ASSIGNED_CONTEXT((#449,#452,#453))REPRESENTATION_CONTEXT
('ID1','3'));
#456=ADVANCED_BREP_SHAPE_REPRESENTATION('',(#448),#455);
#463=PRODUCT_DEFINITION('part definition','',#462,#459);
#464=PRODUCT_DEFINITION_SHAPE('','SHAPE FOR PION_VMA.',#463);
#465=SHAPE_ASPECT('','solid data associated with PION_VMA',#464,.F.);
#466=PROPERTY_DEFINITION('',
'shape for solid data with which properties are associated',#465);
#467=SHAPE_REPRESENTATION('',(#448),#455);
#468=SHAPE_DEFINITION_REPRESENTATION(#466,#467);
#469=(LENGTH_UNIT()NAMED_UNIT(*)SI_UNIT(.MILLI.,.METRE.));
#473=PROPERTY_DEFINITION('geometric validation property','area of PION_VMA',
#465);
#474=REPRESENTATION('surface area',(#472),#455);
#475=PROPERTY_DEFINITION_REPRESENTATION(#473,#474);
#476=(LENGTH_UNIT()NAMED_UNIT(*)SI_UNIT(.MILLI.,.METRE.));
#480=PROPERTY_DEFINITION('geometric validation property','volume of PION_VMA',
#465);
#481=REPRESENTATION('volume',(#479),#455);
#482=PROPERTY_DEFINITION_REPRESENTATION(#480,#481);
#484=PROPERTY_DEFINITION('geometric validation property','centroid of PION_VMA',
#465);
#485=REPRESENTATION('centroid',(#483),#455);
#486=PROPERTY_DEFINITION_REPRESENTATION(#484,#485);
#487=(LENGTH_UNIT()NAMED_UNIT(*)SI_UNIT(.MILLI.,.METRE.));
#491=PROPERTY_DEFINITION('geometric validation property','area of PION_VMA',
#464);
#492=REPRESENTATION('surface area',(#490),#455);
#493=PROPERTY_DEFINITION_REPRESENTATION(#491,#492);
#494=(LENGTH_UNIT()NAMED_UNIT(*)SI_UNIT(.MILLI.,.METRE.));
#498=PROPERTY_DEFINITION('geometric validation property','volume of PION_VMA',
#464);
#499=REPRESENTATION('volume',(#497),#455);
#500=PROPERTY_DEFINITION_REPRESENTATION(#498,#499);
#502=PROPERTY_DEFINITION('geometric validation property','centroid of PION_VMA',
#464);
#503=REPRESENTATION('centroid',(#501),#455);
#504=PROPERTY_DEFINITION_REPRESENTATION(#502,#503);
#505=SHAPE_DEFINITION_REPRESENTATION(#464,#456);
ENDSEC;
END-ISO-10303-21;
