ISO-10303-21;
HEADER;
/* Generated by software containing ST-Developer
 * from STEP Tools, Inc. (www.steptools.com) 
 */

FILE_DESCRIPTION(
/* description */ ('Alibre Inc.'),
/* implementation_level */ '2;1');

FILE_NAME(
/* name */ 'export0',
/* time_stamp */ '2022-03-23T14:16:41+01:00',
/* author */ (''),
/* organization */ (''),
/* preprocessor_version */ 'ST-DEVELOPER v14',
/* originating_system */ 'Alibre',
/* authorisation */ '');

FILE_SCHEMA (('CONFIG_CONTROL_DESIGN'));
ENDSEC;

DATA;
#10=MECHANICAL_CONTEXT('detailed design',#18,'mechanical');
#11=PRODUCT_RELATED_PRODUCT_CATEGORY('d\X\E9tail','',(#98));
#12=CC_DESIGN_SECURITY_CLASSIFICATION(#14,(#97));
#13=SECURITY_CLASSIFICATION_LEVEL('unclassified');
#14=SECURITY_CLASSIFICATION('nom','Niveau de s\X\E9curit\X\E9 pour la v
ersion',#13);
#15=SHAPE_DEFINITION_REPRESENTATION(#16,#603);
#16=PRODUCT_DEFINITION_SHAPE('','Desc. D\X\E9finition',#96);
#17=APPLICATION_PROTOCOL_DEFINITION('AP definition status',
'config_control_design',1994,#18);
#18=APPLICATION_CONTEXT(
'control the configuration of three dimensional design');
#19=DESIGN_CONTEXT('detailed design',#18,'design');
#20=PERSON_AND_ORGANIZATION_ROLE('creator');
#21=PERSON_AND_ORGANIZATION_ROLE('classification_officer');
#22=PERSON_AND_ORGANIZATION_ROLE('creator');
#23=PERSON_AND_ORGANIZATION_ROLE('design_supplier');
#24=PERSON_AND_ORGANIZATION_ROLE('design_owner');
#25=CC_DESIGN_PERSON_AND_ORGANIZATION_ASSIGNMENT(#57,#20,(#96));
#26=CC_DESIGN_PERSON_AND_ORGANIZATION_ASSIGNMENT(#60,#21,(#14));
#27=CC_DESIGN_PERSON_AND_ORGANIZATION_ASSIGNMENT(#61,#22,(#97));
#28=CC_DESIGN_PERSON_AND_ORGANIZATION_ASSIGNMENT(#62,#23,(#97));
#29=CC_DESIGN_PERSON_AND_ORGANIZATION_ASSIGNMENT(#63,#24,(#98));
#30=DATE_TIME_ROLE('creation_date');
#31=DATE_TIME_ROLE('classification_date');
#32=CC_DESIGN_DATE_AND_TIME_ASSIGNMENT(#86,#30,(#96));
#33=CC_DESIGN_DATE_AND_TIME_ASSIGNMENT(#89,#31,(#14));
#34=CC_DESIGN_APPROVAL(#93,(#96));
#35=CC_DESIGN_APPROVAL(#94,(#97));
#36=CC_DESIGN_APPROVAL(#95,(#14));
#37=APPROVAL_PERSON_ORGANIZATION(#56,#93,#64);
#38=APPROVAL_PERSON_ORGANIZATION(#58,#94,#65);
#39=APPROVAL_PERSON_ORGANIZATION(#59,#95,#66);
#40=ORGANIZATION('DEFINITION_APPROVEDBY_ORG_ID',
'DEFINITION_APPROVEDBY_ORG_NAME','DEFINITION_APPROVEDBY_ORG_DESCR');
#41=ORGANIZATION('DEF_CREATOR_ORG_ID','DEF_CREATOR_ORG_NAME',
'DEF_CREATOR_ORG_DESCR');
#42=ORGANIZATION('ID_ORG_APPROBATEUR','NOM_ORG_APPROBATEUR',
'DESCR_ORG_APPROBATEUR');
#43=ORGANIZATION('SECURITY_APPROVEDBY_ORG_ID',
'SECURITY_APPROVEDBY_ORG_NAME','SECURITY_APPROVEDBY_ORG_DESCR');
#44=ORGANIZATION('CLASSOFFICER_ORG_ID','CLASSOFFICER_ORG_NAME',
'CLASSOFFICER_ORG_DESCR');
#45=ORGANIZATION('CODE_SOCIETE_CREATEUR','NOM_SOCIETE_CREATEUR',
'DESCRIPTION_SOCIETE_CREATEUR');
#46=ORGANIZATION('SUPPLIER_ORG_ID','SUPPLIER_ORG_NAME',
'SUPPLIER_ORG_DESCR');
#47=ORGANIZATION('PROPRIETAIRE_SOCIETE_ID','PROPRIETAIRE_SOCIETE_NOM',
'PROPRIETAIRE_SOCIETE_DESCRIPTION');
#48=PERSON('ID_Validateur D\X\E9finition',
'DEFINITION_APPROVEDBY_LASTNAME','DEFINITION_APPROVEDBY_FIRSTNAME',$,$,$);
#49=PERSON('DEF_createrID','DEF_CREATOR_LASTNAME',
'DEF_CREATOR_FIRSTNAME',$,$,$);
#50=PERSON('ID Validateur','NOM_APPROBATEUR','PRENOM_APPROBATEUR',$,$,$);
#51=PERSON('SECURITY_approverID','SECURITY_LASTNAME',
'SECURITY_APPROVEDBY_FIRSTNAME',$,$,$);
#52=PERSON('classifierID','CLASSOFFICER_LASTNAME',
'CLASSOFFICER_FIRSTNAME',$,$,$);
#53=PERSON('Code cr\X\E9ateur','NOM_CREATEUR','PRENOM_CREATEUR',$,$,$);
#54=PERSON('Code fournisseur','SUPPLIER_LASTNAME','SUPPLIER_FIRSTNAME',$,
$,$);
#55=PERSON('ID propri\X\E9taire','PROPRIETAIRE_NOM',
'PROPRIETAIRE_PRENOM',$,$,$);
#56=PERSON_AND_ORGANIZATION(#48,#40);
#57=PERSON_AND_ORGANIZATION(#49,#41);
#58=PERSON_AND_ORGANIZATION(#50,#42);
#59=PERSON_AND_ORGANIZATION(#51,#43);
#60=PERSON_AND_ORGANIZATION(#52,#44);
#61=PERSON_AND_ORGANIZATION(#53,#45);
#62=PERSON_AND_ORGANIZATION(#54,#46);
#63=PERSON_AND_ORGANIZATION(#55,#47);
#64=APPROVAL_ROLE('definition_approval');
#65=APPROVAL_ROLE('version_approval');
#66=APPROVAL_ROLE('security_approval');
#67=APPROVAL_DATE_TIME(#85,#93);
#68=APPROVAL_DATE_TIME(#87,#94);
#69=APPROVAL_DATE_TIME(#88,#95);
#70=COORDINATED_UNIVERSAL_TIME_OFFSET(2,0,.AHEAD.);
#71=COORDINATED_UNIVERSAL_TIME_OFFSET(2,0,.AHEAD.);
#72=COORDINATED_UNIVERSAL_TIME_OFFSET(2,0,.AHEAD.);
#73=COORDINATED_UNIVERSAL_TIME_OFFSET(2,0,.AHEAD.);
#74=COORDINATED_UNIVERSAL_TIME_OFFSET(2,0,.AHEAD.);
#75=LOCAL_TIME(12,20,38.,#70);
#76=LOCAL_TIME(12,20,38.,#71);
#77=LOCAL_TIME(12,20,38.,#72);
#78=LOCAL_TIME(12,20,38.,#73);
#79=LOCAL_TIME(12,20,38.,#74);
#80=CALENDAR_DATE(2016,19,5);
#81=CALENDAR_DATE(2016,19,5);
#82=CALENDAR_DATE(2016,19,5);
#83=CALENDAR_DATE(2016,19,5);
#84=CALENDAR_DATE(2016,19,5);
#85=DATE_AND_TIME(#80,#75);
#86=DATE_AND_TIME(#81,#76);
#87=DATE_AND_TIME(#82,#77);
#88=DATE_AND_TIME(#83,#78);
#89=DATE_AND_TIME(#84,#79);
#90=APPROVAL_STATUS('not_yet_approved');
#91=APPROVAL_STATUS('not_yet_approved');
#92=APPROVAL_STATUS('not_yet_approved');
#93=APPROVAL(#90,'Concept valid\X\E9');
#94=APPROVAL(#91,'version approuv\X\E9e');
#95=APPROVAL(#92,'security approval');
#96=PRODUCT_DEFINITION('ID D\X\E9finition','Desc. D\X\E9finition',#97,#19);
#97=PRODUCT_DEFINITION_FORMATION_WITH_SPECIFIED_SOURCE(
'REFERENCE_PRODUIT','DESCR_VERSION_PRODUIT',#98,.NOT_KNOWN.);
#98=PRODUCT('ID_1','Axe lame 45mm','',(#10));
#99=(
LENGTH_UNIT()
NAMED_UNIT(*)
SI_UNIT(.CENTI.,.METRE.)
);
#100=(
NAMED_UNIT(*)
PLANE_ANGLE_UNIT()
SI_UNIT($,.RADIAN.)
);
#101=(
NAMED_UNIT(*)
SI_UNIT($,.STERADIAN.)
SOLID_ANGLE_UNIT()
);
#102=UNCERTAINTY_MEASURE_WITH_UNIT(LENGTH_MEASURE(1.E-006),#99,
'DISTANCE_ACCURACY_VALUE',
'Maximum model space distance between geometric entities at asserted co
nnectivities');
#103=(
GEOMETRIC_REPRESENTATION_CONTEXT(3)
GLOBAL_UNCERTAINTY_ASSIGNED_CONTEXT((#102))
GLOBAL_UNIT_ASSIGNED_CONTEXT((#101,#100,#99))
REPRESENTATION_CONTEXT('ID1','3D')
);
#104=CYLINDRICAL_SURFACE('',#394,0.527629190341182);
#105=CYLINDRICAL_SURFACE('',#402,0.3);
#106=CYLINDRICAL_SURFACE('',#404,0.3);
#107=CYLINDRICAL_SURFACE('',#407,0.4125);
#108=(
BOUNDED_CURVE()
B_SPLINE_CURVE(2,(#493,#494,#495,#496),.UNSPECIFIED.,.F.,.U.)
B_SPLINE_CURVE_WITH_KNOTS((3,1,3),(0.,6.45640353146675,7.50195305769667),
 .UNSPECIFIED.)
CURVE()
GEOMETRIC_REPRESENTATION_ITEM()
RATIONAL_B_SPLINE_CURVE((1.,1.71685247622638,1.1160870387426,1.))
REPRESENTATION_ITEM('')
);
#109=(
BOUNDED_CURVE()
B_SPLINE_CURVE(2,(#499,#500,#501,#502),.UNSPECIFIED.,.F.,.U.)
B_SPLINE_CURVE_WITH_KNOTS((3,1,3),(0.,6.70620171430968,7.62455199175322),
 .UNSPECIFIED.)
CURVE()
GEOMETRIC_REPRESENTATION_ITEM()
RATIONAL_B_SPLINE_CURVE((1.,1.87210062608433,1.11942585177751,1.))
REPRESENTATION_ITEM('')
);
#110=(
BOUNDED_CURVE()
B_SPLINE_CURVE(2,(#506,#507,#508,#509),.UNSPECIFIED.,.F.,.U.)
B_SPLINE_CURVE_WITH_KNOTS((3,1,3),(0.,2.68358706528059,7.62455199175322),
 .UNSPECIFIED.)
CURVE()
GEOMETRIC_REPRESENTATION_ITEM()
RATIONAL_B_SPLINE_CURVE((1.,1.3489841283463,1.64254234951546,1.))
REPRESENTATION_ITEM('')
);
#111=(
BOUNDED_CURVE()
B_SPLINE_CURVE(2,(#511,#512,#513,#514),.UNSPECIFIED.,.F.,.U.)
B_SPLINE_CURVE_WITH_KNOTS((3,1,3),(0.,2.64337743319086,7.50195305769667),
 .UNSPECIFIED.)
CURVE()
GEOMETRIC_REPRESENTATION_ITEM()
RATIONAL_B_SPLINE_CURVE((1.,1.29349337434245,1.53944614061901,1.))
REPRESENTATION_ITEM('')
);
#112=(
BOUNDED_CURVE()
B_SPLINE_CURVE(2,(#526,#527,#528,#529),.UNSPECIFIED.,.F.,.U.)
B_SPLINE_CURVE_WITH_KNOTS((3,1,3),(0.,6.45640353140383,7.50195305769675),
 .UNSPECIFIED.)
CURVE()
GEOMETRIC_REPRESENTATION_ITEM()
RATIONAL_B_SPLINE_CURVE((1.,1.71685247614518,1.11608703873758,1.))
REPRESENTATION_ITEM('')
);
#113=(
BOUNDED_CURVE()
B_SPLINE_CURVE(2,(#537,#538,#539,#540),.UNSPECIFIED.,.F.,.U.)
B_SPLINE_CURVE_WITH_KNOTS((3,1,3),(0.,6.70646884053046,7.62482703391799),
 .UNSPECIFIED.)
CURVE()
GEOMETRIC_REPRESENTATION_ITEM()
RATIONAL_B_SPLINE_CURVE((1.,1.87212925945043,1.11942604523396,1.))
REPRESENTATION_ITEM('')
);
#114=(
BOUNDED_CURVE()
B_SPLINE_CURVE(2,(#544,#545,#546,#547),.UNSPECIFIED.,.F.,.U.)
B_SPLINE_CURVE_WITH_KNOTS((3,1,3),(0.,2.68367993538195,7.62482703391799),
 .UNSPECIFIED.)
CURVE()
GEOMETRIC_REPRESENTATION_ITEM()
RATIONAL_B_SPLINE_CURVE((1.,1.34899376263431,1.64256154205,1.))
REPRESENTATION_ITEM('')
);
#115=(
BOUNDED_CURVE()
B_SPLINE_CURVE(2,(#549,#550,#551,#552),.UNSPECIFIED.,.F.,.U.)
B_SPLINE_CURVE_WITH_KNOTS((3,1,3),(0.,2.64337743318073,7.50195305769675),
 .UNSPECIFIED.)
CURVE()
GEOMETRIC_REPRESENTATION_ITEM()
RATIONAL_B_SPLINE_CURVE((1.,1.29349337433039,1.53944614060004,1.))
REPRESENTATION_ITEM('')
);
#116=CONICAL_SURFACE('',#382,0.522629190341182,0.785398163397448);
#117=CONICAL_SURFACE('',#389,0.522629190341182,0.785398163397459);
#118=CIRCLE('',#380,0.4125);
#119=CIRCLE('',#381,0.3);
#120=CIRCLE('',#383,0.527629190341182);
#121=CIRCLE('',#384,0.517629190341182);
#122=CIRCLE('',#386,0.4125);
#123=CIRCLE('',#390,0.527629190341182);
#124=CIRCLE('',#391,0.517629190341182);
#125=CIRCLE('',#393,0.4125);
#126=CIRCLE('',#398,0.3);
#127=CIRCLE('',#401,0.3);
#128=CIRCLE('',#403,0.3);
#129=CIRCLE('',#405,0.3);
#130=CIRCLE('',#408,0.4125);
#131=VERTEX_POINT('',#481);
#132=VERTEX_POINT('',#482);
#133=VERTEX_POINT('',#484);
#134=VERTEX_POINT('',#486);
#135=VERTEX_POINT('',#491);
#136=VERTEX_POINT('',#497);
#137=VERTEX_POINT('',#498);
#138=VERTEX_POINT('',#503);
#139=VERTEX_POINT('',#505);
#140=VERTEX_POINT('',#510);
#141=VERTEX_POINT('',#515);
#142=VERTEX_POINT('',#519);
#143=VERTEX_POINT('',#521);
#144=VERTEX_POINT('',#525);
#145=VERTEX_POINT('',#530);
#146=VERTEX_POINT('',#532);
#147=VERTEX_POINT('',#536);
#148=VERTEX_POINT('',#543);
#149=VERTEX_POINT('',#548);
#150=VERTEX_POINT('',#553);
#151=VERTEX_POINT('',#557);
#152=VERTEX_POINT('',#567);
#153=VERTEX_POINT('',#568);
#154=VERTEX_POINT('',#572);
#155=VERTEX_POINT('',#574);
#156=VERTEX_POINT('',#580);
#157=VERTEX_POINT('',#583);
#158=VECTOR('',#411,1.);
#159=VECTOR('',#412,1.);
#160=VECTOR('',#413,1.);
#161=VECTOR('',#414,1.);
#162=VECTOR('',#427,1.);
#163=VECTOR('',#430,1.);
#164=VECTOR('',#432,1.);
#165=VECTOR('',#433,1.);
#166=VECTOR('',#434,1.);
#167=VECTOR('',#436,1.);
#168=VECTOR('',#444,1.);
#169=VECTOR('',#449,1.);
#170=VECTOR('',#451,1.);
#171=VECTOR('',#453,1.);
#172=VECTOR('',#457,1.);
#173=VECTOR('',#459,1.);
#174=VECTOR('',#460,1.);
#175=VECTOR('',#461,1.);
#176=LINE('',#480,#158);
#177=LINE('',#483,#159);
#178=LINE('',#485,#160);
#179=LINE('',#487,#161);
#180=LINE('',#518,#162);
#181=LINE('',#522,#163);
#182=LINE('',#524,#164);
#183=LINE('',#531,#165);
#184=LINE('',#533,#166);
#185=LINE('',#535,#167);
#186=LINE('',#556,#168);
#187=LINE('',#560,#169);
#188=LINE('',#562,#170);
#189=LINE('',#564,#171);
#190=LINE('',#569,#172);
#191=LINE('',#571,#173);
#192=LINE('',#573,#174);
#193=LINE('',#575,#175);
#194=EDGE_CURVE('',#131,#132,#176,.T.);
#195=EDGE_CURVE('',#133,#131,#177,.T.);
#196=EDGE_CURVE('',#134,#133,#178,.T.);
#197=EDGE_CURVE('',#132,#134,#179,.T.);
#198=EDGE_CURVE('',#132,#134,#118,.T.);
#199=EDGE_CURVE('',#135,#135,#119,.T.);
#200=EDGE_CURVE('',#136,#137,#108,.T.);
#201=EDGE_CURVE('',#137,#138,#109,.T.);
#202=EDGE_CURVE('',#138,#139,#120,.T.);
#203=EDGE_CURVE('',#139,#140,#110,.T.);
#204=EDGE_CURVE('',#140,#141,#111,.T.);
#205=EDGE_CURVE('',#141,#136,#121,.T.);
#206=EDGE_CURVE('',#141,#142,#180,.T.);
#207=EDGE_CURVE('',#143,#142,#122,.T.);
#208=EDGE_CURVE('',#143,#136,#181,.T.);
#209=EDGE_CURVE('',#144,#140,#182,.T.);
#210=EDGE_CURVE('',#145,#144,#112,.T.);
#211=EDGE_CURVE('',#145,#146,#183,.T.);
#212=EDGE_CURVE('',#142,#146,#184,.T.);
#213=EDGE_CURVE('',#139,#147,#185,.T.);
#214=EDGE_CURVE('',#144,#147,#113,.T.);
#215=EDGE_CURVE('',#147,#148,#123,.T.);
#216=EDGE_CURVE('',#148,#149,#114,.T.);
#217=EDGE_CURVE('',#149,#150,#115,.T.);
#218=EDGE_CURVE('',#150,#145,#124,.T.);
#219=EDGE_CURVE('',#151,#150,#186,.T.);
#220=EDGE_CURVE('',#146,#151,#125,.T.);
#221=EDGE_CURVE('',#148,#138,#187,.T.);
#222=EDGE_CURVE('',#137,#149,#188,.T.);
#223=EDGE_CURVE('',#151,#143,#189,.T.);
#224=EDGE_CURVE('',#152,#153,#126,.T.);
#225=EDGE_CURVE('',#153,#152,#190,.T.);
#226=EDGE_CURVE('',#153,#154,#191,.T.);
#227=EDGE_CURVE('',#155,#152,#192,.T.);
#228=EDGE_CURVE('',#154,#155,#193,.T.);
#229=EDGE_CURVE('',#154,#155,#127,.T.);
#230=EDGE_CURVE('',#156,#156,#128,.T.);
#231=EDGE_CURVE('',#157,#157,#129,.T.);
#232=EDGE_CURVE('',#133,#131,#130,.T.);
#233=ORIENTED_EDGE('',*,*,#194,.F.);
#234=ORIENTED_EDGE('',*,*,#195,.F.);
#235=ORIENTED_EDGE('',*,*,#196,.F.);
#236=ORIENTED_EDGE('',*,*,#197,.F.);
#237=ORIENTED_EDGE('',*,*,#197,.T.);
#238=ORIENTED_EDGE('',*,*,#198,.F.);
#239=ORIENTED_EDGE('',*,*,#199,.T.);
#240=ORIENTED_EDGE('',*,*,#200,.T.);
#241=ORIENTED_EDGE('',*,*,#201,.T.);
#242=ORIENTED_EDGE('',*,*,#202,.T.);
#243=ORIENTED_EDGE('',*,*,#203,.T.);
#244=ORIENTED_EDGE('',*,*,#204,.T.);
#245=ORIENTED_EDGE('',*,*,#205,.T.);
#246=ORIENTED_EDGE('',*,*,#205,.F.);
#247=ORIENTED_EDGE('',*,*,#206,.T.);
#248=ORIENTED_EDGE('',*,*,#207,.F.);
#249=ORIENTED_EDGE('',*,*,#208,.T.);
#250=ORIENTED_EDGE('',*,*,#204,.F.);
#251=ORIENTED_EDGE('',*,*,#209,.F.);
#252=ORIENTED_EDGE('',*,*,#210,.F.);
#253=ORIENTED_EDGE('',*,*,#211,.T.);
#254=ORIENTED_EDGE('',*,*,#212,.F.);
#255=ORIENTED_EDGE('',*,*,#206,.F.);
#256=ORIENTED_EDGE('',*,*,#203,.F.);
#257=ORIENTED_EDGE('',*,*,#213,.T.);
#258=ORIENTED_EDGE('',*,*,#214,.F.);
#259=ORIENTED_EDGE('',*,*,#209,.T.);
#260=ORIENTED_EDGE('',*,*,#210,.T.);
#261=ORIENTED_EDGE('',*,*,#214,.T.);
#262=ORIENTED_EDGE('',*,*,#215,.T.);
#263=ORIENTED_EDGE('',*,*,#216,.T.);
#264=ORIENTED_EDGE('',*,*,#217,.T.);
#265=ORIENTED_EDGE('',*,*,#218,.T.);
#266=ORIENTED_EDGE('',*,*,#218,.F.);
#267=ORIENTED_EDGE('',*,*,#219,.F.);
#268=ORIENTED_EDGE('',*,*,#220,.F.);
#269=ORIENTED_EDGE('',*,*,#211,.F.);
#270=ORIENTED_EDGE('',*,*,#202,.F.);
#271=ORIENTED_EDGE('',*,*,#221,.F.);
#272=ORIENTED_EDGE('',*,*,#215,.F.);
#273=ORIENTED_EDGE('',*,*,#213,.F.);
#274=ORIENTED_EDGE('',*,*,#201,.F.);
#275=ORIENTED_EDGE('',*,*,#222,.T.);
#276=ORIENTED_EDGE('',*,*,#216,.F.);
#277=ORIENTED_EDGE('',*,*,#221,.T.);
#278=ORIENTED_EDGE('',*,*,#200,.F.);
#279=ORIENTED_EDGE('',*,*,#208,.F.);
#280=ORIENTED_EDGE('',*,*,#223,.F.);
#281=ORIENTED_EDGE('',*,*,#219,.T.);
#282=ORIENTED_EDGE('',*,*,#217,.F.);
#283=ORIENTED_EDGE('',*,*,#222,.F.);
#284=ORIENTED_EDGE('',*,*,#224,.F.);
#285=ORIENTED_EDGE('',*,*,#225,.F.);
#286=ORIENTED_EDGE('',*,*,#226,.F.);
#287=ORIENTED_EDGE('',*,*,#225,.T.);
#288=ORIENTED_EDGE('',*,*,#227,.F.);
#289=ORIENTED_EDGE('',*,*,#228,.F.);
#290=ORIENTED_EDGE('',*,*,#228,.T.);
#291=ORIENTED_EDGE('',*,*,#229,.F.);
#292=ORIENTED_EDGE('',*,*,#226,.T.);
#293=ORIENTED_EDGE('',*,*,#229,.T.);
#294=ORIENTED_EDGE('',*,*,#227,.T.);
#295=ORIENTED_EDGE('',*,*,#224,.T.);
#296=ORIENTED_EDGE('',*,*,#230,.F.);
#297=ORIENTED_EDGE('',*,*,#231,.T.);
#298=ORIENTED_EDGE('',*,*,#199,.F.);
#299=ORIENTED_EDGE('',*,*,#231,.F.);
#300=ORIENTED_EDGE('',*,*,#194,.T.);
#301=ORIENTED_EDGE('',*,*,#198,.T.);
#302=ORIENTED_EDGE('',*,*,#196,.T.);
#303=ORIENTED_EDGE('',*,*,#232,.T.);
#304=ORIENTED_EDGE('',*,*,#212,.T.);
#305=ORIENTED_EDGE('',*,*,#220,.T.);
#306=ORIENTED_EDGE('',*,*,#223,.T.);
#307=ORIENTED_EDGE('',*,*,#207,.T.);
#308=ORIENTED_EDGE('',*,*,#195,.T.);
#309=ORIENTED_EDGE('',*,*,#232,.F.);
#310=ORIENTED_EDGE('',*,*,#230,.T.);
#311=EDGE_LOOP('',(#233,#234,#235,#236));
#312=EDGE_LOOP('',(#237,#238));
#313=EDGE_LOOP('',(#239));
#314=EDGE_LOOP('',(#240,#241,#242,#243,#244,#245));
#315=EDGE_LOOP('',(#246,#247,#248,#249));
#316=EDGE_LOOP('',(#250,#251,#252,#253,#254,#255));
#317=EDGE_LOOP('',(#256,#257,#258,#259));
#318=EDGE_LOOP('',(#260,#261,#262,#263,#264,#265));
#319=EDGE_LOOP('',(#266,#267,#268,#269));
#320=EDGE_LOOP('',(#270,#271,#272,#273));
#321=EDGE_LOOP('',(#274,#275,#276,#277));
#322=EDGE_LOOP('',(#278,#279,#280,#281,#282,#283));
#323=EDGE_LOOP('',(#284,#285));
#324=EDGE_LOOP('',(#286,#287,#288,#289));
#325=EDGE_LOOP('',(#290,#291));
#326=EDGE_LOOP('',(#292,#293,#294,#295));
#327=EDGE_LOOP('',(#296));
#328=EDGE_LOOP('',(#297));
#329=EDGE_LOOP('',(#298));
#330=EDGE_LOOP('',(#299));
#331=EDGE_LOOP('',(#300,#301,#302,#303));
#332=EDGE_LOOP('',(#304,#305,#306,#307));
#333=EDGE_LOOP('',(#308,#309));
#334=EDGE_LOOP('',(#310));
#335=FACE_BOUND('',#311,.T.);
#336=FACE_BOUND('',#312,.T.);
#337=FACE_BOUND('',#313,.T.);
#338=FACE_BOUND('',#314,.T.);
#339=FACE_BOUND('',#315,.T.);
#340=FACE_BOUND('',#316,.T.);
#341=FACE_BOUND('',#317,.T.);
#342=FACE_BOUND('',#318,.T.);
#343=FACE_BOUND('',#319,.T.);
#344=FACE_BOUND('',#320,.T.);
#345=FACE_BOUND('',#321,.T.);
#346=FACE_BOUND('',#322,.T.);
#347=FACE_BOUND('',#323,.T.);
#348=FACE_BOUND('',#324,.T.);
#349=FACE_BOUND('',#325,.T.);
#350=FACE_BOUND('',#326,.T.);
#351=FACE_BOUND('',#327,.T.);
#352=FACE_BOUND('',#328,.T.);
#353=FACE_BOUND('',#329,.T.);
#354=FACE_BOUND('',#330,.T.);
#355=FACE_BOUND('',#331,.T.);
#356=FACE_BOUND('',#332,.T.);
#357=FACE_BOUND('',#333,.T.);
#358=FACE_BOUND('',#334,.T.);
#359=ADVANCED_FACE('',(#335),#588,.F.);
#360=ADVANCED_FACE('',(#336,#337),#589,.F.);
#361=ADVANCED_FACE('',(#338),#116,.T.);
#362=ADVANCED_FACE('',(#339),#590,.F.);
#363=ADVANCED_FACE('',(#340),#591,.T.);
#364=ADVANCED_FACE('',(#341),#592,.T.);
#365=ADVANCED_FACE('',(#342),#117,.T.);
#366=ADVANCED_FACE('',(#343),#593,.T.);
#367=ADVANCED_FACE('',(#344),#104,.T.);
#368=ADVANCED_FACE('',(#345),#594,.T.);
#369=ADVANCED_FACE('',(#346),#595,.T.);
#370=ADVANCED_FACE('',(#347),#596,.F.);
#371=ADVANCED_FACE('',(#348),#597,.T.);
#372=ADVANCED_FACE('',(#349),#598,.T.);
#373=ADVANCED_FACE('',(#350,#351),#105,.T.);
#374=ADVANCED_FACE('',(#352,#353),#106,.T.);
#375=ADVANCED_FACE('',(#354),#599,.F.);
#376=ADVANCED_FACE('',(#355,#356),#107,.T.);
#377=ADVANCED_FACE('',(#357,#358),#600,.T.);
#378=AXIS2_PLACEMENT_3D('',#479,#410,$);
#379=AXIS2_PLACEMENT_3D('',#488,#415,$);
#380=AXIS2_PLACEMENT_3D('',#489,#416,#417);
#381=AXIS2_PLACEMENT_3D('',#490,#418,#419);
#382=AXIS2_PLACEMENT_3D('',#492,#420,#421);
#383=AXIS2_PLACEMENT_3D('',#504,#422,#423);
#384=AXIS2_PLACEMENT_3D('',#516,#424,#425);
#385=AXIS2_PLACEMENT_3D('',#517,#426,$);
#386=AXIS2_PLACEMENT_3D('',#520,#428,#429);
#387=AXIS2_PLACEMENT_3D('',#523,#431,$);
#388=AXIS2_PLACEMENT_3D('',#534,#435,$);
#389=AXIS2_PLACEMENT_3D('',#541,#437,#438);
#390=AXIS2_PLACEMENT_3D('',#542,#439,#440);
#391=AXIS2_PLACEMENT_3D('',#554,#441,#442);
#392=AXIS2_PLACEMENT_3D('',#555,#443,$);
#393=AXIS2_PLACEMENT_3D('',#558,#445,#446);
#394=AXIS2_PLACEMENT_3D('',#559,#447,#448);
#395=AXIS2_PLACEMENT_3D('',#561,#450,$);
#396=AXIS2_PLACEMENT_3D('',#563,#452,$);
#397=AXIS2_PLACEMENT_3D('',#565,#454,$);
#398=AXIS2_PLACEMENT_3D('',#566,#455,#456);
#399=AXIS2_PLACEMENT_3D('',#570,#458,$);
#400=AXIS2_PLACEMENT_3D('',#576,#462,$);
#401=AXIS2_PLACEMENT_3D('',#577,#463,#464);
#402=AXIS2_PLACEMENT_3D('',#578,#465,#466);
#403=AXIS2_PLACEMENT_3D('',#579,#467,#468);
#404=AXIS2_PLACEMENT_3D('',#581,#469,#470);
#405=AXIS2_PLACEMENT_3D('',#582,#471,#472);
#406=AXIS2_PLACEMENT_3D('',#584,#473,$);
#407=AXIS2_PLACEMENT_3D('',#585,#474,#475);
#408=AXIS2_PLACEMENT_3D('',#586,#476,#477);
#409=AXIS2_PLACEMENT_3D('',#587,#478,$);
#410=DIRECTION('',(-5.51908282570671E-033,1.,6.12502255726468E-033));
#411=DIRECTION('',(0.,0.,-1.));
#412=DIRECTION('',(1.,5.51908282570671E-033,0.));
#413=DIRECTION('',(0.,0.,1.));
#414=DIRECTION('',(-1.,-5.51908282570671E-033,0.));
#415=DIRECTION('',(0.,0.,1.));
#416=DIRECTION('',(0.,0.,1.));
#417=DIRECTION('',(0.4125,0.,0.));
#418=DIRECTION('',(0.,0.,1.));
#419=DIRECTION('',(0.3,0.,0.));
#420=DIRECTION('',(0.,0.,1.));
#421=DIRECTION('',(3.39736457891092E-015,0.522629190341182,0.));
#422=DIRECTION('',(0.,0.,-1.));
#423=DIRECTION('',(3.42986720832484E-015,0.527629190341182,0.));
#424=DIRECTION('',(0.,0.,1.));
#425=DIRECTION('',(3.364861949497E-015,0.517629190341182,0.));
#426=DIRECTION('',(0.,0.,1.));
#427=DIRECTION('',(-0.24253562503639,-0.970142500145318,0.));
#428=DIRECTION('',(0.,0.,-1.));
#429=DIRECTION('',(0.4125,0.,0.));
#430=DIRECTION('',(-0.24253562503639,0.970142500145318,0.));
#431=DIRECTION('',(0.970142500145318,-0.24253562503639,0.));
#432=DIRECTION('',(0.,0.,-1.));
#433=DIRECTION('',(-0.24253562503639,-0.970142500145318,0.));
#434=DIRECTION('',(0.,0.,1.));
#435=DIRECTION('',(0.901586767565176,0.432598313162889,0.));
#436=DIRECTION('',(0.,0.,1.));
#437=DIRECTION('',(0.,0.,-1.));
#438=DIRECTION('',(3.51341157100252E-015,0.522629190341182,0.));
#439=DIRECTION('',(0.,0.,1.));
#440=DIRECTION('',(3.54702442344106E-015,0.527629190341182,0.));
#441=DIRECTION('',(0.,0.,-1.));
#442=DIRECTION('',(3.47979871856397E-015,0.517629190341182,0.));
#443=DIRECTION('',(0.,0.,1.));
#444=DIRECTION('',(-0.24253562503639,0.970142500145318,0.));
#445=DIRECTION('',(0.,0.,1.));
#446=DIRECTION('',(0.4125,0.,0.));
#447=DIRECTION('',(0.,0.,1.));
#448=DIRECTION('',(0.527629190341182,0.,0.));
#449=DIRECTION('',(0.,0.,-1.));
#450=DIRECTION('',(-0.90158676756517,0.432598313162903,0.));
#451=DIRECTION('',(0.,0.,1.));
#452=DIRECTION('',(-0.970142500145318,-0.24253562503639,0.));
#453=DIRECTION('',(0.,0.,-1.));
#454=DIRECTION('',(0.,0.,-1.));
#455=DIRECTION('',(0.,0.,-1.));
#456=DIRECTION('',(0.3,0.,0.));
#457=DIRECTION('',(-1.,0.,0.));
#458=DIRECTION('',(7.6653928134815E-033,1.,-8.71038922152351E-031));
#459=DIRECTION('',(0.,0.,1.));
#460=DIRECTION('',(0.,0.,-1.));
#461=DIRECTION('',(-1.,7.6653928134815E-033,0.));
#462=DIRECTION('',(0.,0.,1.));
#463=DIRECTION('',(0.,0.,-1.));
#464=DIRECTION('',(0.3,0.,0.));
#465=DIRECTION('',(0.,0.,1.));
#466=DIRECTION('',(0.3,0.,0.));
#467=DIRECTION('',(0.,0.,-1.));
#468=DIRECTION('',(0.3,0.,0.));
#469=DIRECTION('',(0.,0.,-1.));
#470=DIRECTION('',(0.3,0.,0.));
#471=DIRECTION('',(0.,0.,1.));
#472=DIRECTION('',(0.3,0.,0.));
#473=DIRECTION('',(0.,0.,1.));
#474=DIRECTION('',(0.,0.,1.));
#475=DIRECTION('',(0.4125,0.,0.));
#476=DIRECTION('',(0.,0.,-1.));
#477=DIRECTION('',(0.4125,0.,0.));
#478=DIRECTION('',(0.,0.,1.));
#479=CARTESIAN_POINT('',(-2.22638307077237E-018,-0.3625,2.9));
#480=CARTESIAN_POINT('',(0.196850196850295,-0.3625,2.9));
#481=CARTESIAN_POINT('',(0.196850196850295,-0.3625,5.8));
#482=CARTESIAN_POINT('',(0.196850196850295,-0.3625,0.));
#483=CARTESIAN_POINT('',(-1.11319153538619E-018,-0.3625,5.8));
#484=CARTESIAN_POINT('',(-0.196850196850295,-0.3625,5.8));
#485=CARTESIAN_POINT('',(-0.196850196850295,-0.3625,2.9));
#486=CARTESIAN_POINT('',(-0.196850196850295,-0.3625,0.));
#487=CARTESIAN_POINT('',(-1.11319153538619E-018,-0.3625,0.));
#488=CARTESIAN_POINT('',(0.,0.,0.));
#489=CARTESIAN_POINT('',(0.,0.,0.));
#490=CARTESIAN_POINT('',(0.,0.,0.));
#491=CARTESIAN_POINT('',(0.3,0.,0.));
#492=CARTESIAN_POINT('',(-1.66259194435166E-014,-0.0172500000000823,0.255));
#493=CARTESIAN_POINT('',(-0.222526572839896,0.450106291359524,0.25));
#494=CARTESIAN_POINT('',(-0.319199090103286,0.836796360412986,0.640693269055253));
#495=CARTESIAN_POINT('',(-1.23957682835707,4.5183073134272,4.43422619160313));
#496=CARTESIAN_POINT('',(-1.51023376506194,5.60093506024639,5.55));
#497=CARTESIAN_POINT('',(-0.222526572839896,0.450106291359524,0.25));
#498=CARTESIAN_POINT('',(-0.222574643749655,0.450298574998559,0.250194275739237));
#499=CARTESIAN_POINT('',(-0.222708485833043,0.450019632044659,0.25));
#500=CARTESIAN_POINT('',(-0.0415180547971501,0.827642221085765,0.512927447348704));
#501=CARTESIAN_POINT('',(1.68093967183066,4.4174507033792,4.47436968827259));
#502=CARTESIAN_POINT('',(2.1472914505187,5.3893837412625,5.54980572426076));
#503=CARTESIAN_POINT('',(-0.215914817476028,0.464178451687592,0.26));
#504=CARTESIAN_POINT('',(-1.66259194435166E-014,-0.0172500000000823,0.26));
#505=CARTESIAN_POINT('',(0.215914817476001,0.464178451687589,0.26));
#506=CARTESIAN_POINT('',(-2.14729145051864,5.38938374126253,5.54980572426076));
#507=CARTESIAN_POINT('',(-1.016429848114,3.03253253391242,2.94196894842019));
#508=CARTESIAN_POINT('',(0.070554606511269,0.767126564864671,0.470792184584772));
#509=CARTESIAN_POINT('',(0.222708485833016,0.450019632044656,0.25));
#510=CARTESIAN_POINT('',(0.222574643749628,0.450298574998556,0.250194275739237));
#511=CARTESIAN_POINT('',(1.51023376506191,5.60093506024639,5.55));
#512=CARTESIAN_POINT('',(0.919804892420146,3.23921956967993,3.1159775070412));
#513=CARTESIAN_POINT('',(0.30365812934361,0.774632517374405,0.577885876268508));
#514=CARTESIAN_POINT('',(0.222526572839869,0.450106291359521,0.25));
#515=CARTESIAN_POINT('',(0.222526572839869,0.450106291359521,0.25));
#516=CARTESIAN_POINT('',(-1.66259194435166E-014,-0.0172500000000823,0.25));
#517=CARTESIAN_POINT('',(-1.31838984174237E-014,0.436551941766641,0.25));
#518=CARTESIAN_POINT('',(0.224999999999992,0.460000000000009,0.25));
#519=CARTESIAN_POINT('',(0.200169439613916,0.360677758455731,0.25));
#520=CARTESIAN_POINT('',(0.,0.,0.25));
#521=CARTESIAN_POINT('',(-0.200169439613939,0.360677758455718,0.25));
#522=CARTESIAN_POINT('',(-0.200000000000012,0.360000000000009,0.25));
#523=CARTESIAN_POINT('',(0.212499999999989,0.410000000000008,0.25));
#524=CARTESIAN_POINT('',(0.222574643749628,0.450298574998556,0.25));
#525=CARTESIAN_POINT('',(0.222574643749628,0.450298574998556,5.54980572426076));
#526=CARTESIAN_POINT('',(0.222526572839869,0.45010629135952,5.55));
#527=CARTESIAN_POINT('',(0.319199090106404,0.836796360425564,5.15930673093188));
#528=CARTESIAN_POINT('',(1.23957682835328,4.51830731341216,1.3657738084125));
#529=CARTESIAN_POINT('',(1.51023376506194,5.60093506024651,0.249999999999999));
#530=CARTESIAN_POINT('',(0.222526572839869,0.450106291359521,5.55));
#531=CARTESIAN_POINT('',(0.224999999999992,0.460000000000009,5.55));
#532=CARTESIAN_POINT('',(0.200169439613916,0.360677758455731,5.55));
#533=CARTESIAN_POINT('',(0.200169439613916,0.360677758455731,2.9));
#534=CARTESIAN_POINT('',(0.219244730612815,0.457238513343073,0.25));
#535=CARTESIAN_POINT('',(0.215914817476001,0.464178451687589,0.25));
#536=CARTESIAN_POINT('',(0.215914817476001,0.464178451687589,5.54));
#537=CARTESIAN_POINT('',(0.222708485833016,0.450019632044656,5.55));
#538=CARTESIAN_POINT('',(0.041516638042124,0.827645173773112,5.28707049678238));
#539=CARTESIAN_POINT('',(-1.68101220090818,4.41760186267549,1.32546322829476));
#540=CARTESIAN_POINT('',(-2.14737569618857,5.38955931934251,0.25));
#541=CARTESIAN_POINT('',(-1.66259194435166E-014,-0.0172500000000823,5.545));
#542=CARTESIAN_POINT('',(-1.66259194435166E-014,-0.0172500000000823,5.54));
#543=CARTESIAN_POINT('',(-0.215914817476028,0.464178451687592,5.54));
#544=CARTESIAN_POINT('',(2.14737569618862,5.38955931934248,0.25));
#545=CARTESIAN_POINT('',(1.01646417534531,3.03260407597939,2.85795231065545));
#546=CARTESIAN_POINT('',(-0.0705533183207348,0.767129249608288,5.32920594610761));
#547=CARTESIAN_POINT('',(-0.222708485833043,0.450019632044659,5.55));
#548=CARTESIAN_POINT('',(-0.222574643749655,0.450298574998559,5.54980572426076));
#549=CARTESIAN_POINT('',(-1.51023376506196,5.60093506024651,0.25));
#550=CARTESIAN_POINT('',(-0.919804892428003,3.23921956971126,2.68402249292662));
#551=CARTESIAN_POINT('',(-0.303658129345067,0.774632517380126,5.22211412372565));
#552=CARTESIAN_POINT('',(-0.222526572839896,0.450106291359524,5.55));
#553=CARTESIAN_POINT('',(-0.222526572839896,0.450106291359524,5.55));
#554=CARTESIAN_POINT('',(-1.66259194435166E-014,-0.0172500000000823,5.55));
#555=CARTESIAN_POINT('',(-1.31838984174237E-014,0.436551941766641,5.55));
#556=CARTESIAN_POINT('',(-0.200000000000012,0.360000000000009,5.55));
#557=CARTESIAN_POINT('',(-0.200169439613939,0.360677758455718,5.55));
#558=CARTESIAN_POINT('',(0.,0.,5.55));
#559=CARTESIAN_POINT('',(-1.66259194435166E-014,-0.0172500000000823,0.25));
#560=CARTESIAN_POINT('',(-0.215914817476028,0.464178451687592,0.25));
#561=CARTESIAN_POINT('',(-0.219244730612842,0.457238513343076,0.25));
#562=CARTESIAN_POINT('',(-0.222574643749655,0.450298574998559,0.25));
#563=CARTESIAN_POINT('',(-0.212500000000016,0.410000000000011,0.25));
#564=CARTESIAN_POINT('',(-0.200169439613939,0.360677758455718,2.9));
#565=CARTESIAN_POINT('',(4.9960036108132E-016,0.3,6.3));
#566=CARTESIAN_POINT('',(0.,0.,6.3));
#567=CARTESIAN_POINT('',(-0.186480561989715,0.235,6.3));
#568=CARTESIAN_POINT('',(0.186480561989715,0.235,6.3));
#569=CARTESIAN_POINT('',(-0.299999999999999,0.235,6.3));
#570=CARTESIAN_POINT('',(4.88828092223506E-016,0.235,6.65));
#571=CARTESIAN_POINT('',(0.186480561989715,0.235,6.65));
#572=CARTESIAN_POINT('',(0.186480561989715,0.235,7.));
#573=CARTESIAN_POINT('',(-0.186480561989715,0.235,6.65));
#574=CARTESIAN_POINT('',(-0.186480561989715,0.235,7.));
#575=CARTESIAN_POINT('',(2.44414046111753E-016,0.235,7.));
#576=CARTESIAN_POINT('',(0.,0.,7.));
#577=CARTESIAN_POINT('',(0.,0.,7.));
#578=CARTESIAN_POINT('',(0.,0.,5.8));
#579=CARTESIAN_POINT('',(0.,0.,5.8));
#580=CARTESIAN_POINT('',(0.3,0.,5.8));
#581=CARTESIAN_POINT('',(0.,0.,0.));
#582=CARTESIAN_POINT('',(0.,0.,-0.4));
#583=CARTESIAN_POINT('',(0.3,0.,-0.4));
#584=CARTESIAN_POINT('',(0.,0.,-0.4));
#585=CARTESIAN_POINT('',(0.,0.,0.));
#586=CARTESIAN_POINT('',(0.,0.,5.8));
#587=CARTESIAN_POINT('',(0.,0.,5.8));
#588=PLANE('',#378);
#589=PLANE('',#379);
#590=PLANE('',#385);
#591=PLANE('',#387);
#592=PLANE('',#388);
#593=PLANE('',#392);
#594=PLANE('',#395);
#595=PLANE('',#396);
#596=PLANE('',#397);
#597=PLANE('',#399);
#598=PLANE('',#400);
#599=PLANE('',#406);
#600=PLANE('',#409);
#601=CLOSED_SHELL('',(#359,#360,#361,#362,#363,#364,#365,#366,#367,#368,
#369,#370,#371,#372,#373,#374,#375,#376,#377));
#602=MANIFOLD_SOLID_BREP('',#601);
#603=ADVANCED_BREP_SHAPE_REPRESENTATION('',(#602),#103);
ENDSEC;
END-ISO-10303-21;
