ISO-10303-21;
HEADER;
/* Generated by software containing ST-Developer
 * from STEP Tools, Inc. (www.steptools.com) 
 */

FILE_DESCRIPTION(
/* description */ (''),
/* implementation_level */ '2;1');

FILE_NAME(
/* name */ 
'C:/Users/Badiland/Desktop/Admin/Admin Bert/Enrouleur/Plans/usinage/ST
P/E01-011-Entretoise axe roue avant.step',
/* time_stamp */ '2022-03-02T08:41:46+01:00',
/* author */ (''),
/* organization */ (''),
/* preprocessor_version */ 'ST-DEVELOPER v18.1',
/* originating_system */ 'Autodesk Translation Framework v10.13.0.1454',

/* authorisation */ '');

FILE_SCHEMA (('AUTOMOTIVE_DESIGN { 1 0 10303 214 3 1 1 }'));
ENDSEC;

DATA;
#10=MECHANICAL_DESIGN_GEOMETRIC_PRESENTATION_REPRESENTATION('',(#13),#225);
#11=SHAPE_REPRESENTATION_RELATIONSHIP('SRR','None',#232,#12);
#12=ADVANCED_BREP_SHAPE_REPRESENTATION('',(#14),#224);
#13=STYLED_ITEM('',(#242),#14);
#14=MANIFOLD_SOLID_BREP('Corps1',#121);
#15=CYLINDRICAL_SURFACE('',#140,10.1);
#16=CYLINDRICAL_SURFACE('',#144,15.);
#17=FACE_BOUND('',#31,.T.);
#18=FACE_BOUND('',#37,.T.);
#19=PLANE('',#138);
#20=PLANE('',#148);
#21=FACE_OUTER_BOUND('',#29,.T.);
#22=FACE_OUTER_BOUND('',#30,.T.);
#23=FACE_OUTER_BOUND('',#32,.T.);
#24=FACE_OUTER_BOUND('',#33,.T.);
#25=FACE_OUTER_BOUND('',#34,.T.);
#26=FACE_OUTER_BOUND('',#35,.T.);
#27=FACE_OUTER_BOUND('',#36,.T.);
#28=FACE_OUTER_BOUND('',#38,.T.);
#29=EDGE_LOOP('',(#81,#82,#83,#84));
#30=EDGE_LOOP('',(#85));
#31=EDGE_LOOP('',(#86));
#32=EDGE_LOOP('',(#87,#88,#89,#90));
#33=EDGE_LOOP('',(#91,#92,#93,#94));
#34=EDGE_LOOP('',(#95,#96,#97,#98));
#35=EDGE_LOOP('',(#99,#100,#101,#102));
#36=EDGE_LOOP('',(#103));
#37=EDGE_LOOP('',(#104));
#38=EDGE_LOOP('',(#105,#106,#107,#108));
#39=LINE('',#196,#45);
#40=LINE('',#203,#46);
#41=LINE('',#207,#47);
#42=LINE('',#211,#48);
#43=LINE('',#215,#49);
#44=LINE('',#221,#50);
#45=VECTOR('',#157,10.35);
#46=VECTOR('',#166,10.1);
#47=VECTOR('',#171,14.75);
#48=VECTOR('',#176,15.);
#49=VECTOR('',#181,10.35);
#50=VECTOR('',#190,14.75);
#51=CIRCLE('',#136,10.6);
#52=CIRCLE('',#137,10.1);
#53=CIRCLE('',#139,14.5);
#54=CIRCLE('',#141,10.1);
#55=CIRCLE('',#143,15.);
#56=CIRCLE('',#145,15.);
#57=CIRCLE('',#147,10.6);
#58=CIRCLE('',#149,14.5);
#59=VERTEX_POINT('',#193);
#60=VERTEX_POINT('',#195);
#61=VERTEX_POINT('',#199);
#62=VERTEX_POINT('',#202);
#63=VERTEX_POINT('',#206);
#64=VERTEX_POINT('',#210);
#65=VERTEX_POINT('',#214);
#66=VERTEX_POINT('',#218);
#67=EDGE_CURVE('',#59,#59,#51,.T.);
#68=EDGE_CURVE('',#59,#60,#39,.T.);
#69=EDGE_CURVE('',#60,#60,#52,.T.);
#70=EDGE_CURVE('',#61,#61,#53,.T.);
#71=EDGE_CURVE('',#60,#62,#40,.T.);
#72=EDGE_CURVE('',#62,#62,#54,.T.);
#73=EDGE_CURVE('',#61,#63,#41,.T.);
#74=EDGE_CURVE('',#63,#63,#55,.T.);
#75=EDGE_CURVE('',#63,#64,#42,.T.);
#76=EDGE_CURVE('',#64,#64,#56,.T.);
#77=EDGE_CURVE('',#62,#65,#43,.T.);
#78=EDGE_CURVE('',#65,#65,#57,.T.);
#79=EDGE_CURVE('',#66,#66,#58,.T.);
#80=EDGE_CURVE('',#64,#66,#44,.T.);
#81=ORIENTED_EDGE('',*,*,#67,.T.);
#82=ORIENTED_EDGE('',*,*,#68,.T.);
#83=ORIENTED_EDGE('',*,*,#69,.T.);
#84=ORIENTED_EDGE('',*,*,#68,.F.);
#85=ORIENTED_EDGE('',*,*,#70,.F.);
#86=ORIENTED_EDGE('',*,*,#67,.F.);
#87=ORIENTED_EDGE('',*,*,#69,.F.);
#88=ORIENTED_EDGE('',*,*,#71,.T.);
#89=ORIENTED_EDGE('',*,*,#72,.F.);
#90=ORIENTED_EDGE('',*,*,#71,.F.);
#91=ORIENTED_EDGE('',*,*,#70,.T.);
#92=ORIENTED_EDGE('',*,*,#73,.T.);
#93=ORIENTED_EDGE('',*,*,#74,.T.);
#94=ORIENTED_EDGE('',*,*,#73,.F.);
#95=ORIENTED_EDGE('',*,*,#74,.F.);
#96=ORIENTED_EDGE('',*,*,#75,.T.);
#97=ORIENTED_EDGE('',*,*,#76,.F.);
#98=ORIENTED_EDGE('',*,*,#75,.F.);
#99=ORIENTED_EDGE('',*,*,#72,.T.);
#100=ORIENTED_EDGE('',*,*,#77,.T.);
#101=ORIENTED_EDGE('',*,*,#78,.T.);
#102=ORIENTED_EDGE('',*,*,#77,.F.);
#103=ORIENTED_EDGE('',*,*,#79,.F.);
#104=ORIENTED_EDGE('',*,*,#78,.F.);
#105=ORIENTED_EDGE('',*,*,#76,.T.);
#106=ORIENTED_EDGE('',*,*,#80,.T.);
#107=ORIENTED_EDGE('',*,*,#79,.T.);
#108=ORIENTED_EDGE('',*,*,#80,.F.);
#109=CONICAL_SURFACE('',#135,10.35,0.785398163397448);
#110=CONICAL_SURFACE('',#142,14.75,0.785398163397448);
#111=CONICAL_SURFACE('',#146,10.35,0.785398163397449);
#112=CONICAL_SURFACE('',#150,14.75,0.785398163397449);
#113=ADVANCED_FACE('',(#21),#109,.F.);
#114=ADVANCED_FACE('',(#22,#17),#19,.T.);
#115=ADVANCED_FACE('',(#23),#15,.F.);
#116=ADVANCED_FACE('',(#24),#110,.T.);
#117=ADVANCED_FACE('',(#25),#16,.T.);
#118=ADVANCED_FACE('',(#26),#111,.F.);
#119=ADVANCED_FACE('',(#27,#18),#20,.F.);
#120=ADVANCED_FACE('',(#28),#112,.T.);
#121=CLOSED_SHELL('',(#113,#114,#115,#116,#117,#118,#119,#120));
#122=DERIVED_UNIT_ELEMENT(#124,1.);
#123=DERIVED_UNIT_ELEMENT(#227,-3.);
#124=(
MASS_UNIT()
NAMED_UNIT(*)
SI_UNIT(.KILO.,.GRAM.)
);
#125=DERIVED_UNIT((#122,#123));
#126=MEASURE_REPRESENTATION_ITEM('density measure',
POSITIVE_RATIO_MEASURE(7850.),#125);
#127=PROPERTY_DEFINITION_REPRESENTATION(#132,#129);
#128=PROPERTY_DEFINITION_REPRESENTATION(#133,#130);
#129=REPRESENTATION('material name',(#131),#224);
#130=REPRESENTATION('density',(#126),#224);
#131=DESCRIPTIVE_REPRESENTATION_ITEM('Acier','Acier');
#132=PROPERTY_DEFINITION('material property','material name',#234);
#133=PROPERTY_DEFINITION('material property','density of part',#234);
#134=AXIS2_PLACEMENT_3D('placement',#191,#151,#152);
#135=AXIS2_PLACEMENT_3D('',#192,#153,#154);
#136=AXIS2_PLACEMENT_3D('',#194,#155,#156);
#137=AXIS2_PLACEMENT_3D('',#197,#158,#159);
#138=AXIS2_PLACEMENT_3D('',#198,#160,#161);
#139=AXIS2_PLACEMENT_3D('',#200,#162,#163);
#140=AXIS2_PLACEMENT_3D('',#201,#164,#165);
#141=AXIS2_PLACEMENT_3D('',#204,#167,#168);
#142=AXIS2_PLACEMENT_3D('',#205,#169,#170);
#143=AXIS2_PLACEMENT_3D('',#208,#172,#173);
#144=AXIS2_PLACEMENT_3D('',#209,#174,#175);
#145=AXIS2_PLACEMENT_3D('',#212,#177,#178);
#146=AXIS2_PLACEMENT_3D('',#213,#179,#180);
#147=AXIS2_PLACEMENT_3D('',#216,#182,#183);
#148=AXIS2_PLACEMENT_3D('',#217,#184,#185);
#149=AXIS2_PLACEMENT_3D('',#219,#186,#187);
#150=AXIS2_PLACEMENT_3D('',#220,#188,#189);
#151=DIRECTION('axis',(0.,0.,1.));
#152=DIRECTION('refdir',(1.,0.,0.));
#153=DIRECTION('center_axis',(0.,1.,0.));
#154=DIRECTION('ref_axis',(1.,0.,0.));
#155=DIRECTION('center_axis',(0.,1.,0.));
#156=DIRECTION('ref_axis',(1.,0.,0.));
#157=DIRECTION('',(0.707106781186547,-0.707106781186547,-8.65956056235493E-17));
#158=DIRECTION('center_axis',(0.,-1.,0.));
#159=DIRECTION('ref_axis',(1.,0.,0.));
#160=DIRECTION('center_axis',(0.,1.,0.));
#161=DIRECTION('ref_axis',(1.,0.,0.));
#162=DIRECTION('center_axis',(0.,-1.,0.));
#163=DIRECTION('ref_axis',(1.,0.,0.));
#164=DIRECTION('center_axis',(0.,1.,0.));
#165=DIRECTION('ref_axis',(1.,0.,0.));
#166=DIRECTION('',(0.,-1.,0.));
#167=DIRECTION('center_axis',(0.,1.,0.));
#168=DIRECTION('ref_axis',(1.,0.,0.));
#169=DIRECTION('center_axis',(0.,-1.,0.));
#170=DIRECTION('ref_axis',(1.,0.,0.));
#171=DIRECTION('',(-0.707106781186548,-0.707106781186548,8.65956056235493E-17));
#172=DIRECTION('center_axis',(0.,1.,0.));
#173=DIRECTION('ref_axis',(1.,0.,0.));
#174=DIRECTION('center_axis',(0.,1.,0.));
#175=DIRECTION('ref_axis',(1.,0.,0.));
#176=DIRECTION('',(0.,-1.,0.));
#177=DIRECTION('center_axis',(0.,-1.,0.));
#178=DIRECTION('ref_axis',(1.,0.,0.));
#179=DIRECTION('center_axis',(0.,-1.,0.));
#180=DIRECTION('ref_axis',(1.,0.,0.));
#181=DIRECTION('',(-0.707106781186548,-0.707106781186547,8.65956056235494E-17));
#182=DIRECTION('center_axis',(0.,-1.,0.));
#183=DIRECTION('ref_axis',(1.,0.,0.));
#184=DIRECTION('center_axis',(0.,1.,0.));
#185=DIRECTION('ref_axis',(1.,0.,0.));
#186=DIRECTION('center_axis',(0.,1.,0.));
#187=DIRECTION('ref_axis',(1.,0.,0.));
#188=DIRECTION('center_axis',(0.,1.,0.));
#189=DIRECTION('ref_axis',(1.,0.,0.));
#190=DIRECTION('',(0.707106781186548,-0.707106781186547,-8.65956056235494E-17));
#191=CARTESIAN_POINT('',(0.,0.,0.));
#192=CARTESIAN_POINT('Origin',(0.,5.75,0.));
#193=CARTESIAN_POINT('',(-10.6,6.,1.29812560709619E-15));
#194=CARTESIAN_POINT('Origin',(0.,6.,0.));
#195=CARTESIAN_POINT('',(-10.1,5.5,-1.23689326713883E-15));
#196=CARTESIAN_POINT('',(-10.35,5.75,1.26750943711751E-15));
#197=CARTESIAN_POINT('Origin',(0.,5.5,0.));
#198=CARTESIAN_POINT('Origin',(0.,6.,0.));
#199=CARTESIAN_POINT('',(-14.5,6.,-1.77573785876366E-15));
#200=CARTESIAN_POINT('Origin',(0.,6.,0.));
#201=CARTESIAN_POINT('Origin',(0.,0.,0.));
#202=CARTESIAN_POINT('',(-10.1,0.5,1.23689326713883E-15));
#203=CARTESIAN_POINT('',(-10.1,0.,1.23689326713883E-15));
#204=CARTESIAN_POINT('Origin',(0.,0.5,0.));
#205=CARTESIAN_POINT('Origin',(0.,5.75,0.));
#206=CARTESIAN_POINT('',(-15.,5.5,1.83697019872103E-15));
#207=CARTESIAN_POINT('',(-14.75,5.75,1.80635402874235E-15));
#208=CARTESIAN_POINT('Origin',(0.,5.5,0.));
#209=CARTESIAN_POINT('Origin',(0.,0.,0.));
#210=CARTESIAN_POINT('',(-15.,0.5,-1.83697019872103E-15));
#211=CARTESIAN_POINT('',(-15.,0.,1.83697019872103E-15));
#212=CARTESIAN_POINT('Origin',(0.,0.5,0.));
#213=CARTESIAN_POINT('Origin',(0.,0.25,0.));
#214=CARTESIAN_POINT('',(-10.6,0.,-1.29812560709619E-15));
#215=CARTESIAN_POINT('',(-10.35,0.25,1.26750943711751E-15));
#216=CARTESIAN_POINT('Origin',(0.,0.,0.));
#217=CARTESIAN_POINT('Origin',(0.,0.,0.));
#218=CARTESIAN_POINT('',(-14.5,0.,1.77573785876366E-15));
#219=CARTESIAN_POINT('Origin',(0.,0.,0.));
#220=CARTESIAN_POINT('Origin',(0.,0.25,0.));
#221=CARTESIAN_POINT('',(-14.75,0.25,1.80635402874235E-15));
#222=UNCERTAINTY_MEASURE_WITH_UNIT(LENGTH_MEASURE(0.01),#226,
'DISTANCE_ACCURACY_VALUE',
'Maximum model space distance between geometric entities at asserted c
onnectivities');
#223=UNCERTAINTY_MEASURE_WITH_UNIT(LENGTH_MEASURE(0.01),#226,
'DISTANCE_ACCURACY_VALUE',
'Maximum model space distance between geometric entities at asserted c
onnectivities');
#224=(
GEOMETRIC_REPRESENTATION_CONTEXT(3)
GLOBAL_UNCERTAINTY_ASSIGNED_CONTEXT((#222))
GLOBAL_UNIT_ASSIGNED_CONTEXT((#226,#228,#229))
REPRESENTATION_CONTEXT('','3D')
);
#225=(
GEOMETRIC_REPRESENTATION_CONTEXT(3)
GLOBAL_UNCERTAINTY_ASSIGNED_CONTEXT((#223))
GLOBAL_UNIT_ASSIGNED_CONTEXT((#226,#228,#229))
REPRESENTATION_CONTEXT('','3D')
);
#226=(
LENGTH_UNIT()
NAMED_UNIT(*)
SI_UNIT(.MILLI.,.METRE.)
);
#227=(
LENGTH_UNIT()
NAMED_UNIT(*)
SI_UNIT($,.METRE.)
);
#228=(
NAMED_UNIT(*)
PLANE_ANGLE_UNIT()
SI_UNIT($,.RADIAN.)
);
#229=(
NAMED_UNIT(*)
SI_UNIT($,.STERADIAN.)
SOLID_ANGLE_UNIT()
);
#230=SHAPE_DEFINITION_REPRESENTATION(#231,#232);
#231=PRODUCT_DEFINITION_SHAPE('',$,#234);
#232=SHAPE_REPRESENTATION('',(#134),#224);
#233=PRODUCT_DEFINITION_CONTEXT('part definition',#238,'design');
#234=PRODUCT_DEFINITION('E01-011-Entretoise axe roue avant',
'E01-011-Entretoise axe roue avant v7',#235,#233);
#235=PRODUCT_DEFINITION_FORMATION('',$,#240);
#236=PRODUCT_RELATED_PRODUCT_CATEGORY(
'E01-011-Entretoise axe roue avant v7',
'E01-011-Entretoise axe roue avant v7',(#240));
#237=APPLICATION_PROTOCOL_DEFINITION('international standard',
'automotive_design',2009,#238);
#238=APPLICATION_CONTEXT(
'Core Data for Automotive Mechanical Design Process');
#239=PRODUCT_CONTEXT('part definition',#238,'mechanical');
#240=PRODUCT('E01-011-Entretoise axe roue avant',
'E01-011-Entretoise axe roue avant v7',$,(#239));
#241=PRESENTATION_STYLE_ASSIGNMENT((#243));
#242=PRESENTATION_STYLE_ASSIGNMENT((#244));
#243=SURFACE_STYLE_USAGE(.BOTH.,#245);
#244=SURFACE_STYLE_USAGE(.BOTH.,#246);
#245=SURFACE_SIDE_STYLE('',(#247));
#246=SURFACE_SIDE_STYLE('',(#248));
#247=SURFACE_STYLE_FILL_AREA(#249);
#248=SURFACE_STYLE_FILL_AREA(#250);
#249=FILL_AREA_STYLE('Acier - Satin\X\E9',(#251));
#250=FILL_AREA_STYLE(
'HP 3D HR CB PA 12 (avec imprimante 3D en couleurs HP Jet Fusion 580)',
(#252));
#251=FILL_AREA_STYLE_COLOUR('Acier - Satin\X\E9',#253);
#252=FILL_AREA_STYLE_COLOUR(
'HP 3D HR CB PA 12 (avec imprimante 3D en couleurs HP Jet Fusion 580)',
#254);
#253=COLOUR_RGB('Acier - Satin\X\E9',0.627450980392157,0.627450980392157,
0.627450980392157);
#254=COLOUR_RGB(
'HP 3D HR CB PA 12 (avec imprimante 3D en couleurs HP Jet Fusion 580)',
0.964705882352941,0.964705882352941,0.952941176470588);
ENDSEC;
END-ISO-10303-21;
