ISO-10303-21;
HEADER;
FILE_DESCRIPTION(('CATIA V5 STEP Exchange'),'2;1');

FILE_NAME('C:\\Users\\pierr\\Desktop\\Cosse.stp','2022-03-05T09:16:25+00:00',('none'),('none'),'CATIA Version 5 Release 20 GA (IN-10)','CATIA V5 STEP AP203','none');

FILE_SCHEMA(('CONFIG_CONTROL_DESIGN'));

ENDSEC;
/* file written by CATIA V5R20 */
DATA;
#5=PRODUCT('Part6','','',(#2)) ;
#1=APPLICATION_CONTEXT('configuration controlled 3D design of mechanical parts and assemblies') ;
#14=PRODUCT_DEFINITION('',' ',#6,#3) ;
#16=SECURITY_CLASSIFICATION(' ',' ',#15) ;
#15=SECURITY_CLASSIFICATION_LEVEL('unclassified') ;
#47=CARTESIAN_POINT(' ',(0.,0.,0.)) ;
#52=CARTESIAN_POINT('Axis2P3D Location',(9.7,0.,0.)) ;
#57=CARTESIAN_POINT('Line Origine',(9.7,1.85,6.5)) ;
#61=CARTESIAN_POINT('Vertex',(9.7,1.85,4.)) ;
#63=CARTESIAN_POINT('Vertex',(9.7,1.85,9.)) ;
#66=CARTESIAN_POINT('Line Origine',(9.7,0.925,4.)) ;
#70=CARTESIAN_POINT('Vertex',(9.7,0.,4.)) ;
#73=CARTESIAN_POINT('Line Origine',(9.7,0.,2.)) ;
#77=CARTESIAN_POINT('Vertex',(9.7,0.,0.)) ;
#80=CARTESIAN_POINT('Line Origine',(9.7,6.85,0.)) ;
#84=CARTESIAN_POINT('Vertex',(9.7,13.7,0.)) ;
#87=CARTESIAN_POINT('Line Origine',(9.7,13.7,2.)) ;
#91=CARTESIAN_POINT('Vertex',(9.7,13.7,4.)) ;
#94=CARTESIAN_POINT('Line Origine',(9.7,8.7,4.)) ;
#98=CARTESIAN_POINT('Vertex',(9.7,3.7,4.)) ;
#101=CARTESIAN_POINT('Line Origine',(9.7,3.7,6.5)) ;
#105=CARTESIAN_POINT('Vertex',(9.7,3.7,9.)) ;
#108=CARTESIAN_POINT('Line Origine',(9.7,2.775,9.)) ;
#124=CARTESIAN_POINT('Axis2P3D Location',(0.,13.7,0.)) ;
#129=CARTESIAN_POINT('Line Origine',(0.,1.85,6.5)) ;
#133=CARTESIAN_POINT('Vertex',(0.,1.85,4.)) ;
#135=CARTESIAN_POINT('Vertex',(0.,1.85,9.)) ;
#138=CARTESIAN_POINT('Line Origine',(0.,7.775,4.)) ;
#142=CARTESIAN_POINT('Vertex',(0.,13.7,4.)) ;
#145=CARTESIAN_POINT('Line Origine',(0.,13.7,2.)) ;
#149=CARTESIAN_POINT('Vertex',(0.,13.7,0.)) ;
#152=CARTESIAN_POINT('Line Origine',(0.,6.85000047684,0.)) ;
#156=CARTESIAN_POINT('Vertex',(0.,0.,0.)) ;
#159=CARTESIAN_POINT('Line Origine',(0.,9.53674319959E-007,2.)) ;
#163=CARTESIAN_POINT('Vertex',(0.,0.,4.)) ;
#166=CARTESIAN_POINT('Line Origine',(0.,0.,6.5)) ;
#170=CARTESIAN_POINT('Vertex',(0.,0.,9.)) ;
#173=CARTESIAN_POINT('Line Origine',(0.,0.925,9.)) ;
#188=CARTESIAN_POINT('Axis2P3D Location',(0.,0.,9.)) ;
#193=CARTESIAN_POINT('Line Origine',(0.925,0.,9.)) ;
#197=CARTESIAN_POINT('Vertex',(1.85,0.,9.)) ;
#200=CARTESIAN_POINT('Axis2P3D Location',(1.85,1.85,9.)) ;
#211=CARTESIAN_POINT('Axis2P3D Location',(9.7,13.7,0.)) ;
#216=CARTESIAN_POINT('Line Origine',(4.85,13.7,0.)) ;
#221=CARTESIAN_POINT('Line Origine',(4.85,13.7,4.)) ;
#233=CARTESIAN_POINT('Line Origine',(8.775,3.7,9.)) ;
#237=CARTESIAN_POINT('Vertex',(7.85,3.7,9.)) ;
#240=CARTESIAN_POINT('Axis2P3D Location',(7.85,1.85,9.)) ;
#251=CARTESIAN_POINT('Axis2P3D Location',(1.85,3.7,4.)) ;
#256=CARTESIAN_POINT('Line Origine',(7.85,3.7,10.)) ;
#260=CARTESIAN_POINT('Vertex',(7.85,3.7,11.)) ;
#263=CARTESIAN_POINT('Line Origine',(5.775,3.7,4.)) ;
#267=CARTESIAN_POINT('Vertex',(1.85,3.7,4.)) ;
#270=CARTESIAN_POINT('Line Origine',(1.85,3.7,7.5)) ;
#274=CARTESIAN_POINT('Vertex',(1.85,3.7,11.)) ;
#277=CARTESIAN_POINT('Line Origine',(4.85,3.7,11.)) ;
#291=CARTESIAN_POINT('Axis2P3D Location',(7.85,1.85,6.5)) ;
#296=CARTESIAN_POINT('Line Origine',(7.85,2.22044604925E-016,7.5)) ;
#300=CARTESIAN_POINT('Vertex',(7.85,0.,4.)) ;
#302=CARTESIAN_POINT('Vertex',(7.85,0.,11.)) ;
#305=CARTESIAN_POINT('Axis2P3D Location',(7.85,1.85,4.)) ;
#310=CARTESIAN_POINT('Axis2P3D Location',(7.85,1.85,11.)) ;
#324=CARTESIAN_POINT('Axis2P3D Location',(1.85,1.85,6.5)) ;
#329=CARTESIAN_POINT('Axis2P3D Location',(1.85,1.85,4.)) ;
#334=CARTESIAN_POINT('Line Origine',(1.85,0.,7.5)) ;
#338=CARTESIAN_POINT('Vertex',(1.85,0.,11.)) ;
#341=CARTESIAN_POINT('Axis2P3D Location',(1.85,1.85,11.)) ;
#355=CARTESIAN_POINT('Axis2P3D Location',(0.,0.,0.)) ;
#360=CARTESIAN_POINT('Line Origine',(4.85,0.,0.)) ;
#365=CARTESIAN_POINT('Line Origine',(8.775,0.,4.)) ;
#370=CARTESIAN_POINT('Line Origine',(4.85,0.,11.)) ;
#387=CARTESIAN_POINT('Axis2P3D Location',(0.,0.,11.)) ;
#399=CARTESIAN_POINT('Axis2P3D Location',(0.,0.,4.)) ;
#417=CARTESIAN_POINT('Axis2P3D Location',(4.85,9.7,4.)) ;
#421=CARTESIAN_POINT('Vertex',(7.35,9.7,4.)) ;
#423=CARTESIAN_POINT('Vertex',(2.35,9.7,4.)) ;
#426=CARTESIAN_POINT('Axis2P3D Location',(4.85,9.7,4.)) ;
#436=CARTESIAN_POINT('Axis2P3D Location',(0.,0.,0.)) ;
#447=CARTESIAN_POINT('Axis2P3D Location',(4.85,9.7,0.)) ;
#451=CARTESIAN_POINT('Vertex',(2.35,9.7,0.)) ;
#453=CARTESIAN_POINT('Vertex',(7.35,9.7,0.)) ;
#456=CARTESIAN_POINT('Axis2P3D Location',(4.85,9.7,0.)) ;
#466=CARTESIAN_POINT('Axis2P3D Location',(4.85,9.7,2.)) ;
#471=CARTESIAN_POINT('Line Origine',(7.35,9.7,2.)) ;
#476=CARTESIAN_POINT('Line Origine',(2.35,9.7,2.)) ;
#53=DIRECTION('Axis2P3D Direction',(1.,0.,0.)) ;
#54=DIRECTION('Axis2P3D XDirection',(0.,1.,0.)) ;
#58=DIRECTION('Vector Direction',(0.,0.,1.)) ;
#67=DIRECTION('Vector Direction',(0.,1.,0.)) ;
#74=DIRECTION('Vector Direction',(0.,0.,1.)) ;
#81=DIRECTION('Vector Direction',(0.,1.,0.)) ;
#88=DIRECTION('Vector Direction',(0.,0.,1.)) ;
#95=DIRECTION('Vector Direction',(0.,1.,0.)) ;
#102=DIRECTION('Vector Direction',(0.,0.,1.)) ;
#109=DIRECTION('Vector Direction',(0.,-1.,0.)) ;
#125=DIRECTION('Axis2P3D Direction',(-1.,0.,0.)) ;
#126=DIRECTION('Axis2P3D XDirection',(0.,-1.,0.)) ;
#130=DIRECTION('Vector Direction',(0.,0.,1.)) ;
#139=DIRECTION('Vector Direction',(0.,-1.,0.)) ;
#146=DIRECTION('Vector Direction',(0.,0.,1.)) ;
#153=DIRECTION('Vector Direction',(0.,-1.,0.)) ;
#160=DIRECTION('Vector Direction',(0.,0.,1.)) ;
#167=DIRECTION('Vector Direction',(0.,0.,1.)) ;
#174=DIRECTION('Vector Direction',(0.,1.,0.)) ;
#189=DIRECTION('Axis2P3D Direction',(0.,0.,1.)) ;
#190=DIRECTION('Axis2P3D XDirection',(1.,0.,0.)) ;
#194=DIRECTION('Vector Direction',(1.,0.,0.)) ;
#201=DIRECTION('Axis2P3D Direction',(0.,0.,1.)) ;
#212=DIRECTION('Axis2P3D Direction',(0.,1.,-0.)) ;
#213=DIRECTION('Axis2P3D XDirection',(-1.,0.,0.)) ;
#217=DIRECTION('Vector Direction',(-1.,0.,0.)) ;
#222=DIRECTION('Vector Direction',(-1.,0.,0.)) ;
#234=DIRECTION('Vector Direction',(1.,0.,0.)) ;
#241=DIRECTION('Axis2P3D Direction',(0.,0.,1.)) ;
#252=DIRECTION('Axis2P3D Direction',(0.,-1.,0.)) ;
#253=DIRECTION('Axis2P3D XDirection',(1.,0.,0.)) ;
#257=DIRECTION('Vector Direction',(0.,0.,1.)) ;
#264=DIRECTION('Vector Direction',(1.,0.,0.)) ;
#271=DIRECTION('Vector Direction',(0.,0.,1.)) ;
#278=DIRECTION('Vector Direction',(-1.,0.,0.)) ;
#292=DIRECTION('Axis2P3D Direction',(0.,0.,1.)) ;
#293=DIRECTION('Axis2P3D XDirection',(-1.83697019872E-016,-1.,-0.)) ;
#297=DIRECTION('Vector Direction',(0.,0.,1.)) ;
#306=DIRECTION('Axis2P3D Direction',(0.,0.,1.)) ;
#311=DIRECTION('Axis2P3D Direction',(0.,0.,1.)) ;
#325=DIRECTION('Axis2P3D Direction',(0.,0.,1.)) ;
#326=DIRECTION('Axis2P3D XDirection',(7.27366154732E-016,1.,0.)) ;
#330=DIRECTION('Axis2P3D Direction',(0.,0.,1.)) ;
#335=DIRECTION('Vector Direction',(0.,0.,1.)) ;
#342=DIRECTION('Axis2P3D Direction',(0.,0.,1.)) ;
#356=DIRECTION('Axis2P3D Direction',(0.,-1.,0.)) ;
#357=DIRECTION('Axis2P3D XDirection',(1.,0.,0.)) ;
#361=DIRECTION('Vector Direction',(1.,0.,0.)) ;
#366=DIRECTION('Vector Direction',(1.,0.,0.)) ;
#371=DIRECTION('Vector Direction',(1.,0.,0.)) ;
#388=DIRECTION('Axis2P3D Direction',(0.,0.,1.)) ;
#389=DIRECTION('Axis2P3D XDirection',(1.,0.,0.)) ;
#400=DIRECTION('Axis2P3D Direction',(0.,0.,1.)) ;
#401=DIRECTION('Axis2P3D XDirection',(1.,0.,0.)) ;
#418=DIRECTION('Axis2P3D Direction',(0.,0.,1.)) ;
#427=DIRECTION('Axis2P3D Direction',(0.,0.,1.)) ;
#437=DIRECTION('Axis2P3D Direction',(0.,0.,1.)) ;
#438=DIRECTION('Axis2P3D XDirection',(1.,0.,0.)) ;
#448=DIRECTION('Axis2P3D Direction',(0.,0.,1.)) ;
#457=DIRECTION('Axis2P3D Direction',(0.,0.,1.)) ;
#467=DIRECTION('Axis2P3D Direction',(0.,0.,1.)) ;
#468=DIRECTION('Axis2P3D XDirection',(1.,0.,0.)) ;
#472=DIRECTION('Vector Direction',(0.,0.,1.)) ;
#477=DIRECTION('Vector Direction',(0.,0.,1.)) ;
#48=AXIS2_PLACEMENT_3D(' ',#47,$,$) ;
#55=AXIS2_PLACEMENT_3D('Plane Axis2P3D',#52,#53,#54) ;
#127=AXIS2_PLACEMENT_3D('Plane Axis2P3D',#124,#125,#126) ;
#191=AXIS2_PLACEMENT_3D('Plane Axis2P3D',#188,#189,#190) ;
#202=AXIS2_PLACEMENT_3D('Circle Axis2P3D',#200,#201,$) ;
#214=AXIS2_PLACEMENT_3D('Plane Axis2P3D',#211,#212,#213) ;
#242=AXIS2_PLACEMENT_3D('Circle Axis2P3D',#240,#241,$) ;
#254=AXIS2_PLACEMENT_3D('Plane Axis2P3D',#251,#252,#253) ;
#294=AXIS2_PLACEMENT_3D('Cylinder Axis2P3D',#291,#292,#293) ;
#307=AXIS2_PLACEMENT_3D('Circle Axis2P3D',#305,#306,$) ;
#312=AXIS2_PLACEMENT_3D('Circle Axis2P3D',#310,#311,$) ;
#327=AXIS2_PLACEMENT_3D('Cylinder Axis2P3D',#324,#325,#326) ;
#331=AXIS2_PLACEMENT_3D('Circle Axis2P3D',#329,#330,$) ;
#343=AXIS2_PLACEMENT_3D('Circle Axis2P3D',#341,#342,$) ;
#358=AXIS2_PLACEMENT_3D('Plane Axis2P3D',#355,#356,#357) ;
#390=AXIS2_PLACEMENT_3D('Plane Axis2P3D',#387,#388,#389) ;
#402=AXIS2_PLACEMENT_3D('Plane Axis2P3D',#399,#400,#401) ;
#419=AXIS2_PLACEMENT_3D('Circle Axis2P3D',#417,#418,$) ;
#428=AXIS2_PLACEMENT_3D('Circle Axis2P3D',#426,#427,$) ;
#439=AXIS2_PLACEMENT_3D('Plane Axis2P3D',#436,#437,#438) ;
#449=AXIS2_PLACEMENT_3D('Circle Axis2P3D',#447,#448,$) ;
#458=AXIS2_PLACEMENT_3D('Circle Axis2P3D',#456,#457,$) ;
#469=AXIS2_PLACEMENT_3D('Cylinder Axis2P3D',#466,#467,#468) ;
#40=PRODUCT_DEFINITION_SHAPE(' ',' ',#14) ;
#31=APPROVAL_PERSON_ORGANIZATION(#25,#21,#19) ;
#25=PERSON_AND_ORGANIZATION(#22,#23) ;
#22=PERSON(' ',' ',' ',$,$,$) ;
#23=ORGANIZATION(' ',' ',' ') ;
#21=APPROVAL(#20,' ') ;
#20=APPROVAL_STATUS('not_yet_approved') ;
#19=APPROVAL_ROLE('APPROVER') ;
#13=DATE_AND_TIME(#11,#12) ;
#12=LOCAL_TIME(10,16,25.,#10) ;
#10=COORDINATED_UNIVERSAL_TIME_OFFSET(0,0,.AHEAD.) ;
#114=ORIENTED_EDGE('',*,*,#65,.F.) ;
#115=ORIENTED_EDGE('',*,*,#72,.F.) ;
#116=ORIENTED_EDGE('',*,*,#79,.F.) ;
#117=ORIENTED_EDGE('',*,*,#86,.T.) ;
#118=ORIENTED_EDGE('',*,*,#93,.T.) ;
#119=ORIENTED_EDGE('',*,*,#100,.F.) ;
#120=ORIENTED_EDGE('',*,*,#107,.T.) ;
#121=ORIENTED_EDGE('',*,*,#112,.F.) ;
#179=ORIENTED_EDGE('',*,*,#137,.F.) ;
#180=ORIENTED_EDGE('',*,*,#144,.F.) ;
#181=ORIENTED_EDGE('',*,*,#151,.F.) ;
#182=ORIENTED_EDGE('',*,*,#158,.T.) ;
#183=ORIENTED_EDGE('',*,*,#165,.T.) ;
#184=ORIENTED_EDGE('',*,*,#172,.T.) ;
#185=ORIENTED_EDGE('',*,*,#177,.F.) ;
#206=ORIENTED_EDGE('',*,*,#177,.T.) ;
#207=ORIENTED_EDGE('',*,*,#199,.T.) ;
#208=ORIENTED_EDGE('',*,*,#204,.F.) ;
#227=ORIENTED_EDGE('',*,*,#93,.F.) ;
#228=ORIENTED_EDGE('',*,*,#220,.T.) ;
#229=ORIENTED_EDGE('',*,*,#151,.T.) ;
#230=ORIENTED_EDGE('',*,*,#225,.F.) ;
#246=ORIENTED_EDGE('',*,*,#112,.T.) ;
#247=ORIENTED_EDGE('',*,*,#239,.T.) ;
#248=ORIENTED_EDGE('',*,*,#244,.F.) ;
#283=ORIENTED_EDGE('',*,*,#262,.F.) ;
#284=ORIENTED_EDGE('',*,*,#239,.F.) ;
#285=ORIENTED_EDGE('',*,*,#107,.F.) ;
#286=ORIENTED_EDGE('',*,*,#269,.T.) ;
#287=ORIENTED_EDGE('',*,*,#276,.T.) ;
#288=ORIENTED_EDGE('',*,*,#281,.F.) ;
#316=ORIENTED_EDGE('',*,*,#304,.F.) ;
#317=ORIENTED_EDGE('',*,*,#309,.T.) ;
#318=ORIENTED_EDGE('',*,*,#65,.T.) ;
#319=ORIENTED_EDGE('',*,*,#244,.T.) ;
#320=ORIENTED_EDGE('',*,*,#262,.T.) ;
#321=ORIENTED_EDGE('',*,*,#314,.F.) ;
#347=ORIENTED_EDGE('',*,*,#276,.F.) ;
#348=ORIENTED_EDGE('',*,*,#333,.T.) ;
#349=ORIENTED_EDGE('',*,*,#137,.T.) ;
#350=ORIENTED_EDGE('',*,*,#204,.T.) ;
#351=ORIENTED_EDGE('',*,*,#340,.T.) ;
#352=ORIENTED_EDGE('',*,*,#345,.F.) ;
#376=ORIENTED_EDGE('',*,*,#340,.F.) ;
#377=ORIENTED_EDGE('',*,*,#199,.F.) ;
#378=ORIENTED_EDGE('',*,*,#172,.F.) ;
#379=ORIENTED_EDGE('',*,*,#165,.F.) ;
#380=ORIENTED_EDGE('',*,*,#364,.T.) ;
#381=ORIENTED_EDGE('',*,*,#79,.T.) ;
#382=ORIENTED_EDGE('',*,*,#369,.F.) ;
#383=ORIENTED_EDGE('',*,*,#304,.T.) ;
#384=ORIENTED_EDGE('',*,*,#374,.F.) ;
#393=ORIENTED_EDGE('',*,*,#374,.T.) ;
#394=ORIENTED_EDGE('',*,*,#314,.T.) ;
#395=ORIENTED_EDGE('',*,*,#281,.T.) ;
#396=ORIENTED_EDGE('',*,*,#345,.T.) ;
#405=ORIENTED_EDGE('',*,*,#369,.T.) ;
#406=ORIENTED_EDGE('',*,*,#72,.T.) ;
#407=ORIENTED_EDGE('',*,*,#309,.F.) ;
#411=ORIENTED_EDGE('',*,*,#100,.T.) ;
#412=ORIENTED_EDGE('',*,*,#225,.T.) ;
#413=ORIENTED_EDGE('',*,*,#144,.T.) ;
#414=ORIENTED_EDGE('',*,*,#333,.F.) ;
#415=ORIENTED_EDGE('',*,*,#269,.F.) ;
#432=ORIENTED_EDGE('',*,*,#425,.F.) ;
#433=ORIENTED_EDGE('',*,*,#430,.F.) ;
#442=ORIENTED_EDGE('',*,*,#158,.F.) ;
#443=ORIENTED_EDGE('',*,*,#220,.F.) ;
#444=ORIENTED_EDGE('',*,*,#86,.F.) ;
#445=ORIENTED_EDGE('',*,*,#364,.F.) ;
#462=ORIENTED_EDGE('',*,*,#455,.T.) ;
#463=ORIENTED_EDGE('',*,*,#460,.T.) ;
#482=ORIENTED_EDGE('',*,*,#475,.F.) ;
#483=ORIENTED_EDGE('',*,*,#425,.T.) ;
#484=ORIENTED_EDGE('',*,*,#480,.T.) ;
#485=ORIENTED_EDGE('',*,*,#460,.F.) ;
#489=ORIENTED_EDGE('',*,*,#480,.F.) ;
#490=ORIENTED_EDGE('',*,*,#430,.T.) ;
#491=ORIENTED_EDGE('',*,*,#475,.T.) ;
#492=ORIENTED_EDGE('',*,*,#455,.F.) ;
#434=FACE_BOUND('',#431,.T.) ;
#464=FACE_BOUND('',#461,.T.) ;
#51=CLOSED_SHELL('Closed Shell',(#123,#187,#210,#232,#250,#290,#323,#354,#386,#398,#409,#435,#465,#487,#494)) ;
#59=VECTOR('Line Direction',#58,1.) ;
#68=VECTOR('Line Direction',#67,1.) ;
#75=VECTOR('Line Direction',#74,1.) ;
#82=VECTOR('Line Direction',#81,1.) ;
#89=VECTOR('Line Direction',#88,1.) ;
#96=VECTOR('Line Direction',#95,1.) ;
#103=VECTOR('Line Direction',#102,1.) ;
#110=VECTOR('Line Direction',#109,1.) ;
#131=VECTOR('Line Direction',#130,1.) ;
#140=VECTOR('Line Direction',#139,1.) ;
#147=VECTOR('Line Direction',#146,1.) ;
#154=VECTOR('Line Direction',#153,1.) ;
#161=VECTOR('Line Direction',#160,1.) ;
#168=VECTOR('Line Direction',#167,1.) ;
#175=VECTOR('Line Direction',#174,1.) ;
#195=VECTOR('Line Direction',#194,1.) ;
#218=VECTOR('Line Direction',#217,1.) ;
#223=VECTOR('Line Direction',#222,1.) ;
#235=VECTOR('Line Direction',#234,1.) ;
#258=VECTOR('Line Direction',#257,1.) ;
#265=VECTOR('Line Direction',#264,1.) ;
#272=VECTOR('Line Direction',#271,1.) ;
#279=VECTOR('Line Direction',#278,1.) ;
#298=VECTOR('Line Direction',#297,1.) ;
#336=VECTOR('Line Direction',#335,1.) ;
#362=VECTOR('Line Direction',#361,1.) ;
#367=VECTOR('Line Direction',#366,1.) ;
#372=VECTOR('Line Direction',#371,1.) ;
#473=VECTOR('Line Direction',#472,1.) ;
#478=VECTOR('Line Direction',#477,1.) ;
#496=ADVANCED_BREP_SHAPE_REPRESENTATION('NONE',(#495),#46) ;
#49=SHAPE_REPRESENTATION(' ',(#48),#46) ;
#123=ADVANCED_FACE('Corps principal',(#122),#56,.T.) ;
#187=ADVANCED_FACE('Corps principal',(#186),#128,.T.) ;
#210=ADVANCED_FACE('Corps principal',(#209),#192,.T.) ;
#232=ADVANCED_FACE('Corps principal',(#231),#215,.T.) ;
#250=ADVANCED_FACE('Corps principal',(#249),#192,.T.) ;
#290=ADVANCED_FACE('Corps principal',(#289),#255,.F.) ;
#323=ADVANCED_FACE('Corps principal',(#322),#295,.T.) ;
#354=ADVANCED_FACE('Corps principal',(#353),#328,.T.) ;
#386=ADVANCED_FACE('Corps principal',(#385),#359,.T.) ;
#398=ADVANCED_FACE('Corps principal',(#397),#391,.T.) ;
#409=ADVANCED_FACE('Corps principal',(#408),#403,.T.) ;
#435=ADVANCED_FACE('Corps principal',(#416,#434),#403,.T.) ;
#465=ADVANCED_FACE('Corps principal',(#446,#464),#440,.F.) ;
#487=ADVANCED_FACE('Corps principal',(#486),#470,.F.) ;
#494=ADVANCED_FACE('Corps principal',(#493),#470,.F.) ;
#4=APPLICATION_PROTOCOL_DEFINITION('international standard','config_control_design',1994,#1) ;
#32=APPROVAL_DATE_TIME(#13,#21) ;
#495=MANIFOLD_SOLID_BREP('Corps principal',#51) ;
#11=CALENDAR_DATE(2022,5,3) ;
#30=CC_DESIGN_APPROVAL(#21,(#16,#6,#14)) ;
#18=CC_DESIGN_DATE_AND_TIME_ASSIGNMENT(#13,#17,(#16)) ;
#29=CC_DESIGN_DATE_AND_TIME_ASSIGNMENT(#13,#28,(#14)) ;
#17=DATE_TIME_ROLE('classification_date') ;
#28=DATE_TIME_ROLE('creation_date') ;
#27=CC_DESIGN_PERSON_AND_ORGANIZATION_ASSIGNMENT(#25,#26,(#16)) ;
#33=CC_DESIGN_PERSON_AND_ORGANIZATION_ASSIGNMENT(#25,#34,(#6)) ;
#35=CC_DESIGN_PERSON_AND_ORGANIZATION_ASSIGNMENT(#25,#36,(#6,#14)) ;
#37=CC_DESIGN_PERSON_AND_ORGANIZATION_ASSIGNMENT(#25,#38,(#5)) ;
#26=PERSON_AND_ORGANIZATION_ROLE('classification_officer') ;
#34=PERSON_AND_ORGANIZATION_ROLE('design_supplier') ;
#36=PERSON_AND_ORGANIZATION_ROLE('creator') ;
#38=PERSON_AND_ORGANIZATION_ROLE('design_owner') ;
#39=CC_DESIGN_SECURITY_CLASSIFICATION(#16,(#6)) ;
#203=CIRCLE('generated circle',#202,1.85) ;
#243=CIRCLE('generated circle',#242,1.85) ;
#308=CIRCLE('generated circle',#307,1.85) ;
#313=CIRCLE('generated circle',#312,1.85) ;
#332=CIRCLE('generated circle',#331,1.85) ;
#344=CIRCLE('generated circle',#343,1.85) ;
#420=CIRCLE('generated circle',#419,2.5) ;
#429=CIRCLE('generated circle',#428,2.5) ;
#450=CIRCLE('generated circle',#449,2.5) ;
#459=CIRCLE('generated circle',#458,2.5) ;
#497=SHAPE_REPRESENTATION_RELATIONSHIP(' ',' ',#49,#496) ;
#295=CYLINDRICAL_SURFACE('generated cylinder',#294,1.85) ;
#328=CYLINDRICAL_SURFACE('generated cylinder',#327,1.85) ;
#470=CYLINDRICAL_SURFACE('generated cylinder',#469,2.5) ;
#3=DESIGN_CONTEXT(' ',#1,'design') ;
#65=EDGE_CURVE('',#62,#64,#60,.T.) ;
#72=EDGE_CURVE('',#71,#62,#69,.T.) ;
#79=EDGE_CURVE('',#78,#71,#76,.T.) ;
#86=EDGE_CURVE('',#78,#85,#83,.T.) ;
#93=EDGE_CURVE('',#85,#92,#90,.T.) ;
#100=EDGE_CURVE('',#99,#92,#97,.T.) ;
#107=EDGE_CURVE('',#99,#106,#104,.T.) ;
#112=EDGE_CURVE('',#64,#106,#111,.F.) ;
#137=EDGE_CURVE('',#134,#136,#132,.T.) ;
#144=EDGE_CURVE('',#143,#134,#141,.T.) ;
#151=EDGE_CURVE('',#150,#143,#148,.T.) ;
#158=EDGE_CURVE('',#150,#157,#155,.T.) ;
#165=EDGE_CURVE('',#157,#164,#162,.T.) ;
#172=EDGE_CURVE('',#164,#171,#169,.T.) ;
#177=EDGE_CURVE('',#136,#171,#176,.F.) ;
#199=EDGE_CURVE('',#171,#198,#196,.T.) ;
#204=EDGE_CURVE('',#136,#198,#203,.T.) ;
#220=EDGE_CURVE('',#85,#150,#219,.T.) ;
#225=EDGE_CURVE('',#92,#143,#224,.T.) ;
#239=EDGE_CURVE('',#106,#238,#236,.F.) ;
#244=EDGE_CURVE('',#64,#238,#243,.T.) ;
#262=EDGE_CURVE('',#238,#261,#259,.T.) ;
#269=EDGE_CURVE('',#99,#268,#266,.F.) ;
#276=EDGE_CURVE('',#268,#275,#273,.T.) ;
#281=EDGE_CURVE('',#261,#275,#280,.T.) ;
#304=EDGE_CURVE('',#301,#303,#299,.T.) ;
#309=EDGE_CURVE('',#301,#62,#308,.T.) ;
#314=EDGE_CURVE('',#303,#261,#313,.T.) ;
#333=EDGE_CURVE('',#268,#134,#332,.T.) ;
#340=EDGE_CURVE('',#198,#339,#337,.T.) ;
#345=EDGE_CURVE('',#275,#339,#344,.T.) ;
#364=EDGE_CURVE('',#157,#78,#363,.T.) ;
#369=EDGE_CURVE('',#301,#71,#368,.T.) ;
#374=EDGE_CURVE('',#339,#303,#373,.T.) ;
#425=EDGE_CURVE('',#422,#424,#420,.T.) ;
#430=EDGE_CURVE('',#424,#422,#429,.T.) ;
#455=EDGE_CURVE('',#452,#454,#450,.T.) ;
#460=EDGE_CURVE('',#454,#452,#459,.T.) ;
#475=EDGE_CURVE('',#422,#454,#474,.F.) ;
#480=EDGE_CURVE('',#424,#452,#479,.F.) ;
#113=EDGE_LOOP('',(#114,#115,#116,#117,#118,#119,#120,#121)) ;
#178=EDGE_LOOP('',(#179,#180,#181,#182,#183,#184,#185)) ;
#205=EDGE_LOOP('',(#206,#207,#208)) ;
#226=EDGE_LOOP('',(#227,#228,#229,#230)) ;
#245=EDGE_LOOP('',(#246,#247,#248)) ;
#282=EDGE_LOOP('',(#283,#284,#285,#286,#287,#288)) ;
#315=EDGE_LOOP('',(#316,#317,#318,#319,#320,#321)) ;
#346=EDGE_LOOP('',(#347,#348,#349,#350,#351,#352)) ;
#375=EDGE_LOOP('',(#376,#377,#378,#379,#380,#381,#382,#383,#384)) ;
#392=EDGE_LOOP('',(#393,#394,#395,#396)) ;
#404=EDGE_LOOP('',(#405,#406,#407)) ;
#410=EDGE_LOOP('',(#411,#412,#413,#414,#415)) ;
#431=EDGE_LOOP('',(#432,#433)) ;
#441=EDGE_LOOP('',(#442,#443,#444,#445)) ;
#461=EDGE_LOOP('',(#462,#463)) ;
#481=EDGE_LOOP('',(#482,#483,#484,#485)) ;
#488=EDGE_LOOP('',(#489,#490,#491,#492)) ;
#122=FACE_OUTER_BOUND('',#113,.T.) ;
#186=FACE_OUTER_BOUND('',#178,.T.) ;
#209=FACE_OUTER_BOUND('',#205,.T.) ;
#231=FACE_OUTER_BOUND('',#226,.T.) ;
#249=FACE_OUTER_BOUND('',#245,.T.) ;
#289=FACE_OUTER_BOUND('',#282,.T.) ;
#322=FACE_OUTER_BOUND('',#315,.T.) ;
#353=FACE_OUTER_BOUND('',#346,.T.) ;
#385=FACE_OUTER_BOUND('',#375,.T.) ;
#397=FACE_OUTER_BOUND('',#392,.T.) ;
#408=FACE_OUTER_BOUND('',#404,.T.) ;
#416=FACE_OUTER_BOUND('',#410,.T.) ;
#446=FACE_OUTER_BOUND('',#441,.T.) ;
#486=FACE_OUTER_BOUND('',#481,.T.) ;
#493=FACE_OUTER_BOUND('',#488,.T.) ;
#45=UNCERTAINTY_MEASURE_WITH_UNIT(LENGTH_MEASURE(0.005),#41,'distance_accuracy_value','CONFUSED CURVE UNCERTAINTY') ;
#60=LINE('Line',#57,#59) ;
#69=LINE('Line',#66,#68) ;
#76=LINE('Line',#73,#75) ;
#83=LINE('Line',#80,#82) ;
#90=LINE('Line',#87,#89) ;
#97=LINE('Line',#94,#96) ;
#104=LINE('Line',#101,#103) ;
#111=LINE('Line',#108,#110) ;
#132=LINE('Line',#129,#131) ;
#141=LINE('Line',#138,#140) ;
#148=LINE('Line',#145,#147) ;
#155=LINE('Line',#152,#154) ;
#162=LINE('Line',#159,#161) ;
#169=LINE('Line',#166,#168) ;
#176=LINE('Line',#173,#175) ;
#196=LINE('Line',#193,#195) ;
#219=LINE('Line',#216,#218) ;
#224=LINE('Line',#221,#223) ;
#236=LINE('Line',#233,#235) ;
#259=LINE('Line',#256,#258) ;
#266=LINE('Line',#263,#265) ;
#273=LINE('Line',#270,#272) ;
#280=LINE('Line',#277,#279) ;
#299=LINE('Line',#296,#298) ;
#337=LINE('Line',#334,#336) ;
#363=LINE('Line',#360,#362) ;
#368=LINE('Line',#365,#367) ;
#373=LINE('Line',#370,#372) ;
#474=LINE('Line',#471,#473) ;
#479=LINE('Line',#476,#478) ;
#2=MECHANICAL_CONTEXT(' ',#1,'mechanical') ;
#24=PERSONAL_ADDRESS(' ',' ',' ',' ',' ',' ',' ',' ',' ',' ',' ',' ',(#22),' ') ;
#56=PLANE('Plane',#55) ;
#128=PLANE('Plane',#127) ;
#192=PLANE('Plane',#191) ;
#215=PLANE('Plane',#214) ;
#255=PLANE('Plane',#254) ;
#359=PLANE('Plane',#358) ;
#391=PLANE('Plane',#390) ;
#403=PLANE('Plane',#402) ;
#440=PLANE('Plane',#439) ;
#43=PLANE_ANGLE_MEASURE_WITH_UNIT(PLANE_ANGLE_MEASURE(0.0174532925199),#42) ;
#7=PRODUCT_CATEGORY('part',$) ;
#9=PRODUCT_CATEGORY_RELATIONSHIP(' ',' ',#7,#8) ;
#6=PRODUCT_DEFINITION_FORMATION_WITH_SPECIFIED_SOURCE('',' ',#5,.NOT_KNOWN.) ;
#8=PRODUCT_RELATED_PRODUCT_CATEGORY('detail',$,(#5)) ;
#50=SHAPE_DEFINITION_REPRESENTATION(#40,#49) ;
#62=VERTEX_POINT('',#61) ;
#64=VERTEX_POINT('',#63) ;
#71=VERTEX_POINT('',#70) ;
#78=VERTEX_POINT('',#77) ;
#85=VERTEX_POINT('',#84) ;
#92=VERTEX_POINT('',#91) ;
#99=VERTEX_POINT('',#98) ;
#106=VERTEX_POINT('',#105) ;
#134=VERTEX_POINT('',#133) ;
#136=VERTEX_POINT('',#135) ;
#143=VERTEX_POINT('',#142) ;
#150=VERTEX_POINT('',#149) ;
#157=VERTEX_POINT('',#156) ;
#164=VERTEX_POINT('',#163) ;
#171=VERTEX_POINT('',#170) ;
#198=VERTEX_POINT('',#197) ;
#238=VERTEX_POINT('',#237) ;
#261=VERTEX_POINT('',#260) ;
#268=VERTEX_POINT('',#267) ;
#275=VERTEX_POINT('',#274) ;
#301=VERTEX_POINT('',#300) ;
#303=VERTEX_POINT('',#302) ;
#339=VERTEX_POINT('',#338) ;
#422=VERTEX_POINT('',#421) ;
#424=VERTEX_POINT('',#423) ;
#452=VERTEX_POINT('',#451) ;
#454=VERTEX_POINT('',#453) ;
#41=(LENGTH_UNIT()NAMED_UNIT(*)SI_UNIT(.MILLI.,.METRE.)) ;
#42=(NAMED_UNIT(*)PLANE_ANGLE_UNIT()SI_UNIT($,.RADIAN.)) ;
#44=(NAMED_UNIT(*)SI_UNIT($,.STERADIAN.)SOLID_ANGLE_UNIT()) ;
#46=(GEOMETRIC_REPRESENTATION_CONTEXT(3)GLOBAL_UNCERTAINTY_ASSIGNED_CONTEXT((#45))GLOBAL_UNIT_ASSIGNED_CONTEXT((#41,#42,#44))REPRESENTATION_CONTEXT(' ',' ')) ;
ENDSEC;
END-ISO-10303-21;
