ISO-10303-21;
HEADER;
/* Generated by software containing ST-Developer
 * from STEP Tools, Inc. (www.steptools.com) 
 */

FILE_DESCRIPTION(
/* description */ (''),
/* implementation_level */ '2;1');

FILE_NAME(
/* name */ 
'C:/Users/cofy3/OneDrive/Bureau/RAPTOR   STEP/ENTRETOISE ALUMINIUM/N\X\B0
2 PATE FIX INTERMEDIAIRE  FINIS.step',
/* time_stamp */ '2022-03-06T22:50:29+01:00',
/* author */ (''),
/* organization */ (''),
/* preprocessor_version */ 'ST-DEVELOPER v18.1',
/* originating_system */ 'Autodesk Translation Framework v10.13.0.1454',

/* authorisation */ '');

FILE_SCHEMA (('AUTOMOTIVE_DESIGN { 1 0 10303 214 3 1 1 }'));
ENDSEC;

DATA;
#10=MECHANICAL_DESIGN_GEOMETRIC_PRESENTATION_REPRESENTATION('',(#13),#300);
#11=SHAPE_REPRESENTATION_RELATIONSHIP('SRR','None',#307,#12);
#12=ADVANCED_BREP_SHAPE_REPRESENTATION('',(#14),#299);
#13=STYLED_ITEM('',(#317),#14);
#14=MANIFOLD_SOLID_BREP('Corps1',#176);
#15=FACE_BOUND('',#40,.T.);
#16=FACE_BOUND('',#42,.T.);
#17=FACE_BOUND('',#43,.T.);
#18=FACE_BOUND('',#46,.T.);
#19=FACE_BOUND('',#49,.T.);
#20=FACE_BOUND('',#50,.T.);
#21=PLANE('',#199);
#22=PLANE('',#200);
#23=PLANE('',#201);
#24=PLANE('',#202);
#25=PLANE('',#203);
#26=PLANE('',#204);
#27=FACE_OUTER_BOUND('',#36,.T.);
#28=FACE_OUTER_BOUND('',#37,.T.);
#29=FACE_OUTER_BOUND('',#38,.T.);
#30=FACE_OUTER_BOUND('',#39,.T.);
#31=FACE_OUTER_BOUND('',#41,.T.);
#32=FACE_OUTER_BOUND('',#44,.T.);
#33=FACE_OUTER_BOUND('',#45,.T.);
#34=FACE_OUTER_BOUND('',#47,.T.);
#35=FACE_OUTER_BOUND('',#48,.T.);
#36=EDGE_LOOP('',(#122,#123,#124,#125));
#37=EDGE_LOOP('',(#126,#127,#128,#129));
#38=EDGE_LOOP('',(#130,#131,#132,#133));
#39=EDGE_LOOP('',(#134,#135,#136,#137));
#40=EDGE_LOOP('',(#138));
#41=EDGE_LOOP('',(#139,#140,#141,#142));
#42=EDGE_LOOP('',(#143));
#43=EDGE_LOOP('',(#144));
#44=EDGE_LOOP('',(#145,#146,#147,#148));
#45=EDGE_LOOP('',(#149,#150,#151,#152));
#46=EDGE_LOOP('',(#153));
#47=EDGE_LOOP('',(#154,#155,#156,#157));
#48=EDGE_LOOP('',(#158,#159,#160,#161));
#49=EDGE_LOOP('',(#162));
#50=EDGE_LOOP('',(#163));
#51=LINE('',#257,#66);
#52=LINE('',#263,#67);
#53=LINE('',#269,#68);
#54=LINE('',#274,#69);
#55=LINE('',#276,#70);
#56=LINE('',#278,#71);
#57=LINE('',#279,#72);
#58=LINE('',#282,#73);
#59=LINE('',#284,#74);
#60=LINE('',#285,#75);
#61=LINE('',#288,#76);
#62=LINE('',#289,#77);
#63=LINE('',#292,#78);
#64=LINE('',#293,#79);
#65=LINE('',#295,#80);
#66=VECTOR('',#211,2.05);
#67=VECTOR('',#218,1.65);
#68=VECTOR('',#225,1.65);
#69=VECTOR('',#230,10.);
#70=VECTOR('',#231,10.);
#71=VECTOR('',#232,10.);
#72=VECTOR('',#233,10.);
#73=VECTOR('',#236,10.);
#74=VECTOR('',#237,10.);
#75=VECTOR('',#238,10.);
#76=VECTOR('',#241,10.);
#77=VECTOR('',#242,10.);
#78=VECTOR('',#245,10.);
#79=VECTOR('',#246,10.);
#80=VECTOR('',#249,10.);
#81=CIRCLE('',#191,2.05);
#82=CIRCLE('',#192,2.05);
#83=CIRCLE('',#194,1.65);
#84=CIRCLE('',#195,1.65);
#85=CIRCLE('',#197,1.65);
#86=CIRCLE('',#198,1.65);
#87=VERTEX_POINT('',#254);
#88=VERTEX_POINT('',#256);
#89=VERTEX_POINT('',#260);
#90=VERTEX_POINT('',#262);
#91=VERTEX_POINT('',#266);
#92=VERTEX_POINT('',#268);
#93=VERTEX_POINT('',#272);
#94=VERTEX_POINT('',#273);
#95=VERTEX_POINT('',#275);
#96=VERTEX_POINT('',#277);
#97=VERTEX_POINT('',#281);
#98=VERTEX_POINT('',#283);
#99=VERTEX_POINT('',#287);
#100=VERTEX_POINT('',#291);
#101=EDGE_CURVE('',#87,#87,#81,.T.);
#102=EDGE_CURVE('',#87,#88,#51,.T.);
#103=EDGE_CURVE('',#88,#88,#82,.T.);
#104=EDGE_CURVE('',#89,#89,#83,.T.);
#105=EDGE_CURVE('',#89,#90,#52,.T.);
#106=EDGE_CURVE('',#90,#90,#84,.T.);
#107=EDGE_CURVE('',#91,#91,#85,.T.);
#108=EDGE_CURVE('',#91,#92,#53,.T.);
#109=EDGE_CURVE('',#92,#92,#86,.T.);
#110=EDGE_CURVE('',#93,#94,#54,.T.);
#111=EDGE_CURVE('',#93,#95,#55,.T.);
#112=EDGE_CURVE('',#96,#95,#56,.T.);
#113=EDGE_CURVE('',#94,#96,#57,.T.);
#114=EDGE_CURVE('',#95,#97,#58,.T.);
#115=EDGE_CURVE('',#97,#98,#59,.T.);
#116=EDGE_CURVE('',#98,#96,#60,.T.);
#117=EDGE_CURVE('',#94,#99,#61,.T.);
#118=EDGE_CURVE('',#99,#98,#62,.T.);
#119=EDGE_CURVE('',#99,#100,#63,.T.);
#120=EDGE_CURVE('',#100,#97,#64,.T.);
#121=EDGE_CURVE('',#100,#93,#65,.T.);
#122=ORIENTED_EDGE('',*,*,#101,.F.);
#123=ORIENTED_EDGE('',*,*,#102,.T.);
#124=ORIENTED_EDGE('',*,*,#103,.F.);
#125=ORIENTED_EDGE('',*,*,#102,.F.);
#126=ORIENTED_EDGE('',*,*,#104,.F.);
#127=ORIENTED_EDGE('',*,*,#105,.T.);
#128=ORIENTED_EDGE('',*,*,#106,.F.);
#129=ORIENTED_EDGE('',*,*,#105,.F.);
#130=ORIENTED_EDGE('',*,*,#107,.F.);
#131=ORIENTED_EDGE('',*,*,#108,.T.);
#132=ORIENTED_EDGE('',*,*,#109,.F.);
#133=ORIENTED_EDGE('',*,*,#108,.F.);
#134=ORIENTED_EDGE('',*,*,#110,.F.);
#135=ORIENTED_EDGE('',*,*,#111,.T.);
#136=ORIENTED_EDGE('',*,*,#112,.F.);
#137=ORIENTED_EDGE('',*,*,#113,.F.);
#138=ORIENTED_EDGE('',*,*,#103,.T.);
#139=ORIENTED_EDGE('',*,*,#112,.T.);
#140=ORIENTED_EDGE('',*,*,#114,.T.);
#141=ORIENTED_EDGE('',*,*,#115,.T.);
#142=ORIENTED_EDGE('',*,*,#116,.T.);
#143=ORIENTED_EDGE('',*,*,#106,.T.);
#144=ORIENTED_EDGE('',*,*,#109,.T.);
#145=ORIENTED_EDGE('',*,*,#117,.F.);
#146=ORIENTED_EDGE('',*,*,#113,.T.);
#147=ORIENTED_EDGE('',*,*,#116,.F.);
#148=ORIENTED_EDGE('',*,*,#118,.F.);
#149=ORIENTED_EDGE('',*,*,#119,.F.);
#150=ORIENTED_EDGE('',*,*,#118,.T.);
#151=ORIENTED_EDGE('',*,*,#115,.F.);
#152=ORIENTED_EDGE('',*,*,#120,.F.);
#153=ORIENTED_EDGE('',*,*,#101,.T.);
#154=ORIENTED_EDGE('',*,*,#121,.F.);
#155=ORIENTED_EDGE('',*,*,#120,.T.);
#156=ORIENTED_EDGE('',*,*,#114,.F.);
#157=ORIENTED_EDGE('',*,*,#111,.F.);
#158=ORIENTED_EDGE('',*,*,#110,.T.);
#159=ORIENTED_EDGE('',*,*,#117,.T.);
#160=ORIENTED_EDGE('',*,*,#119,.T.);
#161=ORIENTED_EDGE('',*,*,#121,.T.);
#162=ORIENTED_EDGE('',*,*,#104,.T.);
#163=ORIENTED_EDGE('',*,*,#107,.T.);
#164=CYLINDRICAL_SURFACE('',#190,2.05);
#165=CYLINDRICAL_SURFACE('',#193,1.65);
#166=CYLINDRICAL_SURFACE('',#196,1.65);
#167=ADVANCED_FACE('',(#27),#164,.F.);
#168=ADVANCED_FACE('',(#28),#165,.F.);
#169=ADVANCED_FACE('',(#29),#166,.F.);
#170=ADVANCED_FACE('',(#30,#15),#21,.T.);
#171=ADVANCED_FACE('',(#31,#16,#17),#22,.T.);
#172=ADVANCED_FACE('',(#32),#23,.T.);
#173=ADVANCED_FACE('',(#33,#18),#24,.T.);
#174=ADVANCED_FACE('',(#34),#25,.T.);
#175=ADVANCED_FACE('',(#35,#19,#20),#26,.F.);
#176=CLOSED_SHELL('',(#167,#168,#169,#170,#171,#172,#173,#174,#175));
#177=DERIVED_UNIT_ELEMENT(#179,1.);
#178=DERIVED_UNIT_ELEMENT(#302,-3.);
#179=(
MASS_UNIT()
NAMED_UNIT(*)
SI_UNIT(.KILO.,.GRAM.)
);
#180=DERIVED_UNIT((#177,#178));
#181=MEASURE_REPRESENTATION_ITEM('density measure',
POSITIVE_RATIO_MEASURE(7850.),#180);
#182=PROPERTY_DEFINITION_REPRESENTATION(#187,#184);
#183=PROPERTY_DEFINITION_REPRESENTATION(#188,#185);
#184=REPRESENTATION('material name',(#186),#299);
#185=REPRESENTATION('density',(#181),#299);
#186=DESCRIPTIVE_REPRESENTATION_ITEM('Acier','Acier');
#187=PROPERTY_DEFINITION('material property','material name',#309);
#188=PROPERTY_DEFINITION('material property','density of part',#309);
#189=AXIS2_PLACEMENT_3D('placement',#252,#205,#206);
#190=AXIS2_PLACEMENT_3D('',#253,#207,#208);
#191=AXIS2_PLACEMENT_3D('',#255,#209,#210);
#192=AXIS2_PLACEMENT_3D('',#258,#212,#213);
#193=AXIS2_PLACEMENT_3D('',#259,#214,#215);
#194=AXIS2_PLACEMENT_3D('',#261,#216,#217);
#195=AXIS2_PLACEMENT_3D('',#264,#219,#220);
#196=AXIS2_PLACEMENT_3D('',#265,#221,#222);
#197=AXIS2_PLACEMENT_3D('',#267,#223,#224);
#198=AXIS2_PLACEMENT_3D('',#270,#226,#227);
#199=AXIS2_PLACEMENT_3D('',#271,#228,#229);
#200=AXIS2_PLACEMENT_3D('',#280,#234,#235);
#201=AXIS2_PLACEMENT_3D('',#286,#239,#240);
#202=AXIS2_PLACEMENT_3D('',#290,#243,#244);
#203=AXIS2_PLACEMENT_3D('',#294,#247,#248);
#204=AXIS2_PLACEMENT_3D('',#296,#250,#251);
#205=DIRECTION('axis',(0.,0.,1.));
#206=DIRECTION('refdir',(1.,0.,0.));
#207=DIRECTION('center_axis',(0.,-1.,0.));
#208=DIRECTION('ref_axis',(0.,0.,1.));
#209=DIRECTION('center_axis',(0.,-1.,0.));
#210=DIRECTION('ref_axis',(0.,0.,1.));
#211=DIRECTION('',(0.,-1.,0.));
#212=DIRECTION('center_axis',(0.,1.,0.));
#213=DIRECTION('ref_axis',(0.,0.,1.));
#214=DIRECTION('center_axis',(0.,0.,1.));
#215=DIRECTION('ref_axis',(-1.,0.,0.));
#216=DIRECTION('center_axis',(0.,0.,1.));
#217=DIRECTION('ref_axis',(-1.,0.,0.));
#218=DIRECTION('',(0.,0.,1.));
#219=DIRECTION('center_axis',(0.,0.,-1.));
#220=DIRECTION('ref_axis',(-1.,0.,0.));
#221=DIRECTION('center_axis',(0.,0.,1.));
#222=DIRECTION('ref_axis',(-1.,0.,0.));
#223=DIRECTION('center_axis',(0.,0.,1.));
#224=DIRECTION('ref_axis',(-1.,0.,0.));
#225=DIRECTION('',(0.,0.,1.));
#226=DIRECTION('center_axis',(0.,0.,-1.));
#227=DIRECTION('ref_axis',(-1.,0.,0.));
#228=DIRECTION('center_axis',(0.,-1.,0.));
#229=DIRECTION('ref_axis',(1.,0.,0.));
#230=DIRECTION('',(-1.,0.,0.));
#231=DIRECTION('',(0.,0.,1.));
#232=DIRECTION('',(1.,0.,0.));
#233=DIRECTION('',(0.,0.,1.));
#234=DIRECTION('center_axis',(0.,0.,1.));
#235=DIRECTION('ref_axis',(1.,0.,0.));
#236=DIRECTION('',(0.,1.,0.));
#237=DIRECTION('',(-1.,0.,0.));
#238=DIRECTION('',(0.,-1.,0.));
#239=DIRECTION('center_axis',(-1.,0.,0.));
#240=DIRECTION('ref_axis',(0.,-1.,0.));
#241=DIRECTION('',(0.,1.,0.));
#242=DIRECTION('',(0.,0.,1.));
#243=DIRECTION('center_axis',(0.,1.,0.));
#244=DIRECTION('ref_axis',(-1.,0.,0.));
#245=DIRECTION('',(1.,0.,0.));
#246=DIRECTION('',(0.,0.,1.));
#247=DIRECTION('center_axis',(1.,0.,0.));
#248=DIRECTION('ref_axis',(0.,1.,0.));
#249=DIRECTION('',(0.,-1.,0.));
#250=DIRECTION('center_axis',(0.,0.,1.));
#251=DIRECTION('ref_axis',(1.,0.,0.));
#252=CARTESIAN_POINT('',(0.,0.,0.));
#253=CARTESIAN_POINT('Origin',(-5.00000007450581,-5.,5.00000007450581));
#254=CARTESIAN_POINT('',(-5.00000007450581,-5.55111512312578E-16,2.95000007450581));
#255=CARTESIAN_POINT('Origin',(-5.00000007450581,0.,5.00000007450581));
#256=CARTESIAN_POINT('',(-5.00000007450581,-10.,2.95000007450581));
#257=CARTESIAN_POINT('',(-5.00000007450581,-5.,2.95000007450581));
#258=CARTESIAN_POINT('Origin',(-5.00000007450581,-10.,5.00000007450581));
#259=CARTESIAN_POINT('Origin',(-20.0000002980232,-5.00000007450581,5.));
#260=CARTESIAN_POINT('',(-18.3500002980232,-5.00000007450581,0.));
#261=CARTESIAN_POINT('Origin',(-20.0000002980232,-5.00000007450581,0.));
#262=CARTESIAN_POINT('',(-18.3500002980232,-5.00000007450581,10.));
#263=CARTESIAN_POINT('',(-18.3500002980232,-5.00000007450581,5.));
#264=CARTESIAN_POINT('Origin',(-20.0000002980232,-5.00000007450581,10.));
#265=CARTESIAN_POINT('Origin',(-10.0000001490116,-5.00000007450581,5.));
#266=CARTESIAN_POINT('',(-8.35000014901161,-5.00000007450581,0.));
#267=CARTESIAN_POINT('Origin',(-10.0000001490116,-5.00000007450581,0.));
#268=CARTESIAN_POINT('',(-8.35000014901161,-5.00000007450581,10.));
#269=CARTESIAN_POINT('',(-8.35000014901161,-5.00000007450581,5.));
#270=CARTESIAN_POINT('Origin',(-10.0000001490116,-5.00000007450581,10.));
#271=CARTESIAN_POINT('Origin',(-25.,-10.,0.));
#272=CARTESIAN_POINT('',(0.,-10.,0.));
#273=CARTESIAN_POINT('',(-25.,-10.,0.));
#274=CARTESIAN_POINT('',(0.,-10.,0.));
#275=CARTESIAN_POINT('',(0.,-10.,10.));
#276=CARTESIAN_POINT('',(0.,-10.,0.));
#277=CARTESIAN_POINT('',(-25.,-10.,10.));
#278=CARTESIAN_POINT('',(0.,-10.,10.));
#279=CARTESIAN_POINT('',(-25.,-10.,0.));
#280=CARTESIAN_POINT('Origin',(-12.5,-5.,10.));
#281=CARTESIAN_POINT('',(0.,0.,10.));
#282=CARTESIAN_POINT('',(0.,0.,10.));
#283=CARTESIAN_POINT('',(-25.,0.,10.));
#284=CARTESIAN_POINT('',(-25.,0.,10.));
#285=CARTESIAN_POINT('',(-25.,-10.,10.));
#286=CARTESIAN_POINT('Origin',(-25.,0.,0.));
#287=CARTESIAN_POINT('',(-25.,0.,0.));
#288=CARTESIAN_POINT('',(-25.,-10.,0.));
#289=CARTESIAN_POINT('',(-25.,0.,0.));
#290=CARTESIAN_POINT('Origin',(0.,0.,0.));
#291=CARTESIAN_POINT('',(0.,0.,0.));
#292=CARTESIAN_POINT('',(-25.,0.,0.));
#293=CARTESIAN_POINT('',(0.,0.,0.));
#294=CARTESIAN_POINT('Origin',(0.,-10.,0.));
#295=CARTESIAN_POINT('',(0.,0.,0.));
#296=CARTESIAN_POINT('Origin',(-12.5,-5.,0.));
#297=UNCERTAINTY_MEASURE_WITH_UNIT(LENGTH_MEASURE(0.01),#301,
'DISTANCE_ACCURACY_VALUE',
'Maximum model space distance between geometric entities at asserted c
onnectivities');
#298=UNCERTAINTY_MEASURE_WITH_UNIT(LENGTH_MEASURE(0.01),#301,
'DISTANCE_ACCURACY_VALUE',
'Maximum model space distance between geometric entities at asserted c
onnectivities');
#299=(
GEOMETRIC_REPRESENTATION_CONTEXT(3)
GLOBAL_UNCERTAINTY_ASSIGNED_CONTEXT((#297))
GLOBAL_UNIT_ASSIGNED_CONTEXT((#301,#303,#304))
REPRESENTATION_CONTEXT('','3D')
);
#300=(
GEOMETRIC_REPRESENTATION_CONTEXT(3)
GLOBAL_UNCERTAINTY_ASSIGNED_CONTEXT((#298))
GLOBAL_UNIT_ASSIGNED_CONTEXT((#301,#303,#304))
REPRESENTATION_CONTEXT('','3D')
);
#301=(
LENGTH_UNIT()
NAMED_UNIT(*)
SI_UNIT(.MILLI.,.METRE.)
);
#302=(
LENGTH_UNIT()
NAMED_UNIT(*)
SI_UNIT($,.METRE.)
);
#303=(
NAMED_UNIT(*)
PLANE_ANGLE_UNIT()
SI_UNIT($,.RADIAN.)
);
#304=(
NAMED_UNIT(*)
SI_UNIT($,.STERADIAN.)
SOLID_ANGLE_UNIT()
);
#305=SHAPE_DEFINITION_REPRESENTATION(#306,#307);
#306=PRODUCT_DEFINITION_SHAPE('',$,#309);
#307=SHAPE_REPRESENTATION('',(#189),#299);
#308=PRODUCT_DEFINITION_CONTEXT('part definition',#313,'design');
#309=PRODUCT_DEFINITION('N\X\B02 PATE FIX INTERMEDIAIRE v1',
'N\X\B02 PATE FIX INTERMEDIAIRE v1 v1',#310,#308);
#310=PRODUCT_DEFINITION_FORMATION('',$,#315);
#311=PRODUCT_RELATED_PRODUCT_CATEGORY(
'N\X\B02 PATE FIX INTERMEDIAIRE v1 v1',
'N\X\B02 PATE FIX INTERMEDIAIRE v1 v1',(#315));
#312=APPLICATION_PROTOCOL_DEFINITION('international standard',
'automotive_design',2009,#313);
#313=APPLICATION_CONTEXT(
'Core Data for Automotive Mechanical Design Process');
#314=PRODUCT_CONTEXT('part definition',#313,'mechanical');
#315=PRODUCT('N\X\B02 PATE FIX INTERMEDIAIRE v1',
'N\X\B02 PATE FIX INTERMEDIAIRE v1 v1',$,(#314));
#316=PRESENTATION_STYLE_ASSIGNMENT((#318));
#317=PRESENTATION_STYLE_ASSIGNMENT((#319));
#318=SURFACE_STYLE_USAGE(.BOTH.,#320);
#319=SURFACE_STYLE_USAGE(.BOTH.,#321);
#320=SURFACE_SIDE_STYLE('',(#322));
#321=SURFACE_SIDE_STYLE('',(#323));
#322=SURFACE_STYLE_FILL_AREA(#324);
#323=SURFACE_STYLE_FILL_AREA(#325);
#324=FILL_AREA_STYLE('Acier - Satin\X\E9',(#326));
#325=FILL_AREA_STYLE('Opaque(160,160,160)',(#327));
#326=FILL_AREA_STYLE_COLOUR('Acier - Satin\X\E9',#328);
#327=FILL_AREA_STYLE_COLOUR('Opaque(160,160,160)',#329);
#328=COLOUR_RGB('Acier - Satin\X\E9',0.627450980392157,0.627450980392157,
0.627450980392157);
#329=COLOUR_RGB('Opaque(160,160,160)',0.627450980392157,0.627450980392157,
0.627450980392157);
ENDSEC;
END-ISO-10303-21;
