ISO-10303-21;
HEADER;
/* Generated by software containing ST-Developer
 * from STEP Tools, Inc. (www.steptools.com) 
 */

FILE_DESCRIPTION(
/* description */ (''),
/* implementation_level */ '2;1');

FILE_NAME(
/* name */ 'C:/Users/Ordinateur/Desktop/Barre Galva v1.step',
/* time_stamp */ '2022-02-16T14:45:25+01:00',
/* author */ (''),
/* organization */ (''),
/* preprocessor_version */ 'ST-DEVELOPER v18.1',
/* originating_system */ 'Autodesk Translation Framework v10.10.0.1391',

/* authorisation */ '');

FILE_SCHEMA (('AUTOMOTIVE_DESIGN { 1 0 10303 214 3 1 1 }'));
ENDSEC;

DATA;
#10=MECHANICAL_DESIGN_GEOMETRIC_PRESENTATION_REPRESENTATION('',(#13),#591);
#11=SHAPE_REPRESENTATION_RELATIONSHIP('SRR','None',#598,#12);
#12=ADVANCED_BREP_SHAPE_REPRESENTATION('',(#14),#590);
#13=STYLED_ITEM('',(#607),#14);
#14=MANIFOLD_SOLID_BREP('Corps34',#328);
#15=FACE_BOUND('',#71,.T.);
#16=FACE_BOUND('',#76,.T.);
#17=PLANE('',#373);
#18=PLANE('',#376);
#19=PLANE('',#377);
#20=PLANE('',#378);
#21=PLANE('',#383);
#22=PLANE('',#384);
#23=TOROIDAL_SURFACE('',#350,7.,3.);
#24=TOROIDAL_SURFACE('',#356,7.,3.);
#25=TOROIDAL_SURFACE('',#362,7.,3.);
#26=TOROIDAL_SURFACE('',#368,7.,3.);
#27=CYLINDRICAL_SURFACE('',#345,5.);
#28=CYLINDRICAL_SURFACE('',#347,3.);
#29=CYLINDRICAL_SURFACE('',#354,3.);
#30=CYLINDRICAL_SURFACE('',#360,3.);
#31=CYLINDRICAL_SURFACE('',#366,3.);
#32=CYLINDRICAL_SURFACE('',#371,10.);
#33=CYLINDRICAL_SURFACE('',#374,10.);
#34=CYLINDRICAL_SURFACE('',#379,10.);
#35=CYLINDRICAL_SURFACE('',#381,10.);
#36=FACE_OUTER_BOUND('',#56,.T.);
#37=FACE_OUTER_BOUND('',#57,.T.);
#38=FACE_OUTER_BOUND('',#58,.T.);
#39=FACE_OUTER_BOUND('',#59,.T.);
#40=FACE_OUTER_BOUND('',#60,.T.);
#41=FACE_OUTER_BOUND('',#61,.T.);
#42=FACE_OUTER_BOUND('',#62,.T.);
#43=FACE_OUTER_BOUND('',#63,.T.);
#44=FACE_OUTER_BOUND('',#64,.T.);
#45=FACE_OUTER_BOUND('',#65,.T.);
#46=FACE_OUTER_BOUND('',#66,.T.);
#47=FACE_OUTER_BOUND('',#67,.T.);
#48=FACE_OUTER_BOUND('',#68,.T.);
#49=FACE_OUTER_BOUND('',#69,.T.);
#50=FACE_OUTER_BOUND('',#70,.T.);
#51=FACE_OUTER_BOUND('',#72,.T.);
#52=FACE_OUTER_BOUND('',#73,.T.);
#53=FACE_OUTER_BOUND('',#74,.T.);
#54=FACE_OUTER_BOUND('',#75,.T.);
#55=FACE_OUTER_BOUND('',#77,.T.);
#56=EDGE_LOOP('',(#217,#218,#219,#220));
#57=EDGE_LOOP('',(#221,#222,#223,#224));
#58=EDGE_LOOP('',(#225,#226,#227,#228));
#59=EDGE_LOOP('',(#229,#230,#231,#232));
#60=EDGE_LOOP('',(#233,#234,#235,#236));
#61=EDGE_LOOP('',(#237,#238,#239,#240));
#62=EDGE_LOOP('',(#241,#242,#243,#244));
#63=EDGE_LOOP('',(#245,#246,#247,#248));
#64=EDGE_LOOP('',(#249,#250,#251,#252));
#65=EDGE_LOOP('',(#253,#254,#255,#256));
#66=EDGE_LOOP('',(#257,#258,#259,#260));
#67=EDGE_LOOP('',(#261,#262,#263,#264));
#68=EDGE_LOOP('',(#265,#266,#267,#268));
#69=EDGE_LOOP('',(#269,#270,#271,#272));
#70=EDGE_LOOP('',(#273,#274,#275,#276,#277,#278,#279,#280));
#71=EDGE_LOOP('',(#281));
#72=EDGE_LOOP('',(#282,#283,#284,#285));
#73=EDGE_LOOP('',(#286,#287,#288,#289));
#74=EDGE_LOOP('',(#290,#291,#292,#293));
#75=EDGE_LOOP('',(#294,#295,#296,#297,#298,#299,#300,#301));
#76=EDGE_LOOP('',(#302));
#77=EDGE_LOOP('',(#303,#304,#305,#306));
#78=LINE('',#500,#100);
#79=LINE('',#504,#101);
#80=LINE('',#511,#102);
#81=LINE('',#514,#103);
#82=LINE('',#525,#104);
#83=LINE('',#526,#105);
#84=LINE('',#537,#106);
#85=LINE('',#538,#107);
#86=LINE('',#549,#108);
#87=LINE('',#550,#109);
#88=LINE('',#556,#110);
#89=LINE('',#559,#111);
#90=LINE('',#562,#112);
#91=LINE('',#563,#113);
#92=LINE('',#566,#114);
#93=LINE('',#570,#115);
#94=LINE('',#571,#116);
#95=LINE('',#575,#117);
#96=LINE('',#577,#118);
#97=LINE('',#578,#119);
#98=LINE('',#581,#120);
#99=LINE('',#586,#121);
#100=VECTOR('',#391,7.75);
#101=VECTOR('',#396,5.);
#102=VECTOR('',#403,10.);
#103=VECTOR('',#406,10.);
#104=VECTOR('',#419,10.);
#105=VECTOR('',#420,10.);
#106=VECTOR('',#433,10.);
#107=VECTOR('',#434,10.);
#108=VECTOR('',#447,10.);
#109=VECTOR('',#448,10.);
#110=VECTOR('',#457,10.);
#111=VECTOR('',#460,10.);
#112=VECTOR('',#463,10.);
#113=VECTOR('',#464,10.);
#114=VECTOR('',#467,10.);
#115=VECTOR('',#472,10.);
#116=VECTOR('',#473,10.);
#117=VECTOR('',#478,10.);
#118=VECTOR('',#479,10.);
#119=VECTOR('',#480,10.);
#120=VECTOR('',#483,10.);
#121=VECTOR('',#492,10.);
#122=CIRCLE('',#343,10.5);
#123=CIRCLE('',#344,5.);
#124=CIRCLE('',#346,5.);
#125=CIRCLE('',#348,3.);
#126=CIRCLE('',#349,3.00000000000001);
#127=CIRCLE('',#351,3.);
#128=CIRCLE('',#352,7.);
#129=CIRCLE('',#353,10.);
#130=CIRCLE('',#355,3.);
#131=CIRCLE('',#357,3.00000000000001);
#132=CIRCLE('',#358,7.);
#133=CIRCLE('',#359,10.);
#134=CIRCLE('',#361,3.00000000000001);
#135=CIRCLE('',#363,3.00000000000001);
#136=CIRCLE('',#364,7.);
#137=CIRCLE('',#365,10.);
#138=CIRCLE('',#367,3.);
#139=CIRCLE('',#369,7.);
#140=CIRCLE('',#370,10.);
#141=CIRCLE('',#372,10.);
#142=CIRCLE('',#375,10.);
#143=CIRCLE('',#380,10.);
#144=CIRCLE('',#382,10.);
#145=VERTEX_POINT('',#497);
#146=VERTEX_POINT('',#499);
#147=VERTEX_POINT('',#503);
#148=VERTEX_POINT('',#507);
#149=VERTEX_POINT('',#508);
#150=VERTEX_POINT('',#510);
#151=VERTEX_POINT('',#512);
#152=VERTEX_POINT('',#516);
#153=VERTEX_POINT('',#517);
#154=VERTEX_POINT('',#522);
#155=VERTEX_POINT('',#523);
#156=VERTEX_POINT('',#528);
#157=VERTEX_POINT('',#529);
#158=VERTEX_POINT('',#534);
#159=VERTEX_POINT('',#535);
#160=VERTEX_POINT('',#540);
#161=VERTEX_POINT('',#541);
#162=VERTEX_POINT('',#546);
#163=VERTEX_POINT('',#547);
#164=VERTEX_POINT('',#555);
#165=VERTEX_POINT('',#557);
#166=VERTEX_POINT('',#561);
#167=VERTEX_POINT('',#565);
#168=VERTEX_POINT('',#569);
#169=VERTEX_POINT('',#574);
#170=VERTEX_POINT('',#576);
#171=VERTEX_POINT('',#580);
#172=EDGE_CURVE('',#145,#145,#122,.T.);
#173=EDGE_CURVE('',#145,#146,#78,.T.);
#174=EDGE_CURVE('',#146,#146,#123,.T.);
#175=EDGE_CURVE('',#146,#147,#79,.T.);
#176=EDGE_CURVE('',#147,#147,#124,.T.);
#177=EDGE_CURVE('',#148,#149,#125,.T.);
#178=EDGE_CURVE('',#149,#150,#80,.T.);
#179=EDGE_CURVE('',#150,#151,#126,.T.);
#180=EDGE_CURVE('',#151,#148,#81,.T.);
#181=EDGE_CURVE('',#152,#153,#127,.T.);
#182=EDGE_CURVE('',#153,#151,#128,.T.);
#183=EDGE_CURVE('',#150,#152,#129,.T.);
#184=EDGE_CURVE('',#154,#155,#130,.T.);
#185=EDGE_CURVE('',#155,#153,#82,.T.);
#186=EDGE_CURVE('',#152,#154,#83,.T.);
#187=EDGE_CURVE('',#156,#157,#131,.T.);
#188=EDGE_CURVE('',#157,#155,#132,.T.);
#189=EDGE_CURVE('',#154,#156,#133,.T.);
#190=EDGE_CURVE('',#158,#159,#134,.T.);
#191=EDGE_CURVE('',#159,#157,#84,.T.);
#192=EDGE_CURVE('',#156,#158,#85,.T.);
#193=EDGE_CURVE('',#160,#161,#135,.T.);
#194=EDGE_CURVE('',#161,#159,#136,.T.);
#195=EDGE_CURVE('',#158,#160,#137,.T.);
#196=EDGE_CURVE('',#162,#163,#138,.T.);
#197=EDGE_CURVE('',#163,#161,#86,.T.);
#198=EDGE_CURVE('',#160,#162,#87,.T.);
#199=EDGE_CURVE('',#148,#163,#139,.T.);
#200=EDGE_CURVE('',#162,#149,#140,.T.);
#201=EDGE_CURVE('',#164,#154,#88,.T.);
#202=EDGE_CURVE('',#165,#164,#141,.T.);
#203=EDGE_CURVE('',#165,#156,#89,.T.);
#204=EDGE_CURVE('',#166,#152,#90,.T.);
#205=EDGE_CURVE('',#164,#166,#91,.T.);
#206=EDGE_CURVE('',#150,#167,#92,.T.);
#207=EDGE_CURVE('',#166,#167,#142,.T.);
#208=EDGE_CURVE('',#149,#168,#93,.T.);
#209=EDGE_CURVE('',#167,#168,#94,.T.);
#210=EDGE_CURVE('',#160,#169,#95,.T.);
#211=EDGE_CURVE('',#170,#169,#96,.T.);
#212=EDGE_CURVE('',#162,#170,#97,.T.);
#213=EDGE_CURVE('',#171,#158,#98,.T.);
#214=EDGE_CURVE('',#169,#171,#143,.T.);
#215=EDGE_CURVE('',#168,#170,#144,.T.);
#216=EDGE_CURVE('',#171,#165,#99,.T.);
#217=ORIENTED_EDGE('',*,*,#172,.F.);
#218=ORIENTED_EDGE('',*,*,#173,.T.);
#219=ORIENTED_EDGE('',*,*,#174,.T.);
#220=ORIENTED_EDGE('',*,*,#173,.F.);
#221=ORIENTED_EDGE('',*,*,#174,.F.);
#222=ORIENTED_EDGE('',*,*,#175,.T.);
#223=ORIENTED_EDGE('',*,*,#176,.F.);
#224=ORIENTED_EDGE('',*,*,#175,.F.);
#225=ORIENTED_EDGE('',*,*,#177,.T.);
#226=ORIENTED_EDGE('',*,*,#178,.T.);
#227=ORIENTED_EDGE('',*,*,#179,.T.);
#228=ORIENTED_EDGE('',*,*,#180,.T.);
#229=ORIENTED_EDGE('',*,*,#181,.T.);
#230=ORIENTED_EDGE('',*,*,#182,.T.);
#231=ORIENTED_EDGE('',*,*,#179,.F.);
#232=ORIENTED_EDGE('',*,*,#183,.T.);
#233=ORIENTED_EDGE('',*,*,#184,.T.);
#234=ORIENTED_EDGE('',*,*,#185,.T.);
#235=ORIENTED_EDGE('',*,*,#181,.F.);
#236=ORIENTED_EDGE('',*,*,#186,.T.);
#237=ORIENTED_EDGE('',*,*,#187,.T.);
#238=ORIENTED_EDGE('',*,*,#188,.T.);
#239=ORIENTED_EDGE('',*,*,#184,.F.);
#240=ORIENTED_EDGE('',*,*,#189,.T.);
#241=ORIENTED_EDGE('',*,*,#190,.T.);
#242=ORIENTED_EDGE('',*,*,#191,.T.);
#243=ORIENTED_EDGE('',*,*,#187,.F.);
#244=ORIENTED_EDGE('',*,*,#192,.T.);
#245=ORIENTED_EDGE('',*,*,#193,.T.);
#246=ORIENTED_EDGE('',*,*,#194,.T.);
#247=ORIENTED_EDGE('',*,*,#190,.F.);
#248=ORIENTED_EDGE('',*,*,#195,.T.);
#249=ORIENTED_EDGE('',*,*,#196,.T.);
#250=ORIENTED_EDGE('',*,*,#197,.T.);
#251=ORIENTED_EDGE('',*,*,#193,.F.);
#252=ORIENTED_EDGE('',*,*,#198,.T.);
#253=ORIENTED_EDGE('',*,*,#177,.F.);
#254=ORIENTED_EDGE('',*,*,#199,.T.);
#255=ORIENTED_EDGE('',*,*,#196,.F.);
#256=ORIENTED_EDGE('',*,*,#200,.T.);
#257=ORIENTED_EDGE('',*,*,#189,.F.);
#258=ORIENTED_EDGE('',*,*,#201,.F.);
#259=ORIENTED_EDGE('',*,*,#202,.F.);
#260=ORIENTED_EDGE('',*,*,#203,.T.);
#261=ORIENTED_EDGE('',*,*,#186,.F.);
#262=ORIENTED_EDGE('',*,*,#204,.F.);
#263=ORIENTED_EDGE('',*,*,#205,.F.);
#264=ORIENTED_EDGE('',*,*,#201,.T.);
#265=ORIENTED_EDGE('',*,*,#183,.F.);
#266=ORIENTED_EDGE('',*,*,#206,.T.);
#267=ORIENTED_EDGE('',*,*,#207,.F.);
#268=ORIENTED_EDGE('',*,*,#204,.T.);
#269=ORIENTED_EDGE('',*,*,#178,.F.);
#270=ORIENTED_EDGE('',*,*,#208,.T.);
#271=ORIENTED_EDGE('',*,*,#209,.F.);
#272=ORIENTED_EDGE('',*,*,#206,.F.);
#273=ORIENTED_EDGE('',*,*,#180,.F.);
#274=ORIENTED_EDGE('',*,*,#182,.F.);
#275=ORIENTED_EDGE('',*,*,#185,.F.);
#276=ORIENTED_EDGE('',*,*,#188,.F.);
#277=ORIENTED_EDGE('',*,*,#191,.F.);
#278=ORIENTED_EDGE('',*,*,#194,.F.);
#279=ORIENTED_EDGE('',*,*,#197,.F.);
#280=ORIENTED_EDGE('',*,*,#199,.F.);
#281=ORIENTED_EDGE('',*,*,#176,.T.);
#282=ORIENTED_EDGE('',*,*,#198,.F.);
#283=ORIENTED_EDGE('',*,*,#210,.T.);
#284=ORIENTED_EDGE('',*,*,#211,.F.);
#285=ORIENTED_EDGE('',*,*,#212,.F.);
#286=ORIENTED_EDGE('',*,*,#195,.F.);
#287=ORIENTED_EDGE('',*,*,#213,.F.);
#288=ORIENTED_EDGE('',*,*,#214,.F.);
#289=ORIENTED_EDGE('',*,*,#210,.F.);
#290=ORIENTED_EDGE('',*,*,#200,.F.);
#291=ORIENTED_EDGE('',*,*,#212,.T.);
#292=ORIENTED_EDGE('',*,*,#215,.F.);
#293=ORIENTED_EDGE('',*,*,#208,.F.);
#294=ORIENTED_EDGE('',*,*,#205,.T.);
#295=ORIENTED_EDGE('',*,*,#207,.T.);
#296=ORIENTED_EDGE('',*,*,#209,.T.);
#297=ORIENTED_EDGE('',*,*,#215,.T.);
#298=ORIENTED_EDGE('',*,*,#211,.T.);
#299=ORIENTED_EDGE('',*,*,#214,.T.);
#300=ORIENTED_EDGE('',*,*,#216,.T.);
#301=ORIENTED_EDGE('',*,*,#202,.T.);
#302=ORIENTED_EDGE('',*,*,#172,.T.);
#303=ORIENTED_EDGE('',*,*,#192,.F.);
#304=ORIENTED_EDGE('',*,*,#203,.F.);
#305=ORIENTED_EDGE('',*,*,#216,.F.);
#306=ORIENTED_EDGE('',*,*,#213,.T.);
#307=CONICAL_SURFACE('',#342,7.75,0.785398163397448);
#308=ADVANCED_FACE('',(#36),#307,.F.);
#309=ADVANCED_FACE('',(#37),#27,.F.);
#310=ADVANCED_FACE('',(#38),#28,.T.);
#311=ADVANCED_FACE('',(#39),#23,.T.);
#312=ADVANCED_FACE('',(#40),#29,.T.);
#313=ADVANCED_FACE('',(#41),#24,.T.);
#314=ADVANCED_FACE('',(#42),#30,.T.);
#315=ADVANCED_FACE('',(#43),#25,.T.);
#316=ADVANCED_FACE('',(#44),#31,.T.);
#317=ADVANCED_FACE('',(#45),#26,.T.);
#318=ADVANCED_FACE('',(#46),#32,.T.);
#319=ADVANCED_FACE('',(#47),#17,.T.);
#320=ADVANCED_FACE('',(#48),#33,.T.);
#321=ADVANCED_FACE('',(#49),#18,.T.);
#322=ADVANCED_FACE('',(#50,#15),#19,.F.);
#323=ADVANCED_FACE('',(#51),#20,.T.);
#324=ADVANCED_FACE('',(#52),#34,.T.);
#325=ADVANCED_FACE('',(#53),#35,.T.);
#326=ADVANCED_FACE('',(#54,#16),#21,.T.);
#327=ADVANCED_FACE('',(#55),#22,.T.);
#328=CLOSED_SHELL('',(#308,#309,#310,#311,#312,#313,#314,#315,#316,#317,
#318,#319,#320,#321,#322,#323,#324,#325,#326,#327));
#329=DERIVED_UNIT_ELEMENT(#331,1.);
#330=DERIVED_UNIT_ELEMENT(#593,-3.);
#331=(
MASS_UNIT()
NAMED_UNIT(*)
SI_UNIT(.KILO.,.GRAM.)
);
#332=DERIVED_UNIT((#329,#330));
#333=MEASURE_REPRESENTATION_ITEM('density measure',
POSITIVE_RATIO_MEASURE(7850.),#332);
#334=PROPERTY_DEFINITION_REPRESENTATION(#339,#336);
#335=PROPERTY_DEFINITION_REPRESENTATION(#340,#337);
#336=REPRESENTATION('material name',(#338),#590);
#337=REPRESENTATION('density',(#333),#590);
#338=DESCRIPTIVE_REPRESENTATION_ITEM('Acier','Acier');
#339=PROPERTY_DEFINITION('material property','material name',#600);
#340=PROPERTY_DEFINITION('material property','density of part',#600);
#341=AXIS2_PLACEMENT_3D('placement',#495,#385,#386);
#342=AXIS2_PLACEMENT_3D('',#496,#387,#388);
#343=AXIS2_PLACEMENT_3D('',#498,#389,#390);
#344=AXIS2_PLACEMENT_3D('',#501,#392,#393);
#345=AXIS2_PLACEMENT_3D('',#502,#394,#395);
#346=AXIS2_PLACEMENT_3D('',#505,#397,#398);
#347=AXIS2_PLACEMENT_3D('',#506,#399,#400);
#348=AXIS2_PLACEMENT_3D('',#509,#401,#402);
#349=AXIS2_PLACEMENT_3D('',#513,#404,#405);
#350=AXIS2_PLACEMENT_3D('',#515,#407,#408);
#351=AXIS2_PLACEMENT_3D('',#518,#409,#410);
#352=AXIS2_PLACEMENT_3D('',#519,#411,#412);
#353=AXIS2_PLACEMENT_3D('',#520,#413,#414);
#354=AXIS2_PLACEMENT_3D('',#521,#415,#416);
#355=AXIS2_PLACEMENT_3D('',#524,#417,#418);
#356=AXIS2_PLACEMENT_3D('',#527,#421,#422);
#357=AXIS2_PLACEMENT_3D('',#530,#423,#424);
#358=AXIS2_PLACEMENT_3D('',#531,#425,#426);
#359=AXIS2_PLACEMENT_3D('',#532,#427,#428);
#360=AXIS2_PLACEMENT_3D('',#533,#429,#430);
#361=AXIS2_PLACEMENT_3D('',#536,#431,#432);
#362=AXIS2_PLACEMENT_3D('',#539,#435,#436);
#363=AXIS2_PLACEMENT_3D('',#542,#437,#438);
#364=AXIS2_PLACEMENT_3D('',#543,#439,#440);
#365=AXIS2_PLACEMENT_3D('',#544,#441,#442);
#366=AXIS2_PLACEMENT_3D('',#545,#443,#444);
#367=AXIS2_PLACEMENT_3D('',#548,#445,#446);
#368=AXIS2_PLACEMENT_3D('',#551,#449,#450);
#369=AXIS2_PLACEMENT_3D('',#552,#451,#452);
#370=AXIS2_PLACEMENT_3D('',#553,#453,#454);
#371=AXIS2_PLACEMENT_3D('',#554,#455,#456);
#372=AXIS2_PLACEMENT_3D('',#558,#458,#459);
#373=AXIS2_PLACEMENT_3D('',#560,#461,#462);
#374=AXIS2_PLACEMENT_3D('',#564,#465,#466);
#375=AXIS2_PLACEMENT_3D('',#567,#468,#469);
#376=AXIS2_PLACEMENT_3D('',#568,#470,#471);
#377=AXIS2_PLACEMENT_3D('',#572,#474,#475);
#378=AXIS2_PLACEMENT_3D('',#573,#476,#477);
#379=AXIS2_PLACEMENT_3D('',#579,#481,#482);
#380=AXIS2_PLACEMENT_3D('',#582,#484,#485);
#381=AXIS2_PLACEMENT_3D('',#583,#486,#487);
#382=AXIS2_PLACEMENT_3D('',#584,#488,#489);
#383=AXIS2_PLACEMENT_3D('',#585,#490,#491);
#384=AXIS2_PLACEMENT_3D('',#587,#493,#494);
#385=DIRECTION('axis',(0.,0.,1.));
#386=DIRECTION('refdir',(1.,0.,0.));
#387=DIRECTION('center_axis',(0.,0.,-1.));
#388=DIRECTION('ref_axis',(-1.,0.,0.));
#389=DIRECTION('center_axis',(0.,0.,1.));
#390=DIRECTION('ref_axis',(-1.,0.,0.));
#391=DIRECTION('',(-0.707106781186547,-8.65956056235493E-17,0.707106781186548));
#392=DIRECTION('center_axis',(0.,0.,1.));
#393=DIRECTION('ref_axis',(-1.,0.,0.));
#394=DIRECTION('center_axis',(0.,0.,1.));
#395=DIRECTION('ref_axis',(-1.,0.,0.));
#396=DIRECTION('',(0.,0.,1.));
#397=DIRECTION('center_axis',(0.,0.,-1.));
#398=DIRECTION('ref_axis',(-1.,0.,0.));
#399=DIRECTION('center_axis',(-1.,0.,0.));
#400=DIRECTION('ref_axis',(0.,0.707106781186543,0.707106781186552));
#401=DIRECTION('center_axis',(-1.,0.,0.));
#402=DIRECTION('ref_axis',(0.,0.,1.));
#403=DIRECTION('',(-1.,0.,0.));
#404=DIRECTION('center_axis',(1.,0.,0.));
#405=DIRECTION('ref_axis',(0.,1.,0.));
#406=DIRECTION('',(1.,0.,0.));
#407=DIRECTION('center_axis',(0.,0.,1.));
#408=DIRECTION('ref_axis',(1.,0.,0.));
#409=DIRECTION('center_axis',(0.,1.,0.));
#410=DIRECTION('ref_axis',(-1.,0.,0.));
#411=DIRECTION('center_axis',(0.,0.,-1.));
#412=DIRECTION('ref_axis',(-0.707106781186548,0.707106781186547,0.));
#413=DIRECTION('center_axis',(0.,0.,1.));
#414=DIRECTION('ref_axis',(-0.707106781186548,0.707106781186547,0.));
#415=DIRECTION('center_axis',(2.11471052309554E-17,-1.,0.));
#416=DIRECTION('ref_axis',(-0.707106781186547,0.,0.707106781186548));
#417=DIRECTION('center_axis',(0.,1.,0.));
#418=DIRECTION('ref_axis',(-1.,0.,0.));
#419=DIRECTION('',(-2.11471052309554E-17,1.,0.));
#420=DIRECTION('',(2.11471052309554E-17,-1.,0.));
#421=DIRECTION('center_axis',(0.,0.,1.));
#422=DIRECTION('ref_axis',(1.,0.,0.));
#423=DIRECTION('center_axis',(-1.,-7.40148683083436E-16,0.));
#424=DIRECTION('ref_axis',(7.40148683083436E-16,-1.,0.));
#425=DIRECTION('center_axis',(0.,0.,-1.));
#426=DIRECTION('ref_axis',(-0.707106781186547,-0.707106781186548,0.));
#427=DIRECTION('center_axis',(0.,0.,1.));
#428=DIRECTION('ref_axis',(-0.707106781186547,-0.707106781186548,0.));
#429=DIRECTION('center_axis',(1.,0.,0.));
#430=DIRECTION('ref_axis',(0.,-0.707106781186548,0.707106781186548));
#431=DIRECTION('center_axis',(-1.,0.,0.));
#432=DIRECTION('ref_axis',(0.,-1.,0.));
#433=DIRECTION('',(-1.,0.,0.));
#434=DIRECTION('',(1.,0.,0.));
#435=DIRECTION('center_axis',(0.,0.,1.));
#436=DIRECTION('ref_axis',(1.,0.,0.));
#437=DIRECTION('center_axis',(0.,-1.,0.));
#438=DIRECTION('ref_axis',(1.,0.,0.));
#439=DIRECTION('center_axis',(0.,0.,-1.));
#440=DIRECTION('ref_axis',(0.707106781186547,-0.707106781186547,0.));
#441=DIRECTION('center_axis',(0.,0.,1.));
#442=DIRECTION('ref_axis',(0.707106781186547,-0.707106781186547,0.));
#443=DIRECTION('center_axis',(0.,1.,0.));
#444=DIRECTION('ref_axis',(0.707106781186545,0.,0.70710678118655));
#445=DIRECTION('center_axis',(0.,-1.,0.));
#446=DIRECTION('ref_axis',(1.,0.,0.));
#447=DIRECTION('',(0.,-1.,0.));
#448=DIRECTION('',(0.,1.,0.));
#449=DIRECTION('center_axis',(0.,0.,1.));
#450=DIRECTION('ref_axis',(1.,0.,0.));
#451=DIRECTION('center_axis',(0.,0.,-1.));
#452=DIRECTION('ref_axis',(0.707106781186548,0.707106781186547,0.));
#453=DIRECTION('center_axis',(0.,0.,1.));
#454=DIRECTION('ref_axis',(0.707106781186548,0.707106781186547,0.));
#455=DIRECTION('center_axis',(0.,0.,-1.));
#456=DIRECTION('ref_axis',(-0.707106781186547,-0.707106781186547,0.));
#457=DIRECTION('',(0.,0.,1.));
#458=DIRECTION('center_axis',(0.,0.,-1.));
#459=DIRECTION('ref_axis',(-0.707106781186547,-0.707106781186547,0.));
#460=DIRECTION('',(0.,0.,1.));
#461=DIRECTION('center_axis',(-1.,-2.11471052309554E-17,0.));
#462=DIRECTION('ref_axis',(-2.11471052309554E-17,1.,0.));
#463=DIRECTION('',(0.,0.,1.));
#464=DIRECTION('',(-2.11471052309554E-17,1.,0.));
#465=DIRECTION('center_axis',(0.,0.,-1.));
#466=DIRECTION('ref_axis',(-0.707106781186547,0.707106781186547,0.));
#467=DIRECTION('',(0.,0.,-1.));
#468=DIRECTION('center_axis',(0.,0.,-1.));
#469=DIRECTION('ref_axis',(-0.707106781186547,0.707106781186547,0.));
#470=DIRECTION('center_axis',(0.,1.,0.));
#471=DIRECTION('ref_axis',(1.,0.,0.));
#472=DIRECTION('',(0.,0.,-1.));
#473=DIRECTION('',(1.,0.,0.));
#474=DIRECTION('center_axis',(0.,0.,-1.));
#475=DIRECTION('ref_axis',(1.,0.,0.));
#476=DIRECTION('center_axis',(1.,0.,0.));
#477=DIRECTION('ref_axis',(0.,-1.,0.));
#478=DIRECTION('',(0.,0.,-1.));
#479=DIRECTION('',(0.,-1.,0.));
#480=DIRECTION('',(0.,0.,-1.));
#481=DIRECTION('center_axis',(0.,0.,-1.));
#482=DIRECTION('ref_axis',(0.707106781186547,-0.707106781186547,0.));
#483=DIRECTION('',(0.,0.,1.));
#484=DIRECTION('center_axis',(0.,0.,-1.));
#485=DIRECTION('ref_axis',(0.707106781186547,-0.707106781186547,0.));
#486=DIRECTION('center_axis',(0.,0.,-1.));
#487=DIRECTION('ref_axis',(0.707106781186547,0.707106781186547,0.));
#488=DIRECTION('center_axis',(0.,0.,-1.));
#489=DIRECTION('ref_axis',(0.707106781186547,0.707106781186547,0.));
#490=DIRECTION('center_axis',(0.,0.,-1.));
#491=DIRECTION('ref_axis',(1.,0.,0.));
#492=DIRECTION('',(-1.,0.,0.));
#493=DIRECTION('center_axis',(0.,-1.,0.));
#494=DIRECTION('ref_axis',(-1.,0.,0.));
#495=CARTESIAN_POINT('',(0.,0.,0.));
#496=CARTESIAN_POINT('Origin',(30.,50.5,-34.25));
#497=CARTESIAN_POINT('',(40.5,50.5,-37.));
#498=CARTESIAN_POINT('Origin',(30.,50.5,-37.));
#499=CARTESIAN_POINT('',(35.,50.5,-31.5));
#500=CARTESIAN_POINT('',(37.75,50.5,-34.25));
#501=CARTESIAN_POINT('Origin',(30.,50.5,-31.5));
#502=CARTESIAN_POINT('Origin',(30.,50.5,-27.));
#503=CARTESIAN_POINT('',(35.,50.5,-29.));
#504=CARTESIAN_POINT('',(35.,50.5,-27.));
#505=CARTESIAN_POINT('Origin',(30.,50.5,-29.));
#506=CARTESIAN_POINT('Origin',(17.5,257.5,-32.));
#507=CARTESIAN_POINT('',(45.,257.5,-29.));
#508=CARTESIAN_POINT('',(45.,260.5,-32.));
#509=CARTESIAN_POINT('Origin',(45.,257.5,-32.));
#510=CARTESIAN_POINT('',(15.,260.5,-32.));
#511=CARTESIAN_POINT('',(17.5,260.5,-32.));
#512=CARTESIAN_POINT('',(15.,257.5,-29.));
#513=CARTESIAN_POINT('Origin',(15.,257.5,-32.));
#514=CARTESIAN_POINT('',(17.5,257.5,-29.));
#515=CARTESIAN_POINT('Origin',(15.,250.5,-32.));
#516=CARTESIAN_POINT('',(5.,250.5,-32.));
#517=CARTESIAN_POINT('',(8.,250.5,-29.));
#518=CARTESIAN_POINT('Origin',(8.,250.5,-32.));
#519=CARTESIAN_POINT('Origin',(15.,250.5,-29.));
#520=CARTESIAN_POINT('Origin',(15.,250.5,-32.));
#521=CARTESIAN_POINT('Origin',(8.,-54.5,-32.));
#522=CARTESIAN_POINT('',(5.,-149.5,-32.));
#523=CARTESIAN_POINT('',(8.00000000000001,-149.5,-29.));
#524=CARTESIAN_POINT('Origin',(8.00000000000001,-149.5,-32.));
#525=CARTESIAN_POINT('',(8.,-54.5,-29.));
#526=CARTESIAN_POINT('',(5.,-54.5,-32.));
#527=CARTESIAN_POINT('Origin',(15.,-149.5,-32.));
#528=CARTESIAN_POINT('',(15.,-159.5,-32.));
#529=CARTESIAN_POINT('',(15.,-156.5,-29.));
#530=CARTESIAN_POINT('Origin',(15.,-156.5,-32.));
#531=CARTESIAN_POINT('Origin',(15.,-149.5,-29.));
#532=CARTESIAN_POINT('Origin',(15.,-149.5,-32.));
#533=CARTESIAN_POINT('Origin',(42.5,-156.5,-32.));
#534=CARTESIAN_POINT('',(45.,-159.5,-32.));
#535=CARTESIAN_POINT('',(45.,-156.5,-29.));
#536=CARTESIAN_POINT('Origin',(45.,-156.5,-32.));
#537=CARTESIAN_POINT('',(42.5,-156.5,-29.));
#538=CARTESIAN_POINT('',(42.5,-159.5,-32.));
#539=CARTESIAN_POINT('Origin',(45.,-149.5,-32.));
#540=CARTESIAN_POINT('',(55.,-149.5,-32.));
#541=CARTESIAN_POINT('',(52.,-149.5,-29.));
#542=CARTESIAN_POINT('Origin',(52.,-149.5,-32.));
#543=CARTESIAN_POINT('Origin',(45.,-149.5,-29.));
#544=CARTESIAN_POINT('Origin',(45.,-149.5,-32.));
#545=CARTESIAN_POINT('Origin',(52.,155.5,-32.));
#546=CARTESIAN_POINT('',(55.,250.5,-32.));
#547=CARTESIAN_POINT('',(52.,250.5,-29.));
#548=CARTESIAN_POINT('Origin',(52.,250.5,-32.));
#549=CARTESIAN_POINT('',(52.,155.5,-29.));
#550=CARTESIAN_POINT('',(55.,155.5,-32.));
#551=CARTESIAN_POINT('Origin',(45.,250.5,-32.));
#552=CARTESIAN_POINT('Origin',(45.,250.5,-29.));
#553=CARTESIAN_POINT('Origin',(45.,250.5,-32.));
#554=CARTESIAN_POINT('Origin',(15.,-149.5,-32.));
#555=CARTESIAN_POINT('',(5.,-149.5,-37.));
#556=CARTESIAN_POINT('',(5.,-149.5,-30.));
#557=CARTESIAN_POINT('',(15.,-159.5,-37.));
#558=CARTESIAN_POINT('Origin',(15.,-149.5,-37.));
#559=CARTESIAN_POINT('',(15.,-159.5,-30.));
#560=CARTESIAN_POINT('Origin',(5.,-159.5,-32.));
#561=CARTESIAN_POINT('',(5.,250.5,-37.));
#562=CARTESIAN_POINT('',(5.,250.5,-30.));
#563=CARTESIAN_POINT('',(5.,-54.5,-37.));
#564=CARTESIAN_POINT('Origin',(15.,250.5,-32.));
#565=CARTESIAN_POINT('',(15.,260.5,-37.));
#566=CARTESIAN_POINT('',(15.,260.5,-36.));
#567=CARTESIAN_POINT('Origin',(15.,250.5,-37.));
#568=CARTESIAN_POINT('Origin',(5.,260.5,-32.));
#569=CARTESIAN_POINT('',(45.,260.5,-37.));
#570=CARTESIAN_POINT('',(45.,260.5,-36.));
#571=CARTESIAN_POINT('',(17.5,260.5,-37.));
#572=CARTESIAN_POINT('Origin',(30.,50.5,-29.));
#573=CARTESIAN_POINT('Origin',(55.,260.5,-32.));
#574=CARTESIAN_POINT('',(55.,-149.5,-37.));
#575=CARTESIAN_POINT('',(55.,-149.5,-36.));
#576=CARTESIAN_POINT('',(55.,250.5,-37.));
#577=CARTESIAN_POINT('',(55.,155.5,-37.));
#578=CARTESIAN_POINT('',(55.,250.5,-36.));
#579=CARTESIAN_POINT('Origin',(45.,-149.5,-32.));
#580=CARTESIAN_POINT('',(45.,-159.5,-37.));
#581=CARTESIAN_POINT('',(45.,-159.5,-30.));
#582=CARTESIAN_POINT('Origin',(45.,-149.5,-37.));
#583=CARTESIAN_POINT('Origin',(45.,250.5,-32.));
#584=CARTESIAN_POINT('Origin',(45.,250.5,-37.));
#585=CARTESIAN_POINT('Origin',(30.,50.5,-37.));
#586=CARTESIAN_POINT('',(42.5,-159.5,-37.));
#587=CARTESIAN_POINT('Origin',(55.,-159.5,-32.));
#588=UNCERTAINTY_MEASURE_WITH_UNIT(LENGTH_MEASURE(0.01),#592,
'DISTANCE_ACCURACY_VALUE',
'Maximum model space distance between geometric entities at asserted c
onnectivities');
#589=UNCERTAINTY_MEASURE_WITH_UNIT(LENGTH_MEASURE(0.01),#592,
'DISTANCE_ACCURACY_VALUE',
'Maximum model space distance between geometric entities at asserted c
onnectivities');
#590=(
GEOMETRIC_REPRESENTATION_CONTEXT(3)
GLOBAL_UNCERTAINTY_ASSIGNED_CONTEXT((#588))
GLOBAL_UNIT_ASSIGNED_CONTEXT((#592,#594,#595))
REPRESENTATION_CONTEXT('','3D')
);
#591=(
GEOMETRIC_REPRESENTATION_CONTEXT(3)
GLOBAL_UNCERTAINTY_ASSIGNED_CONTEXT((#589))
GLOBAL_UNIT_ASSIGNED_CONTEXT((#592,#594,#595))
REPRESENTATION_CONTEXT('','3D')
);
#592=(
LENGTH_UNIT()
NAMED_UNIT(*)
SI_UNIT(.MILLI.,.METRE.)
);
#593=(
LENGTH_UNIT()
NAMED_UNIT(*)
SI_UNIT($,.METRE.)
);
#594=(
NAMED_UNIT(*)
PLANE_ANGLE_UNIT()
SI_UNIT($,.RADIAN.)
);
#595=(
NAMED_UNIT(*)
SI_UNIT($,.STERADIAN.)
SOLID_ANGLE_UNIT()
);
#596=SHAPE_DEFINITION_REPRESENTATION(#597,#598);
#597=PRODUCT_DEFINITION_SHAPE('',$,#600);
#598=SHAPE_REPRESENTATION('',(#341),#590);
#599=PRODUCT_DEFINITION_CONTEXT('part definition',#604,'design');
#600=PRODUCT_DEFINITION('Barre Galva','Barre Galva v2',#601,#599);
#601=PRODUCT_DEFINITION_FORMATION('',$,#606);
#602=PRODUCT_RELATED_PRODUCT_CATEGORY('Barre Galva v2','Barre Galva v2',
(#606));
#603=APPLICATION_PROTOCOL_DEFINITION('international standard',
'automotive_design',2009,#604);
#604=APPLICATION_CONTEXT(
'Core Data for Automotive Mechanical Design Process');
#605=PRODUCT_CONTEXT('part definition',#604,'mechanical');
#606=PRODUCT('Barre Galva','Barre Galva v2',$,(#605));
#607=PRESENTATION_STYLE_ASSIGNMENT((#608));
#608=SURFACE_STYLE_USAGE(.BOTH.,#609);
#609=SURFACE_SIDE_STYLE('',(#610));
#610=SURFACE_STYLE_FILL_AREA(#611);
#611=FILL_AREA_STYLE('Acier - Satin\X\E9',(#612));
#612=FILL_AREA_STYLE_COLOUR('Acier - Satin\X\E9',#613);
#613=COLOUR_RGB('Acier - Satin\X\E9',0.627450980392157,0.627450980392157,
0.627450980392157);
ENDSEC;
END-ISO-10303-21;
