ISO-10303-21;
HEADER;
FILE_DESCRIPTION(('CATIA V5 STEP Exchange'),'2;1');

FILE_NAME('C:\\Users\\william.quidel\\Desktop\\PERSONNEL\\perso willy\\Projet TANDEM\\Plans\\Moteu.stp','2022-03-09T11:27:52+00:00',('none'),('none'),'CATIA Version 5-6 Release 2017 SP3','CATIA V5 STEP AP203','none');

FILE_SCHEMA(('CONFIG_CONTROL_DESIGN'));

ENDSEC;
DATA;
#5=PRODUCT('Adaptateur cadre ACIER','','',(#2)) ;
#1=APPLICATION_CONTEXT('configuration controlled 3D design of mechanical parts and assemblies') ;
#14=PRODUCT_DEFINITION('',' ',#6,#3) ;
#16=SECURITY_CLASSIFICATION(' ',' ',#15) ;
#15=SECURITY_CLASSIFICATION_LEVEL('unclassified') ;
#46=CARTESIAN_POINT(' ',(0.,0.,0.)) ;
#51=CARTESIAN_POINT('Axis2P3D Location',(0.,2.90000000037,0.)) ;
#56=CARTESIAN_POINT('Axis2P3D Location',(0.,25.8,0.)) ;
#60=CARTESIAN_POINT('Vertex',(-12.,25.8,-1.46957615898E-015)) ;
#62=CARTESIAN_POINT('Vertex',(12.,25.8,2.93915231795E-015)) ;
#65=CARTESIAN_POINT('Line Origine',(-12.,2.9,-1.46957615898E-015)) ;
#69=CARTESIAN_POINT('Vertex',(-12.,22.3,-1.46957615898E-015)) ;
#72=CARTESIAN_POINT('Axis2P3D Location',(0.,22.3,0.)) ;
#76=CARTESIAN_POINT('Vertex',(12.,22.3,2.93915231795E-015)) ;
#79=CARTESIAN_POINT('Line Origine',(12.,2.9,2.93915231795E-015)) ;
#91=CARTESIAN_POINT('Axis2P3D Location',(0.,25.8,0.)) ;
#96=CARTESIAN_POINT('Axis2P3D Location',(0.,22.3,0.)) ;
#108=CARTESIAN_POINT('Axis2P3D Location',(0.,2.90000000037,0.)) ;
#113=CARTESIAN_POINT('Axis2P3D Location',(0.,22.3,0.)) ;
#117=CARTESIAN_POINT('Vertex',(-15.,22.3,-8.49830834647E-015)) ;
#119=CARTESIAN_POINT('Vertex',(15.,22.3,1.69966166929E-014)) ;
#122=CARTESIAN_POINT('Line Origine',(-15.,11.15,-8.49830834647E-015)) ;
#126=CARTESIAN_POINT('Vertex',(-15.,0.,-8.49830834647E-015)) ;
#129=CARTESIAN_POINT('Axis2P3D Location',(0.,0.,0.)) ;
#133=CARTESIAN_POINT('Vertex',(15.,0.,1.69966166929E-014)) ;
#136=CARTESIAN_POINT('Line Origine',(15.,11.15,1.69966166929E-014)) ;
#148=CARTESIAN_POINT('Axis2P3D Location',(0.,22.3,0.)) ;
#153=CARTESIAN_POINT('Axis2P3D Location',(0.,0.,0.)) ;
#165=CARTESIAN_POINT('Axis2P3D Location',(0.,2.90000000037,0.)) ;
#170=CARTESIAN_POINT('Axis2P3D Location',(0.,-20.,0.)) ;
#174=CARTESIAN_POINT('Vertex',(-10.,-20.,-1.22464679915E-015)) ;
#176=CARTESIAN_POINT('Vertex',(10.,-20.,2.44929359829E-015)) ;
#179=CARTESIAN_POINT('Line Origine',(-10.,2.9,-1.22464679915E-015)) ;
#183=CARTESIAN_POINT('Vertex',(-10.,25.8,-1.22464679915E-015)) ;
#186=CARTESIAN_POINT('Axis2P3D Location',(0.,25.8,0.)) ;
#190=CARTESIAN_POINT('Vertex',(10.,25.8,2.44929359829E-015)) ;
#193=CARTESIAN_POINT('Line Origine',(10.,2.9,2.44929359829E-015)) ;
#205=CARTESIAN_POINT('Axis2P3D Location',(0.,-20.,0.)) ;
#210=CARTESIAN_POINT('Axis2P3D Location',(0.,25.8,0.)) ;
#222=CARTESIAN_POINT('Axis2P3D Location',(-12.,25.8,0.)) ;
#236=CARTESIAN_POINT('Axis2P3D Location',(-15.,22.3,0.)) ;
#250=CARTESIAN_POINT('Axis2P3D Location',(-12.,0.,0.)) ;
#259=CARTESIAN_POINT('Axis2P3D Location',(0.,0.,0.)) ;
#263=CARTESIAN_POINT('Vertex',(12.,0.,2.93915231795E-015)) ;
#265=CARTESIAN_POINT('Vertex',(-12.,0.,-1.46957615898E-015)) ;
#268=CARTESIAN_POINT('Axis2P3D Location',(0.,0.,0.)) ;
#278=CARTESIAN_POINT('Line Origine',(12.,2.9,2.93915231795E-015)) ;
#282=CARTESIAN_POINT('Vertex',(12.,-19.5,2.93915231795E-015)) ;
#285=CARTESIAN_POINT('Line Origine',(-12.,2.9,-1.46957615898E-015)) ;
#289=CARTESIAN_POINT('Vertex',(-12.,-19.5,-2.57250105497E-014)) ;
#292=CARTESIAN_POINT('Axis2P3D Location',(0.,-19.5,0.)) ;
#304=CARTESIAN_POINT('Axis2P3D Location',(0.,-19.5,0.)) ;
#316=CARTESIAN_POINT('Axis2P3D Location',(-10.,-20.,0.)) ;
#321=CARTESIAN_POINT('Axis2P3D Location',(-1.7763568394E-015,-20.,3.42506271383E-017)) ;
#325=CARTESIAN_POINT('Vertex',(-11.5,-20.,-4.19078082992E-015)) ;
#327=CARTESIAN_POINT('Vertex',(11.5,-20.,-1.75771653879E-014)) ;
#330=CARTESIAN_POINT('Axis2P3D Location',(-1.7763568394E-015,-20.,3.42506271383E-017)) ;
#344=CARTESIAN_POINT('Axis2P3D Location',(1.25233157178E-013,-31.5,-8.04488478227E-014)) ;
#349=CARTESIAN_POINT('Line Origine',(11.75,-19.75,-1.35747996515E-014)) ;
#354=CARTESIAN_POINT('Line Origine',(-11.75,-19.75,-5.1371046643E-015)) ;
#366=CARTESIAN_POINT('Axis2P3D Location',(5.10702591328E-014,-31.5,4.35207425653E-014)) ;
#52=DIRECTION('Axis2P3D Direction',(0.,1.,0.)) ;
#53=DIRECTION('Axis2P3D XDirection',(-1.,0.,-1.22464679915E-016)) ;
#57=DIRECTION('Axis2P3D Direction',(0.,1.,0.)) ;
#66=DIRECTION('Vector Direction',(0.,1.,0.)) ;
#73=DIRECTION('Axis2P3D Direction',(0.,1.,0.)) ;
#80=DIRECTION('Vector Direction',(0.,1.,0.)) ;
#92=DIRECTION('Axis2P3D Direction',(0.,1.,0.)) ;
#97=DIRECTION('Axis2P3D Direction',(0.,1.,0.)) ;
#109=DIRECTION('Axis2P3D Direction',(0.,1.,0.)) ;
#110=DIRECTION('Axis2P3D XDirection',(-1.,0.,-5.66553889765E-016)) ;
#114=DIRECTION('Axis2P3D Direction',(0.,1.,0.)) ;
#123=DIRECTION('Vector Direction',(0.,1.,0.)) ;
#130=DIRECTION('Axis2P3D Direction',(0.,1.,0.)) ;
#137=DIRECTION('Vector Direction',(0.,1.,0.)) ;
#149=DIRECTION('Axis2P3D Direction',(0.,1.,0.)) ;
#154=DIRECTION('Axis2P3D Direction',(0.,1.,0.)) ;
#166=DIRECTION('Axis2P3D Direction',(0.,1.,0.)) ;
#167=DIRECTION('Axis2P3D XDirection',(-1.,0.,-1.22464679915E-016)) ;
#171=DIRECTION('Axis2P3D Direction',(0.,1.,0.)) ;
#180=DIRECTION('Vector Direction',(0.,1.,0.)) ;
#187=DIRECTION('Axis2P3D Direction',(0.,1.,0.)) ;
#194=DIRECTION('Vector Direction',(0.,1.,0.)) ;
#206=DIRECTION('Axis2P3D Direction',(0.,1.,0.)) ;
#211=DIRECTION('Axis2P3D Direction',(0.,1.,0.)) ;
#223=DIRECTION('Axis2P3D Direction',(0.,1.,0.)) ;
#224=DIRECTION('Axis2P3D XDirection',(1.,-0.,0.)) ;
#237=DIRECTION('Axis2P3D Direction',(0.,1.,0.)) ;
#238=DIRECTION('Axis2P3D XDirection',(1.,-0.,0.)) ;
#251=DIRECTION('Axis2P3D Direction',(0.,1.,0.)) ;
#252=DIRECTION('Axis2P3D XDirection',(1.,-0.,0.)) ;
#260=DIRECTION('Axis2P3D Direction',(0.,1.,0.)) ;
#269=DIRECTION('Axis2P3D Direction',(0.,1.,0.)) ;
#279=DIRECTION('Vector Direction',(0.,1.,0.)) ;
#286=DIRECTION('Vector Direction',(0.,1.,0.)) ;
#293=DIRECTION('Axis2P3D Direction',(0.,1.,0.)) ;
#305=DIRECTION('Axis2P3D Direction',(0.,1.,0.)) ;
#317=DIRECTION('Axis2P3D Direction',(0.,1.,0.)) ;
#318=DIRECTION('Axis2P3D XDirection',(1.,-0.,0.)) ;
#322=DIRECTION('Axis2P3D Direction',(0.,1.,0.)) ;
#331=DIRECTION('Axis2P3D Direction',(0.,1.,0.)) ;
#345=DIRECTION('Axis2P3D Direction',(-1.06581410364E-014,1.,6.5926373079E-015)) ;
#346=DIRECTION('Axis2P3D XDirection',(0.5,-3.9512670479E-016,0.866025403784)) ;
#350=DIRECTION('Vector Direction',(0.707106781187,0.707106781187,3.40562457937E-015)) ;
#355=DIRECTION('Vector Direction',(-0.707106781187,0.707106781187,4.66169854632E-015)) ;
#367=DIRECTION('Axis2P3D Direction',(-4.4408920985E-015,1.,-3.5527136788E-015)) ;
#368=DIRECTION('Axis2P3D XDirection',(-1.,-4.47810265428E-015,-1.96479548223E-016)) ;
#47=AXIS2_PLACEMENT_3D(' ',#46,$,$) ;
#54=AXIS2_PLACEMENT_3D('Cylinder Axis2P3D',#51,#52,#53) ;
#58=AXIS2_PLACEMENT_3D('Circle Axis2P3D',#56,#57,$) ;
#74=AXIS2_PLACEMENT_3D('Circle Axis2P3D',#72,#73,$) ;
#93=AXIS2_PLACEMENT_3D('Circle Axis2P3D',#91,#92,$) ;
#98=AXIS2_PLACEMENT_3D('Circle Axis2P3D',#96,#97,$) ;
#111=AXIS2_PLACEMENT_3D('Cylinder Axis2P3D',#108,#109,#110) ;
#115=AXIS2_PLACEMENT_3D('Circle Axis2P3D',#113,#114,$) ;
#131=AXIS2_PLACEMENT_3D('Circle Axis2P3D',#129,#130,$) ;
#150=AXIS2_PLACEMENT_3D('Circle Axis2P3D',#148,#149,$) ;
#155=AXIS2_PLACEMENT_3D('Circle Axis2P3D',#153,#154,$) ;
#168=AXIS2_PLACEMENT_3D('Cylinder Axis2P3D',#165,#166,#167) ;
#172=AXIS2_PLACEMENT_3D('Circle Axis2P3D',#170,#171,$) ;
#188=AXIS2_PLACEMENT_3D('Circle Axis2P3D',#186,#187,$) ;
#207=AXIS2_PLACEMENT_3D('Circle Axis2P3D',#205,#206,$) ;
#212=AXIS2_PLACEMENT_3D('Circle Axis2P3D',#210,#211,$) ;
#225=AXIS2_PLACEMENT_3D('Plane Axis2P3D',#222,#223,#224) ;
#239=AXIS2_PLACEMENT_3D('Plane Axis2P3D',#236,#237,#238) ;
#253=AXIS2_PLACEMENT_3D('Plane Axis2P3D',#250,#251,#252) ;
#261=AXIS2_PLACEMENT_3D('Circle Axis2P3D',#259,#260,$) ;
#270=AXIS2_PLACEMENT_3D('Circle Axis2P3D',#268,#269,$) ;
#294=AXIS2_PLACEMENT_3D('Circle Axis2P3D',#292,#293,$) ;
#306=AXIS2_PLACEMENT_3D('Circle Axis2P3D',#304,#305,$) ;
#319=AXIS2_PLACEMENT_3D('Plane Axis2P3D',#316,#317,#318) ;
#323=AXIS2_PLACEMENT_3D('Circle Axis2P3D',#321,#322,$) ;
#332=AXIS2_PLACEMENT_3D('Circle Axis2P3D',#330,#331,$) ;
#347=AXIS2_PLACEMENT_3D('Cone Axis2P3D',#344,#345,#346) ;
#369=AXIS2_PLACEMENT_3D('Cone Axis2P3D',#366,#367,#368) ;
#40=PRODUCT_DEFINITION_SHAPE(' ',' ',#14) ;
#31=APPROVAL_PERSON_ORGANIZATION(#25,#21,#19) ;
#25=PERSON_AND_ORGANIZATION(#22,#23) ;
#22=PERSON(' ',' ',' ',$,$,$) ;
#23=ORGANIZATION(' ',' ',' ') ;
#21=APPROVAL(#20,' ') ;
#20=APPROVAL_STATUS('not_yet_approved') ;
#19=APPROVAL_ROLE('APPROVER') ;
#13=DATE_AND_TIME(#11,#12) ;
#12=LOCAL_TIME(12,27,52.,#10) ;
#10=COORDINATED_UNIVERSAL_TIME_OFFSET(0,0,.AHEAD.) ;
#85=ORIENTED_EDGE('',*,*,#64,.F.) ;
#86=ORIENTED_EDGE('',*,*,#71,.T.) ;
#87=ORIENTED_EDGE('',*,*,#78,.T.) ;
#88=ORIENTED_EDGE('',*,*,#83,.F.) ;
#102=ORIENTED_EDGE('',*,*,#95,.F.) ;
#103=ORIENTED_EDGE('',*,*,#83,.T.) ;
#104=ORIENTED_EDGE('',*,*,#100,.T.) ;
#105=ORIENTED_EDGE('',*,*,#71,.F.) ;
#142=ORIENTED_EDGE('',*,*,#121,.F.) ;
#143=ORIENTED_EDGE('',*,*,#128,.T.) ;
#144=ORIENTED_EDGE('',*,*,#135,.T.) ;
#145=ORIENTED_EDGE('',*,*,#140,.F.) ;
#159=ORIENTED_EDGE('',*,*,#152,.F.) ;
#160=ORIENTED_EDGE('',*,*,#140,.T.) ;
#161=ORIENTED_EDGE('',*,*,#157,.T.) ;
#162=ORIENTED_EDGE('',*,*,#128,.F.) ;
#199=ORIENTED_EDGE('',*,*,#178,.F.) ;
#200=ORIENTED_EDGE('',*,*,#185,.T.) ;
#201=ORIENTED_EDGE('',*,*,#192,.T.) ;
#202=ORIENTED_EDGE('',*,*,#197,.F.) ;
#216=ORIENTED_EDGE('',*,*,#209,.F.) ;
#217=ORIENTED_EDGE('',*,*,#197,.T.) ;
#218=ORIENTED_EDGE('',*,*,#214,.T.) ;
#219=ORIENTED_EDGE('',*,*,#185,.F.) ;
#228=ORIENTED_EDGE('',*,*,#95,.T.) ;
#229=ORIENTED_EDGE('',*,*,#64,.T.) ;
#232=ORIENTED_EDGE('',*,*,#192,.F.) ;
#233=ORIENTED_EDGE('',*,*,#214,.F.) ;
#242=ORIENTED_EDGE('',*,*,#152,.T.) ;
#243=ORIENTED_EDGE('',*,*,#121,.T.) ;
#246=ORIENTED_EDGE('',*,*,#78,.F.) ;
#247=ORIENTED_EDGE('',*,*,#100,.F.) ;
#256=ORIENTED_EDGE('',*,*,#135,.F.) ;
#257=ORIENTED_EDGE('',*,*,#157,.F.) ;
#274=ORIENTED_EDGE('',*,*,#267,.T.) ;
#275=ORIENTED_EDGE('',*,*,#272,.T.) ;
#298=ORIENTED_EDGE('',*,*,#284,.F.) ;
#299=ORIENTED_EDGE('',*,*,#272,.F.) ;
#300=ORIENTED_EDGE('',*,*,#291,.T.) ;
#301=ORIENTED_EDGE('',*,*,#296,.T.) ;
#310=ORIENTED_EDGE('',*,*,#291,.F.) ;
#311=ORIENTED_EDGE('',*,*,#267,.F.) ;
#312=ORIENTED_EDGE('',*,*,#284,.T.) ;
#313=ORIENTED_EDGE('',*,*,#308,.T.) ;
#336=ORIENTED_EDGE('',*,*,#329,.F.) ;
#337=ORIENTED_EDGE('',*,*,#334,.F.) ;
#340=ORIENTED_EDGE('',*,*,#209,.T.) ;
#341=ORIENTED_EDGE('',*,*,#178,.T.) ;
#360=ORIENTED_EDGE('',*,*,#353,.T.) ;
#361=ORIENTED_EDGE('',*,*,#334,.T.) ;
#362=ORIENTED_EDGE('',*,*,#358,.F.) ;
#363=ORIENTED_EDGE('',*,*,#308,.F.) ;
#372=ORIENTED_EDGE('',*,*,#358,.T.) ;
#373=ORIENTED_EDGE('',*,*,#329,.T.) ;
#374=ORIENTED_EDGE('',*,*,#353,.F.) ;
#375=ORIENTED_EDGE('',*,*,#296,.F.) ;
#234=FACE_BOUND('',#231,.T.) ;
#248=FACE_BOUND('',#245,.T.) ;
#276=FACE_BOUND('',#273,.T.) ;
#342=FACE_BOUND('',#339,.T.) ;
#50=CLOSED_SHELL('Closed Shell',(#90,#107,#147,#164,#204,#221,#235,#249,#277,#303,#315,#343,#365,#377)) ;
#67=VECTOR('Line Direction',#66,1.) ;
#81=VECTOR('Line Direction',#80,1.) ;
#124=VECTOR('Line Direction',#123,1.) ;
#138=VECTOR('Line Direction',#137,1.) ;
#181=VECTOR('Line Direction',#180,1.) ;
#195=VECTOR('Line Direction',#194,1.) ;
#280=VECTOR('Line Direction',#279,1.) ;
#287=VECTOR('Line Direction',#286,1.) ;
#351=VECTOR('Line Direction',#350,1.) ;
#356=VECTOR('Line Direction',#355,1.) ;
#379=ADVANCED_BREP_SHAPE_REPRESENTATION('NONE',(#378),#45) ;
#48=SHAPE_REPRESENTATION(' ',(#47),#45) ;
#90=ADVANCED_FACE('Moyeu',(#89),#55,.T.) ;
#107=ADVANCED_FACE('Moyeu',(#106),#55,.T.) ;
#147=ADVANCED_FACE('Moyeu',(#146),#112,.T.) ;
#164=ADVANCED_FACE('Moyeu',(#163),#112,.T.) ;
#204=ADVANCED_FACE('Moyeu',(#203),#169,.F.) ;
#221=ADVANCED_FACE('Moyeu',(#220),#169,.F.) ;
#235=ADVANCED_FACE('Moyeu',(#230,#234),#226,.T.) ;
#249=ADVANCED_FACE('Moyeu',(#244,#248),#240,.T.) ;
#277=ADVANCED_FACE('Moyeu',(#258,#276),#254,.F.) ;
#303=ADVANCED_FACE('Moyeu',(#302),#55,.T.) ;
#315=ADVANCED_FACE('Moyeu',(#314),#55,.T.) ;
#343=ADVANCED_FACE('Moyeu',(#338,#342),#320,.F.) ;
#365=ADVANCED_FACE('Moyeu',(#364),#348,.T.) ;
#377=ADVANCED_FACE('Moyeu',(#376),#370,.T.) ;
#4=APPLICATION_PROTOCOL_DEFINITION('international standard','config_control_design',1994,#1) ;
#32=APPROVAL_DATE_TIME(#13,#21) ;
#378=MANIFOLD_SOLID_BREP('Moyeu',#50) ;
#11=CALENDAR_DATE(2022,9,3) ;
#30=CC_DESIGN_APPROVAL(#21,(#16,#6,#14)) ;
#18=CC_DESIGN_DATE_AND_TIME_ASSIGNMENT(#13,#17,(#16)) ;
#29=CC_DESIGN_DATE_AND_TIME_ASSIGNMENT(#13,#28,(#14)) ;
#17=DATE_TIME_ROLE('classification_date') ;
#28=DATE_TIME_ROLE('creation_date') ;
#27=CC_DESIGN_PERSON_AND_ORGANIZATION_ASSIGNMENT(#25,#26,(#16)) ;
#33=CC_DESIGN_PERSON_AND_ORGANIZATION_ASSIGNMENT(#25,#34,(#6)) ;
#35=CC_DESIGN_PERSON_AND_ORGANIZATION_ASSIGNMENT(#25,#36,(#6,#14)) ;
#37=CC_DESIGN_PERSON_AND_ORGANIZATION_ASSIGNMENT(#25,#38,(#5)) ;
#26=PERSON_AND_ORGANIZATION_ROLE('classification_officer') ;
#34=PERSON_AND_ORGANIZATION_ROLE('design_supplier') ;
#36=PERSON_AND_ORGANIZATION_ROLE('creator') ;
#38=PERSON_AND_ORGANIZATION_ROLE('design_owner') ;
#39=CC_DESIGN_SECURITY_CLASSIFICATION(#16,(#6)) ;
#59=CIRCLE('generated circle',#58,12.) ;
#75=CIRCLE('generated circle',#74,12.) ;
#94=CIRCLE('generated circle',#93,12.) ;
#99=CIRCLE('generated circle',#98,12.) ;
#116=CIRCLE('generated circle',#115,15.) ;
#132=CIRCLE('generated circle',#131,15.) ;
#151=CIRCLE('generated circle',#150,15.) ;
#156=CIRCLE('generated circle',#155,15.) ;
#173=CIRCLE('generated circle',#172,10.) ;
#189=CIRCLE('generated circle',#188,10.) ;
#208=CIRCLE('generated circle',#207,10.) ;
#213=CIRCLE('generated circle',#212,10.) ;
#262=CIRCLE('generated circle',#261,12.) ;
#271=CIRCLE('generated circle',#270,12.) ;
#295=CIRCLE('generated circle',#294,12.) ;
#307=CIRCLE('generated circle',#306,12.) ;
#324=CIRCLE('generated circle',#323,11.5) ;
#333=CIRCLE('generated circle',#332,11.5) ;
#348=CONICAL_SURFACE('Cone',#347,0.,0.785398163397) ;
#370=CONICAL_SURFACE('Cone',#369,0.,0.785398163397) ;
#380=SHAPE_REPRESENTATION_RELATIONSHIP(' ',' ',#48,#379) ;
#55=CYLINDRICAL_SURFACE('generated cylinder',#54,12.) ;
#112=CYLINDRICAL_SURFACE('generated cylinder',#111,15.) ;
#169=CYLINDRICAL_SURFACE('generated cylinder',#168,10.) ;
#3=DESIGN_CONTEXT(' ',#1,'design') ;
#64=EDGE_CURVE('',#61,#63,#59,.T.) ;
#71=EDGE_CURVE('',#61,#70,#68,.F.) ;
#78=EDGE_CURVE('',#70,#77,#75,.T.) ;
#83=EDGE_CURVE('',#63,#77,#82,.F.) ;
#95=EDGE_CURVE('',#63,#61,#94,.T.) ;
#100=EDGE_CURVE('',#77,#70,#99,.T.) ;
#121=EDGE_CURVE('',#118,#120,#116,.T.) ;
#128=EDGE_CURVE('',#118,#127,#125,.F.) ;
#135=EDGE_CURVE('',#127,#134,#132,.T.) ;
#140=EDGE_CURVE('',#120,#134,#139,.F.) ;
#152=EDGE_CURVE('',#120,#118,#151,.T.) ;
#157=EDGE_CURVE('',#134,#127,#156,.T.) ;
#178=EDGE_CURVE('',#175,#177,#173,.T.) ;
#185=EDGE_CURVE('',#175,#184,#182,.T.) ;
#192=EDGE_CURVE('',#184,#191,#189,.T.) ;
#197=EDGE_CURVE('',#177,#191,#196,.T.) ;
#209=EDGE_CURVE('',#177,#175,#208,.T.) ;
#214=EDGE_CURVE('',#191,#184,#213,.T.) ;
#267=EDGE_CURVE('',#264,#266,#262,.T.) ;
#272=EDGE_CURVE('',#266,#264,#271,.T.) ;
#284=EDGE_CURVE('',#264,#283,#281,.F.) ;
#291=EDGE_CURVE('',#266,#290,#288,.F.) ;
#296=EDGE_CURVE('',#290,#283,#295,.T.) ;
#308=EDGE_CURVE('',#283,#290,#307,.T.) ;
#329=EDGE_CURVE('',#326,#328,#324,.T.) ;
#334=EDGE_CURVE('',#328,#326,#333,.T.) ;
#353=EDGE_CURVE('',#283,#328,#352,.F.) ;
#358=EDGE_CURVE('',#290,#326,#357,.F.) ;
#84=EDGE_LOOP('',(#85,#86,#87,#88)) ;
#101=EDGE_LOOP('',(#102,#103,#104,#105)) ;
#141=EDGE_LOOP('',(#142,#143,#144,#145)) ;
#158=EDGE_LOOP('',(#159,#160,#161,#162)) ;
#198=EDGE_LOOP('',(#199,#200,#201,#202)) ;
#215=EDGE_LOOP('',(#216,#217,#218,#219)) ;
#227=EDGE_LOOP('',(#228,#229)) ;
#231=EDGE_LOOP('',(#232,#233)) ;
#241=EDGE_LOOP('',(#242,#243)) ;
#245=EDGE_LOOP('',(#246,#247)) ;
#255=EDGE_LOOP('',(#256,#257)) ;
#273=EDGE_LOOP('',(#274,#275)) ;
#297=EDGE_LOOP('',(#298,#299,#300,#301)) ;
#309=EDGE_LOOP('',(#310,#311,#312,#313)) ;
#335=EDGE_LOOP('',(#336,#337)) ;
#339=EDGE_LOOP('',(#340,#341)) ;
#359=EDGE_LOOP('',(#360,#361,#362,#363)) ;
#371=EDGE_LOOP('',(#372,#373,#374,#375)) ;
#89=FACE_OUTER_BOUND('',#84,.T.) ;
#106=FACE_OUTER_BOUND('',#101,.T.) ;
#146=FACE_OUTER_BOUND('',#141,.T.) ;
#163=FACE_OUTER_BOUND('',#158,.T.) ;
#203=FACE_OUTER_BOUND('',#198,.T.) ;
#220=FACE_OUTER_BOUND('',#215,.T.) ;
#230=FACE_OUTER_BOUND('',#227,.T.) ;
#244=FACE_OUTER_BOUND('',#241,.T.) ;
#258=FACE_OUTER_BOUND('',#255,.T.) ;
#302=FACE_OUTER_BOUND('',#297,.T.) ;
#314=FACE_OUTER_BOUND('',#309,.T.) ;
#338=FACE_OUTER_BOUND('',#335,.T.) ;
#364=FACE_OUTER_BOUND('',#359,.T.) ;
#376=FACE_OUTER_BOUND('',#371,.T.) ;
#44=UNCERTAINTY_MEASURE_WITH_UNIT(LENGTH_MEASURE(0.005),#41,'distance_accuracy_value','CONFUSED CURVE UNCERTAINTY') ;
#68=LINE('Line',#65,#67) ;
#82=LINE('Line',#79,#81) ;
#125=LINE('Line',#122,#124) ;
#139=LINE('Line',#136,#138) ;
#182=LINE('Line',#179,#181) ;
#196=LINE('Line',#193,#195) ;
#281=LINE('Line',#278,#280) ;
#288=LINE('Line',#285,#287) ;
#352=LINE('Line',#349,#351) ;
#357=LINE('Line',#354,#356) ;
#2=MECHANICAL_CONTEXT(' ',#1,'mechanical') ;
#24=PERSONAL_ADDRESS(' ',' ',' ',' ',' ',' ',' ',' ',' ',' ',' ',' ',(#22),' ') ;
#226=PLANE('',#225) ;
#240=PLANE('',#239) ;
#254=PLANE('',#253) ;
#320=PLANE('',#319) ;
#7=PRODUCT_CATEGORY('part',$) ;
#9=PRODUCT_CATEGORY_RELATIONSHIP(' ',' ',#7,#8) ;
#6=PRODUCT_DEFINITION_FORMATION_WITH_SPECIFIED_SOURCE('',' ',#5,.NOT_KNOWN.) ;
#8=PRODUCT_RELATED_PRODUCT_CATEGORY('detail',$,(#5)) ;
#49=SHAPE_DEFINITION_REPRESENTATION(#40,#48) ;
#61=VERTEX_POINT('',#60) ;
#63=VERTEX_POINT('',#62) ;
#70=VERTEX_POINT('',#69) ;
#77=VERTEX_POINT('',#76) ;
#118=VERTEX_POINT('',#117) ;
#120=VERTEX_POINT('',#119) ;
#127=VERTEX_POINT('',#126) ;
#134=VERTEX_POINT('',#133) ;
#175=VERTEX_POINT('',#174) ;
#177=VERTEX_POINT('',#176) ;
#184=VERTEX_POINT('',#183) ;
#191=VERTEX_POINT('',#190) ;
#264=VERTEX_POINT('',#263) ;
#266=VERTEX_POINT('',#265) ;
#283=VERTEX_POINT('',#282) ;
#290=VERTEX_POINT('',#289) ;
#326=VERTEX_POINT('',#325) ;
#328=VERTEX_POINT('',#327) ;
#41=(LENGTH_UNIT()NAMED_UNIT(*)SI_UNIT(.MILLI.,.METRE.)) ;
#42=(NAMED_UNIT(*)PLANE_ANGLE_UNIT()SI_UNIT($,.RADIAN.)) ;
#43=(NAMED_UNIT(*)SI_UNIT($,.STERADIAN.)SOLID_ANGLE_UNIT()) ;
#45=(GEOMETRIC_REPRESENTATION_CONTEXT(3)GLOBAL_UNCERTAINTY_ASSIGNED_CONTEXT((#44))GLOBAL_UNIT_ASSIGNED_CONTEXT((#41,#42,#43))REPRESENTATION_CONTEXT(' ',' ')) ;
ENDSEC;
END-ISO-10303-21;
