ISO-10303-21;
HEADER;
/* Generated by software containing ST-Developer
 * from STEP Tools, Inc. (www.steptools.com) 
 */

FILE_DESCRIPTION(
/* description */ (''),
/* implementation_level */ '2;1');

FILE_NAME(
/* name */ 'C:/Users/Hadrien/Downloads/insert alu double male v1.step',

/* time_stamp */ '2022-03-11T18:46:19+01:00',
/* author */ (''),
/* organization */ (''),
/* preprocessor_version */ 'ST-DEVELOPER v18.1',
/* originating_system */ 'Autodesk Translation Framework v10.13.0.1454',

/* authorisation */ '');

FILE_SCHEMA (('AUTOMOTIVE_DESIGN { 1 0 10303 214 3 1 1 }'));
ENDSEC;

DATA;
#10=MECHANICAL_DESIGN_GEOMETRIC_PRESENTATION_REPRESENTATION('',(#13),#448);
#11=SHAPE_REPRESENTATION_RELATIONSHIP('SRR','None',#455,#12);
#12=ADVANCED_BREP_SHAPE_REPRESENTATION('',(#14),#447);
#13=STYLED_ITEM('',(#464),#14);
#14=MANIFOLD_SOLID_BREP('Corps3',#184);
#15=PLANE('',#203);
#16=PLANE('',#204);
#17=PLANE('',#209);
#18=PLANE('',#212);
#19=FACE_BOUND('',#41,.T.);
#20=FACE_BOUND('',#44,.T.);
#21=FACE_BOUND('',#47,.T.);
#22=FACE_BOUND('',#49,.T.);
#23=CIRCLE('',#201,9.);
#24=CIRCLE('',#202,9.);
#25=CIRCLE('',#205,10.);
#26=CIRCLE('',#206,9.);
#27=CIRCLE('',#208,10.);
#28=CIRCLE('',#211,9.);
#29=FACE_OUTER_BOUND('',#38,.T.);
#30=FACE_OUTER_BOUND('',#39,.T.);
#31=FACE_OUTER_BOUND('',#40,.T.);
#32=FACE_OUTER_BOUND('',#42,.T.);
#33=FACE_OUTER_BOUND('',#43,.T.);
#34=FACE_OUTER_BOUND('',#45,.T.);
#35=FACE_OUTER_BOUND('',#46,.T.);
#36=FACE_OUTER_BOUND('',#48,.T.);
#37=FACE_OUTER_BOUND('',#50,.T.);
#38=EDGE_LOOP('',(#120,#121,#122,#123,#124,#125,#126,#127));
#39=EDGE_LOOP('',(#128,#129,#130,#131,#132,#133,#134,#135));
#40=EDGE_LOOP('',(#136,#137,#138,#139,#140,#141,#142,#143,#144));
#41=EDGE_LOOP('',(#145,#146,#147));
#42=EDGE_LOOP('',(#148));
#43=EDGE_LOOP('',(#149));
#44=EDGE_LOOP('',(#150));
#45=EDGE_LOOP('',(#151,#152,#153,#154));
#46=EDGE_LOOP('',(#155));
#47=EDGE_LOOP('',(#156));
#48=EDGE_LOOP('',(#157,#158,#159,#160,#161,#162,#163,#164,#165));
#49=EDGE_LOOP('',(#166,#167,#168));
#50=EDGE_LOOP('',(#169));
#51=LINE('',#286,#58);
#52=LINE('',#370,#59);
#53=LINE('',#424,#60);
#54=LINE('',#426,#61);
#55=LINE('',#436,#62);
#56=LINE('',#442,#63);
#57=LINE('',#443,#64);
#58=VECTOR('',#217,1.5);
#59=VECTOR('',#220,1.5);
#60=VECTOR('',#225,9.);
#61=VECTOR('',#226,9.);
#62=VECTOR('',#239,10.);
#63=VECTOR('',#248,9.);
#64=VECTOR('',#249,9.);
#65=B_SPLINE_CURVE_WITH_KNOTS('',3,(#256,#257,#258,#259,#260,#261,#262,
#263,#264,#265,#266,#267,#268,#269,#270,#271,#272,#273),.UNSPECIFIED.,.F.,
 .F.,(4,2,2,2,2,2,2,2,4),(0.226466751188939,0.28308268289157,0.339698614594201,
0.39631605848604,0.452933502377878,0.509550946269716,0.566168390161554,
0.622784321864185,0.679400253566817),.UNSPECIFIED.);
#66=B_SPLINE_CURVE_WITH_KNOTS('',3,(#275,#276,#277,#278,#279,#280,#281,
#282,#283,#284),.UNSPECIFIED.,.F.,.F.,(4,2,2,2,4),(0.905867004755756,0.962484448647594,
1.01910189253943,1.07571782424206,1.13233375594469),.UNSPECIFIED.);
#67=B_SPLINE_CURVE_WITH_KNOTS('',3,(#288,#289,#290,#291,#292,#293,#294,
#295,#296,#297),.UNSPECIFIED.,.F.,.F.,(4,2,2,2,4),(0.679400253566817,0.736016185269448,
0.792632116972079,0.849249560863917,0.905867004755756),.UNSPECIFIED.);
#68=B_SPLINE_CURVE_WITH_KNOTS('',3,(#299,#300,#301,#302,#303,#304,#305,
#306,#307,#308,#309,#310,#311,#312,#313,#314,#315,#316),.UNSPECIFIED.,.F.,
 .F.,(4,2,2,2,2,2,2,2,4),(0.226466751188939,0.28308268289157,0.339698614594202,
0.39631605848604,0.452933502377878,0.509550946269716,0.566168390161554,
0.622784321864185,0.679400253566817),.UNSPECIFIED.);
#69=B_SPLINE_CURVE_WITH_KNOTS('',3,(#317,#318,#319,#320,#321,#322,#323,
#324,#325,#326),.UNSPECIFIED.,.F.,.F.,(4,2,2,2,4),(0.,0.0566174438918384,
0.113234887783677,0.169850819486308,0.226466751188939),.UNSPECIFIED.);
#70=B_SPLINE_CURVE_WITH_KNOTS('',3,(#327,#328,#329,#330,#331,#332,#333,
#334,#335,#336),.UNSPECIFIED.,.F.,.F.,(4,2,2,2,4),(0.679400253566817,0.736016185269448,
0.792632116972079,0.849249560863917,0.905867004755756),.UNSPECIFIED.);
#71=B_SPLINE_CURVE_WITH_KNOTS('',3,(#340,#341,#342,#343,#344,#345,#346,
#347,#348,#349,#350,#351,#352,#353,#354,#355,#356,#357),.UNSPECIFIED.,.F.,
 .F.,(4,2,2,2,2,2,2,2,4),(0.226466751188939,0.28308268289157,0.339698614594202,
0.39631605848604,0.452933502377878,0.509550946269716,0.566168390161554,
0.622784321864186,0.679400253566817),.UNSPECIFIED.);
#72=B_SPLINE_CURVE_WITH_KNOTS('',3,(#359,#360,#361,#362,#363,#364,#365,
#366,#367,#368),.UNSPECIFIED.,.F.,.F.,(4,2,2,2,4),(0.905867004755756,0.962484448647594,
1.01910189253943,1.07571782424206,1.13233375594469),.UNSPECIFIED.);
#73=B_SPLINE_CURVE_WITH_KNOTS('',3,(#372,#373,#374,#375,#376,#377,#378,
#379,#380,#381),.UNSPECIFIED.,.F.,.F.,(4,2,2,2,4),(0.679400253566817,0.736016185269448,
0.792632116972079,0.849249560863918,0.905867004755756),.UNSPECIFIED.);
#74=B_SPLINE_CURVE_WITH_KNOTS('',3,(#383,#384,#385,#386,#387,#388,#389,
#390,#391,#392,#393,#394,#395,#396,#397,#398,#399,#400),.UNSPECIFIED.,.F.,
 .F.,(4,2,2,2,2,2,2,2,4),(0.226466751188939,0.28308268289157,0.339698614594202,
0.39631605848604,0.452933502377878,0.509550946269716,0.566168390161554,
0.622784321864186,0.679400253566817),.UNSPECIFIED.);
#75=B_SPLINE_CURVE_WITH_KNOTS('',3,(#401,#402,#403,#404,#405,#406,#407,
#408,#409,#410),.UNSPECIFIED.,.F.,.F.,(4,2,2,2,4),(0.,0.0566174438918383,
0.113234887783677,0.169850819486308,0.226466751188939),.UNSPECIFIED.);
#76=B_SPLINE_CURVE_WITH_KNOTS('',3,(#411,#412,#413,#414,#415,#416,#417,
#418,#419,#420),.UNSPECIFIED.,.F.,.F.,(4,2,2,2,4),(0.679400253566817,0.736016185269448,
0.792632116972079,0.849249560863918,0.905867004755756),.UNSPECIFIED.);
#77=VERTEX_POINT('',#254);
#78=VERTEX_POINT('',#255);
#79=VERTEX_POINT('',#274);
#80=VERTEX_POINT('',#285);
#81=VERTEX_POINT('',#287);
#82=VERTEX_POINT('',#298);
#83=VERTEX_POINT('',#338);
#84=VERTEX_POINT('',#339);
#85=VERTEX_POINT('',#358);
#86=VERTEX_POINT('',#369);
#87=VERTEX_POINT('',#371);
#88=VERTEX_POINT('',#382);
#89=VERTEX_POINT('',#422);
#90=VERTEX_POINT('',#425);
#91=VERTEX_POINT('',#430);
#92=VERTEX_POINT('',#432);
#93=VERTEX_POINT('',#435);
#94=VERTEX_POINT('',#440);
#95=EDGE_CURVE('',#77,#78,#65,.T.);
#96=EDGE_CURVE('',#79,#77,#66,.T.);
#97=EDGE_CURVE('',#79,#80,#51,.T.);
#98=EDGE_CURVE('',#81,#80,#67,.T.);
#99=EDGE_CURVE('',#82,#81,#68,.T.);
#100=EDGE_CURVE('',#80,#82,#69,.T.);
#101=EDGE_CURVE('',#78,#79,#70,.T.);
#102=EDGE_CURVE('',#83,#84,#71,.T.);
#103=EDGE_CURVE('',#85,#83,#72,.T.);
#104=EDGE_CURVE('',#85,#86,#52,.T.);
#105=EDGE_CURVE('',#87,#86,#73,.T.);
#106=EDGE_CURVE('',#88,#87,#74,.T.);
#107=EDGE_CURVE('',#86,#88,#75,.T.);
#108=EDGE_CURVE('',#84,#85,#76,.T.);
#109=EDGE_CURVE('',#89,#89,#23,.T.);
#110=EDGE_CURVE('',#89,#87,#53,.T.);
#111=EDGE_CURVE('',#88,#90,#54,.T.);
#112=EDGE_CURVE('',#90,#90,#24,.T.);
#113=EDGE_CURVE('',#91,#91,#25,.T.);
#114=EDGE_CURVE('',#92,#92,#26,.T.);
#115=EDGE_CURVE('',#91,#93,#55,.T.);
#116=EDGE_CURVE('',#93,#93,#27,.T.);
#117=EDGE_CURVE('',#94,#94,#28,.T.);
#118=EDGE_CURVE('',#94,#81,#56,.T.);
#119=EDGE_CURVE('',#82,#92,#57,.T.);
#120=ORIENTED_EDGE('',*,*,#95,.F.);
#121=ORIENTED_EDGE('',*,*,#96,.F.);
#122=ORIENTED_EDGE('',*,*,#97,.T.);
#123=ORIENTED_EDGE('',*,*,#98,.F.);
#124=ORIENTED_EDGE('',*,*,#99,.F.);
#125=ORIENTED_EDGE('',*,*,#100,.F.);
#126=ORIENTED_EDGE('',*,*,#97,.F.);
#127=ORIENTED_EDGE('',*,*,#101,.F.);
#128=ORIENTED_EDGE('',*,*,#102,.F.);
#129=ORIENTED_EDGE('',*,*,#103,.F.);
#130=ORIENTED_EDGE('',*,*,#104,.T.);
#131=ORIENTED_EDGE('',*,*,#105,.F.);
#132=ORIENTED_EDGE('',*,*,#106,.F.);
#133=ORIENTED_EDGE('',*,*,#107,.F.);
#134=ORIENTED_EDGE('',*,*,#104,.F.);
#135=ORIENTED_EDGE('',*,*,#108,.F.);
#136=ORIENTED_EDGE('',*,*,#109,.F.);
#137=ORIENTED_EDGE('',*,*,#110,.T.);
#138=ORIENTED_EDGE('',*,*,#105,.T.);
#139=ORIENTED_EDGE('',*,*,#107,.T.);
#140=ORIENTED_EDGE('',*,*,#111,.T.);
#141=ORIENTED_EDGE('',*,*,#112,.T.);
#142=ORIENTED_EDGE('',*,*,#111,.F.);
#143=ORIENTED_EDGE('',*,*,#106,.T.);
#144=ORIENTED_EDGE('',*,*,#110,.F.);
#145=ORIENTED_EDGE('',*,*,#102,.T.);
#146=ORIENTED_EDGE('',*,*,#108,.T.);
#147=ORIENTED_EDGE('',*,*,#103,.T.);
#148=ORIENTED_EDGE('',*,*,#112,.F.);
#149=ORIENTED_EDGE('',*,*,#113,.T.);
#150=ORIENTED_EDGE('',*,*,#114,.F.);
#151=ORIENTED_EDGE('',*,*,#113,.F.);
#152=ORIENTED_EDGE('',*,*,#115,.T.);
#153=ORIENTED_EDGE('',*,*,#116,.T.);
#154=ORIENTED_EDGE('',*,*,#115,.F.);
#155=ORIENTED_EDGE('',*,*,#116,.F.);
#156=ORIENTED_EDGE('',*,*,#109,.T.);
#157=ORIENTED_EDGE('',*,*,#117,.F.);
#158=ORIENTED_EDGE('',*,*,#118,.T.);
#159=ORIENTED_EDGE('',*,*,#98,.T.);
#160=ORIENTED_EDGE('',*,*,#100,.T.);
#161=ORIENTED_EDGE('',*,*,#119,.T.);
#162=ORIENTED_EDGE('',*,*,#114,.T.);
#163=ORIENTED_EDGE('',*,*,#119,.F.);
#164=ORIENTED_EDGE('',*,*,#99,.T.);
#165=ORIENTED_EDGE('',*,*,#118,.F.);
#166=ORIENTED_EDGE('',*,*,#95,.T.);
#167=ORIENTED_EDGE('',*,*,#101,.T.);
#168=ORIENTED_EDGE('',*,*,#96,.T.);
#169=ORIENTED_EDGE('',*,*,#117,.T.);
#170=CYLINDRICAL_SURFACE('',#198,1.5);
#171=CYLINDRICAL_SURFACE('',#199,1.5);
#172=CYLINDRICAL_SURFACE('',#200,9.);
#173=CYLINDRICAL_SURFACE('',#207,10.);
#174=CYLINDRICAL_SURFACE('',#210,9.);
#175=ADVANCED_FACE('',(#29),#170,.F.);
#176=ADVANCED_FACE('',(#30),#171,.F.);
#177=ADVANCED_FACE('',(#31,#19),#172,.T.);
#178=ADVANCED_FACE('',(#32),#15,.F.);
#179=ADVANCED_FACE('',(#33,#20),#16,.T.);
#180=ADVANCED_FACE('',(#34),#173,.T.);
#181=ADVANCED_FACE('',(#35,#21),#17,.F.);
#182=ADVANCED_FACE('',(#36,#22),#174,.T.);
#183=ADVANCED_FACE('',(#37),#18,.T.);
#184=CLOSED_SHELL('',(#175,#176,#177,#178,#179,#180,#181,#182,#183));
#185=DERIVED_UNIT_ELEMENT(#187,1.);
#186=DERIVED_UNIT_ELEMENT(#450,-3.);
#187=(
MASS_UNIT()
NAMED_UNIT(*)
SI_UNIT(.KILO.,.GRAM.)
);
#188=DERIVED_UNIT((#185,#186));
#189=MEASURE_REPRESENTATION_ITEM('density measure',
POSITIVE_RATIO_MEASURE(7850.),#188);
#190=PROPERTY_DEFINITION_REPRESENTATION(#195,#192);
#191=PROPERTY_DEFINITION_REPRESENTATION(#196,#193);
#192=REPRESENTATION('material name',(#194),#447);
#193=REPRESENTATION('density',(#189),#447);
#194=DESCRIPTIVE_REPRESENTATION_ITEM('Acier','Acier');
#195=PROPERTY_DEFINITION('material property','material name',#457);
#196=PROPERTY_DEFINITION('material property','density of part',#457);
#197=AXIS2_PLACEMENT_3D('placement',#252,#213,#214);
#198=AXIS2_PLACEMENT_3D('',#253,#215,#216);
#199=AXIS2_PLACEMENT_3D('',#337,#218,#219);
#200=AXIS2_PLACEMENT_3D('',#421,#221,#222);
#201=AXIS2_PLACEMENT_3D('',#423,#223,#224);
#202=AXIS2_PLACEMENT_3D('',#427,#227,#228);
#203=AXIS2_PLACEMENT_3D('',#428,#229,#230);
#204=AXIS2_PLACEMENT_3D('',#429,#231,#232);
#205=AXIS2_PLACEMENT_3D('',#431,#233,#234);
#206=AXIS2_PLACEMENT_3D('',#433,#235,#236);
#207=AXIS2_PLACEMENT_3D('',#434,#237,#238);
#208=AXIS2_PLACEMENT_3D('',#437,#240,#241);
#209=AXIS2_PLACEMENT_3D('',#438,#242,#243);
#210=AXIS2_PLACEMENT_3D('',#439,#244,#245);
#211=AXIS2_PLACEMENT_3D('',#441,#246,#247);
#212=AXIS2_PLACEMENT_3D('',#444,#250,#251);
#213=DIRECTION('axis',(0.,0.,1.));
#214=DIRECTION('refdir',(1.,0.,0.));
#215=DIRECTION('center_axis',(-1.,0.,0.));
#216=DIRECTION('ref_axis',(0.,1.,0.));
#217=DIRECTION('',(-1.,0.,0.));
#218=DIRECTION('center_axis',(-1.,0.,0.));
#219=DIRECTION('ref_axis',(0.,1.,0.));
#220=DIRECTION('',(-1.,0.,0.));
#221=DIRECTION('center_axis',(0.,0.,1.));
#222=DIRECTION('ref_axis',(1.,0.,0.));
#223=DIRECTION('center_axis',(0.,0.,1.));
#224=DIRECTION('ref_axis',(1.,0.,0.));
#225=DIRECTION('',(0.,0.,-1.));
#226=DIRECTION('',(0.,0.,-1.));
#227=DIRECTION('center_axis',(0.,0.,1.));
#228=DIRECTION('ref_axis',(1.,0.,0.));
#229=DIRECTION('center_axis',(0.,0.,1.));
#230=DIRECTION('ref_axis',(1.,0.,0.));
#231=DIRECTION('center_axis',(0.,0.,1.));
#232=DIRECTION('ref_axis',(-1.,0.,0.));
#233=DIRECTION('center_axis',(0.,0.,1.));
#234=DIRECTION('ref_axis',(-1.,0.,0.));
#235=DIRECTION('center_axis',(0.,0.,1.));
#236=DIRECTION('ref_axis',(1.,0.,0.));
#237=DIRECTION('center_axis',(0.,0.,1.));
#238=DIRECTION('ref_axis',(-1.,0.,0.));
#239=DIRECTION('',(0.,0.,-1.));
#240=DIRECTION('center_axis',(0.,0.,1.));
#241=DIRECTION('ref_axis',(-1.,0.,0.));
#242=DIRECTION('center_axis',(0.,0.,1.));
#243=DIRECTION('ref_axis',(-1.,0.,0.));
#244=DIRECTION('center_axis',(0.,0.,1.));
#245=DIRECTION('ref_axis',(1.,0.,0.));
#246=DIRECTION('center_axis',(0.,0.,1.));
#247=DIRECTION('ref_axis',(1.,0.,0.));
#248=DIRECTION('',(0.,0.,-1.));
#249=DIRECTION('',(0.,0.,-1.));
#250=DIRECTION('center_axis',(0.,0.,1.));
#251=DIRECTION('ref_axis',(1.,0.,0.));
#252=CARTESIAN_POINT('',(0.,0.,0.));
#253=CARTESIAN_POINT('Origin',(-11.,0.,33.893012046814));
#254=CARTESIAN_POINT('',(9.,0.,35.393012046814));
#255=CARTESIAN_POINT('',(9.,0.,32.393012046814));
#256=CARTESIAN_POINT('Ctrl Pts',(9.,-2.77555756156289E-16,35.393012046814));
#257=CARTESIAN_POINT('Ctrl Pts',(9.,0.188719772342104,35.393012046814));
#258=CARTESIAN_POINT('Ctrl Pts',(8.99346082551818,0.389780010097441,35.3552243603138));
#259=CARTESIAN_POINT('Ctrl Pts',(8.96982776942594,0.759246906363101,35.2020336002494));
#260=CARTESIAN_POINT('Ctrl Pts',(8.95306300603488,0.927682550612657,35.086649839761));
#261=CARTESIAN_POINT('Ctrl Pts',(8.92149950416588,1.1936413447268,34.8206910456468));
#262=CARTESIAN_POINT('Ctrl Pts',(8.90463192176845,1.30902231930516,34.6522569262404));
#263=CARTESIAN_POINT('Ctrl Pts',(8.88076280470899,1.46221105653826,34.2827952682674));
#264=CARTESIAN_POINT('Ctrl Pts',(8.87411967464942,1.5,34.0817368597868));
#265=CARTESIAN_POINT('Ctrl Pts',(8.87411967464942,1.5,33.7042872338412));
#266=CARTESIAN_POINT('Ctrl Pts',(8.88076280470899,1.46221105653826,33.5032288253606));
#267=CARTESIAN_POINT('Ctrl Pts',(8.90463192176845,1.30902231930516,33.1337671673875));
#268=CARTESIAN_POINT('Ctrl Pts',(8.92149950416588,1.1936413447268,32.9653330479811));
#269=CARTESIAN_POINT('Ctrl Pts',(8.95306300603488,0.927682550612658,32.699374253867));
#270=CARTESIAN_POINT('Ctrl Pts',(8.96982776942594,0.759246906363101,32.5839904933785));
#271=CARTESIAN_POINT('Ctrl Pts',(8.99346082551818,0.389780010097441,32.4307997333141));
#272=CARTESIAN_POINT('Ctrl Pts',(9.,0.188719772342105,32.393012046814));
#273=CARTESIAN_POINT('Ctrl Pts',(9.,7.28583859910259E-16,32.393012046814));
#274=CARTESIAN_POINT('',(8.87411967464942,-1.5,33.893012046814));
#275=CARTESIAN_POINT('Ctrl Pts',(8.87411967464942,-1.5,33.893012046814));
#276=CARTESIAN_POINT('Ctrl Pts',(8.87411967464942,-1.5,34.0817368597868));
#277=CARTESIAN_POINT('Ctrl Pts',(8.88076280470899,-1.46221105653826,34.2827952682674));
#278=CARTESIAN_POINT('Ctrl Pts',(8.90463192176845,-1.30902231930516,34.6522569262404));
#279=CARTESIAN_POINT('Ctrl Pts',(8.92149950416588,-1.1936413447268,34.8206910456468));
#280=CARTESIAN_POINT('Ctrl Pts',(8.95306300603488,-0.927682550612657,35.086649839761));
#281=CARTESIAN_POINT('Ctrl Pts',(8.96982776942594,-0.759246906363101,35.2020336002494));
#282=CARTESIAN_POINT('Ctrl Pts',(8.99346082551818,-0.389780010097441,35.3552243603138));
#283=CARTESIAN_POINT('Ctrl Pts',(9.,-0.188719772342104,35.393012046814));
#284=CARTESIAN_POINT('Ctrl Pts',(9.,2.42861286636753E-16,35.393012046814));
#285=CARTESIAN_POINT('',(-8.87411967464942,-1.5,33.893012046814));
#286=CARTESIAN_POINT('',(-11.,-1.5,33.893012046814));
#287=CARTESIAN_POINT('',(-9.,-3.94965946778396E-16,35.393012046814));
#288=CARTESIAN_POINT('Ctrl Pts',(-9.,1.73472347597681E-16,35.393012046814));
#289=CARTESIAN_POINT('Ctrl Pts',(-9.,-0.188719772342104,35.393012046814));
#290=CARTESIAN_POINT('Ctrl Pts',(-8.99346082551818,-0.389780010097442,35.3552243603138));
#291=CARTESIAN_POINT('Ctrl Pts',(-8.96982776942594,-0.759246906363102,35.2020336002494));
#292=CARTESIAN_POINT('Ctrl Pts',(-8.95306300603488,-0.927682550612657,35.086649839761));
#293=CARTESIAN_POINT('Ctrl Pts',(-8.92149950416588,-1.1936413447268,34.8206910456468));
#294=CARTESIAN_POINT('Ctrl Pts',(-8.90463192176845,-1.30902231930516,34.6522569262404));
#295=CARTESIAN_POINT('Ctrl Pts',(-8.88076280470899,-1.46221105653826,34.2827952682674));
#296=CARTESIAN_POINT('Ctrl Pts',(-8.87411967464942,-1.5,34.0817368597868));
#297=CARTESIAN_POINT('Ctrl Pts',(-8.87411967464942,-1.5,33.893012046814));
#298=CARTESIAN_POINT('',(-9.,-5.16396590096773E-16,32.393012046814));
#299=CARTESIAN_POINT('Ctrl Pts',(-9.,2.42861286636753E-16,32.393012046814));
#300=CARTESIAN_POINT('Ctrl Pts',(-9.,0.188719772342105,32.393012046814));
#301=CARTESIAN_POINT('Ctrl Pts',(-8.99346082551818,0.389780010097441,32.4307997333141));
#302=CARTESIAN_POINT('Ctrl Pts',(-8.96982776942594,0.759246906363101,32.5839904933785));
#303=CARTESIAN_POINT('Ctrl Pts',(-8.95306300603488,0.927682550612658,32.699374253867));
#304=CARTESIAN_POINT('Ctrl Pts',(-8.92149950416588,1.1936413447268,32.9653330479811));
#305=CARTESIAN_POINT('Ctrl Pts',(-8.90463192176845,1.30902231930516,33.1337671673875));
#306=CARTESIAN_POINT('Ctrl Pts',(-8.88076280470899,1.46221105653826,33.5032288253606));
#307=CARTESIAN_POINT('Ctrl Pts',(-8.87411967464942,1.5,33.7042872338412));
#308=CARTESIAN_POINT('Ctrl Pts',(-8.87411967464942,1.5,34.0817368597868));
#309=CARTESIAN_POINT('Ctrl Pts',(-8.88076280470899,1.46221105653826,34.2827952682674));
#310=CARTESIAN_POINT('Ctrl Pts',(-8.90463192176845,1.30902231930516,34.6522569262404));
#311=CARTESIAN_POINT('Ctrl Pts',(-8.92149950416588,1.1936413447268,34.8206910456468));
#312=CARTESIAN_POINT('Ctrl Pts',(-8.95306300603488,0.927682550612657,35.086649839761));
#313=CARTESIAN_POINT('Ctrl Pts',(-8.96982776942594,0.759246906363101,35.2020336002494));
#314=CARTESIAN_POINT('Ctrl Pts',(-8.99346082551818,0.389780010097441,35.3552243603138));
#315=CARTESIAN_POINT('Ctrl Pts',(-9.,0.188719772342104,35.393012046814));
#316=CARTESIAN_POINT('Ctrl Pts',(-9.,-4.85722573273506E-16,35.393012046814));
#317=CARTESIAN_POINT('Ctrl Pts',(-8.87411967464942,-1.5,33.893012046814));
#318=CARTESIAN_POINT('Ctrl Pts',(-8.87411967464942,-1.5,33.7042872338412));
#319=CARTESIAN_POINT('Ctrl Pts',(-8.88076280470899,-1.46221105653826,33.5032288253606));
#320=CARTESIAN_POINT('Ctrl Pts',(-8.90463192176845,-1.30902231930516,33.1337671673875));
#321=CARTESIAN_POINT('Ctrl Pts',(-8.92149950416588,-1.1936413447268,32.9653330479811));
#322=CARTESIAN_POINT('Ctrl Pts',(-8.95306300603488,-0.927682550612655,32.699374253867));
#323=CARTESIAN_POINT('Ctrl Pts',(-8.96982776942594,-0.7592469063631,32.5839904933785));
#324=CARTESIAN_POINT('Ctrl Pts',(-8.99346082551818,-0.38978001009744,32.4307997333141));
#325=CARTESIAN_POINT('Ctrl Pts',(-9.,-0.188719772342103,32.393012046814));
#326=CARTESIAN_POINT('Ctrl Pts',(-9.,6.59194920871187E-16,32.393012046814));
#327=CARTESIAN_POINT('Ctrl Pts',(9.,5.20417042793042E-16,32.393012046814));
#328=CARTESIAN_POINT('Ctrl Pts',(9.,-0.188719772342103,32.393012046814));
#329=CARTESIAN_POINT('Ctrl Pts',(8.99346082551818,-0.38978001009744,32.4307997333141));
#330=CARTESIAN_POINT('Ctrl Pts',(8.96982776942594,-0.7592469063631,32.5839904933785));
#331=CARTESIAN_POINT('Ctrl Pts',(8.95306300603488,-0.927682550612655,32.699374253867));
#332=CARTESIAN_POINT('Ctrl Pts',(8.92149950416588,-1.1936413447268,32.9653330479811));
#333=CARTESIAN_POINT('Ctrl Pts',(8.90463192176846,-1.30902231930516,33.1337671673875));
#334=CARTESIAN_POINT('Ctrl Pts',(8.88076280470899,-1.46221105653826,33.5032288253606));
#335=CARTESIAN_POINT('Ctrl Pts',(8.87411967464942,-1.5,33.7042872338412));
#336=CARTESIAN_POINT('Ctrl Pts',(8.87411967464942,-1.5,33.893012046814));
#337=CARTESIAN_POINT('Origin',(-11.,0.,9.07189846038818));
#338=CARTESIAN_POINT('',(9.,0.,10.5718984603882));
#339=CARTESIAN_POINT('',(9.,0.,7.57189846038818));
#340=CARTESIAN_POINT('Ctrl Pts',(9.,-2.77555756156289E-16,10.5718984603882));
#341=CARTESIAN_POINT('Ctrl Pts',(9.,0.188719772342104,10.5718984603882));
#342=CARTESIAN_POINT('Ctrl Pts',(8.99346082551818,0.38978001009744,10.534110773888));
#343=CARTESIAN_POINT('Ctrl Pts',(8.96982776942594,0.7592469063631,10.3809200138236));
#344=CARTESIAN_POINT('Ctrl Pts',(8.95306300603488,0.927682550612657,10.2655362533352));
#345=CARTESIAN_POINT('Ctrl Pts',(8.92149950416588,1.1936413447268,9.99957745922102));
#346=CARTESIAN_POINT('Ctrl Pts',(8.90463192176846,1.30902231930516,9.83114333981463));
#347=CARTESIAN_POINT('Ctrl Pts',(8.88076280470899,1.46221105653826,9.46168168184157));
#348=CARTESIAN_POINT('Ctrl Pts',(8.87411967464942,1.5,9.26062327336098));
#349=CARTESIAN_POINT('Ctrl Pts',(8.87411967464942,1.5,8.88317364741539));
#350=CARTESIAN_POINT('Ctrl Pts',(8.88076280470899,1.46221105653826,8.6821152389348));
#351=CARTESIAN_POINT('Ctrl Pts',(8.90463192176845,1.30902231930516,8.31265358096174));
#352=CARTESIAN_POINT('Ctrl Pts',(8.92149950416588,1.1936413447268,8.14421946155534));
#353=CARTESIAN_POINT('Ctrl Pts',(8.95306300603488,0.927682550612658,7.8782606674412));
#354=CARTESIAN_POINT('Ctrl Pts',(8.96982776942594,0.7592469063631,7.76287690695274));
#355=CARTESIAN_POINT('Ctrl Pts',(8.99346082551818,0.38978001009744,7.60968614688832));
#356=CARTESIAN_POINT('Ctrl Pts',(9.,0.188719772342105,7.57189846038818));
#357=CARTESIAN_POINT('Ctrl Pts',(9.,4.5102810375397E-16,7.57189846038818));
#358=CARTESIAN_POINT('',(8.87411967464942,-1.5,9.07189846038818));
#359=CARTESIAN_POINT('Ctrl Pts',(8.87411967464942,-1.5,9.07189846038818));
#360=CARTESIAN_POINT('Ctrl Pts',(8.87411967464942,-1.5,9.26062327336098));
#361=CARTESIAN_POINT('Ctrl Pts',(8.88076280470899,-1.46221105653826,9.46168168184157));
#362=CARTESIAN_POINT('Ctrl Pts',(8.90463192176846,-1.30902231930516,9.83114333981463));
#363=CARTESIAN_POINT('Ctrl Pts',(8.92149950416588,-1.1936413447268,9.99957745922102));
#364=CARTESIAN_POINT('Ctrl Pts',(8.95306300603488,-0.927682550612657,10.2655362533352));
#365=CARTESIAN_POINT('Ctrl Pts',(8.96982776942594,-0.7592469063631,10.3809200138236));
#366=CARTESIAN_POINT('Ctrl Pts',(8.99346082551818,-0.38978001009744,10.534110773888));
#367=CARTESIAN_POINT('Ctrl Pts',(9.,-0.188719772342104,10.5718984603882));
#368=CARTESIAN_POINT('Ctrl Pts',(9.,-1.38777878078145E-16,10.5718984603882));
#369=CARTESIAN_POINT('',(-8.87411967464942,-1.5,9.07189846038818));
#370=CARTESIAN_POINT('',(-11.,-1.5,9.07189846038818));
#371=CARTESIAN_POINT('',(-9.,-6.20479998655381E-16,10.5718984603882));
#372=CARTESIAN_POINT('Ctrl Pts',(-9.,-1.38777878078145E-16,10.5718984603882));
#373=CARTESIAN_POINT('Ctrl Pts',(-9.,-0.188719772342104,10.5718984603882));
#374=CARTESIAN_POINT('Ctrl Pts',(-8.99346082551818,-0.38978001009744,10.534110773888));
#375=CARTESIAN_POINT('Ctrl Pts',(-8.96982776942594,-0.7592469063631,10.3809200138236));
#376=CARTESIAN_POINT('Ctrl Pts',(-8.95306300603488,-0.927682550612657,10.2655362533352));
#377=CARTESIAN_POINT('Ctrl Pts',(-8.92149950416588,-1.1936413447268,9.99957745922102));
#378=CARTESIAN_POINT('Ctrl Pts',(-8.90463192176845,-1.30902231930516,9.83114333981463));
#379=CARTESIAN_POINT('Ctrl Pts',(-8.88076280470899,-1.46221105653826,9.46168168184157));
#380=CARTESIAN_POINT('Ctrl Pts',(-8.87411967464942,-1.5,9.26062327336098));
#381=CARTESIAN_POINT('Ctrl Pts',(-8.87411967464942,-1.5,9.07189846038818));
#382=CARTESIAN_POINT('',(-9.,-3.08229772979556E-16,7.57189846038818));
#383=CARTESIAN_POINT('Ctrl Pts',(-9.,5.20417042793042E-16,7.57189846038818));
#384=CARTESIAN_POINT('Ctrl Pts',(-9.,0.188719772342105,7.57189846038818));
#385=CARTESIAN_POINT('Ctrl Pts',(-8.99346082551818,0.389780010097441,7.60968614688832));
#386=CARTESIAN_POINT('Ctrl Pts',(-8.96982776942594,0.759246906363101,7.76287690695274));
#387=CARTESIAN_POINT('Ctrl Pts',(-8.95306300603488,0.927682550612658,7.8782606674412));
#388=CARTESIAN_POINT('Ctrl Pts',(-8.92149950416588,1.1936413447268,8.14421946155534));
#389=CARTESIAN_POINT('Ctrl Pts',(-8.90463192176846,1.30902231930516,8.31265358096174));
#390=CARTESIAN_POINT('Ctrl Pts',(-8.88076280470899,1.46221105653826,8.6821152389348));
#391=CARTESIAN_POINT('Ctrl Pts',(-8.87411967464942,1.5,8.88317364741539));
#392=CARTESIAN_POINT('Ctrl Pts',(-8.87411967464942,1.5,9.26062327336098));
#393=CARTESIAN_POINT('Ctrl Pts',(-8.88076280470899,1.46221105653826,9.46168168184157));
#394=CARTESIAN_POINT('Ctrl Pts',(-8.90463192176846,1.30902231930516,9.83114333981463));
#395=CARTESIAN_POINT('Ctrl Pts',(-8.92149950416588,1.1936413447268,9.99957745922102));
#396=CARTESIAN_POINT('Ctrl Pts',(-8.95306300603488,0.927682550612657,10.2655362533352));
#397=CARTESIAN_POINT('Ctrl Pts',(-8.96982776942594,0.759246906363101,10.3809200138236));
#398=CARTESIAN_POINT('Ctrl Pts',(-8.99346082551818,0.38978001009744,10.534110773888));
#399=CARTESIAN_POINT('Ctrl Pts',(-9.,0.188719772342104,10.5718984603882));
#400=CARTESIAN_POINT('Ctrl Pts',(-9.,-4.16333634234434E-16,10.5718984603882));
#401=CARTESIAN_POINT('Ctrl Pts',(-8.87411967464942,-1.5,9.07189846038818));
#402=CARTESIAN_POINT('Ctrl Pts',(-8.87411967464942,-1.5,8.88317364741539));
#403=CARTESIAN_POINT('Ctrl Pts',(-8.88076280470899,-1.46221105653826,8.6821152389348));
#404=CARTESIAN_POINT('Ctrl Pts',(-8.90463192176846,-1.30902231930516,8.31265358096173));
#405=CARTESIAN_POINT('Ctrl Pts',(-8.92149950416588,-1.1936413447268,8.14421946155534));
#406=CARTESIAN_POINT('Ctrl Pts',(-8.95306300603488,-0.927682550612655,7.8782606674412));
#407=CARTESIAN_POINT('Ctrl Pts',(-8.96982776942594,-0.759246906363098,7.76287690695274));
#408=CARTESIAN_POINT('Ctrl Pts',(-8.99346082551818,-0.389780010097438,7.60968614688833));
#409=CARTESIAN_POINT('Ctrl Pts',(-9.,-0.188719772342104,7.57189846038818));
#410=CARTESIAN_POINT('Ctrl Pts',(-9.,4.5102810375397E-16,7.57189846038818));
#411=CARTESIAN_POINT('Ctrl Pts',(9.,6.24500451351651E-16,7.57189846038818));
#412=CARTESIAN_POINT('Ctrl Pts',(9.,-0.188719772342104,7.57189846038818));
#413=CARTESIAN_POINT('Ctrl Pts',(8.99346082551818,-0.389780010097439,7.60968614688832));
#414=CARTESIAN_POINT('Ctrl Pts',(8.96982776942594,-0.759246906363099,7.76287690695274));
#415=CARTESIAN_POINT('Ctrl Pts',(8.95306300603488,-0.927682550612656,7.8782606674412));
#416=CARTESIAN_POINT('Ctrl Pts',(8.92149950416588,-1.1936413447268,8.14421946155534));
#417=CARTESIAN_POINT('Ctrl Pts',(8.90463192176846,-1.30902231930516,8.31265358096173));
#418=CARTESIAN_POINT('Ctrl Pts',(8.88076280470899,-1.46221105653826,8.6821152389348));
#419=CARTESIAN_POINT('Ctrl Pts',(8.87411967464942,-1.5,8.88317364741539));
#420=CARTESIAN_POINT('Ctrl Pts',(8.87411967464942,-1.5,9.07189846038818));
#421=CARTESIAN_POINT('Origin',(0.,0.,0.));
#422=CARTESIAN_POINT('',(-9.,-1.10218211923262E-15,20.));
#423=CARTESIAN_POINT('Origin',(0.,0.,20.));
#424=CARTESIAN_POINT('',(-9.,-1.10218211923262E-15,0.));
#425=CARTESIAN_POINT('',(-9.,-1.10218211923262E-15,0.));
#426=CARTESIAN_POINT('',(-9.,-1.10218211923262E-15,0.));
#427=CARTESIAN_POINT('Origin',(0.,0.,0.));
#428=CARTESIAN_POINT('Origin',(0.,0.,0.));
#429=CARTESIAN_POINT('Origin',(0.,0.,22.));
#430=CARTESIAN_POINT('',(10.,1.22464679914735E-15,22.));
#431=CARTESIAN_POINT('Origin',(0.,0.,22.));
#432=CARTESIAN_POINT('',(-9.,-1.10218211923262E-15,22.));
#433=CARTESIAN_POINT('Origin',(0.,0.,22.));
#434=CARTESIAN_POINT('Origin',(0.,0.,20.));
#435=CARTESIAN_POINT('',(10.,1.22464679914735E-15,20.));
#436=CARTESIAN_POINT('',(10.,1.22464679914735E-15,20.));
#437=CARTESIAN_POINT('Origin',(0.,0.,20.));
#438=CARTESIAN_POINT('Origin',(0.,0.,20.));
#439=CARTESIAN_POINT('Origin',(0.,0.,22.));
#440=CARTESIAN_POINT('',(-9.,-1.10218211923262E-15,42.));
#441=CARTESIAN_POINT('Origin',(0.,0.,42.));
#442=CARTESIAN_POINT('',(-9.,-1.10218211923262E-15,22.));
#443=CARTESIAN_POINT('',(-9.,-1.10218211923262E-15,22.));
#444=CARTESIAN_POINT('Origin',(0.,0.,42.));
#445=UNCERTAINTY_MEASURE_WITH_UNIT(LENGTH_MEASURE(0.01),#449,
'DISTANCE_ACCURACY_VALUE',
'Maximum model space distance between geometric entities at asserted c
onnectivities');
#446=UNCERTAINTY_MEASURE_WITH_UNIT(LENGTH_MEASURE(0.01),#449,
'DISTANCE_ACCURACY_VALUE',
'Maximum model space distance between geometric entities at asserted c
onnectivities');
#447=(
GEOMETRIC_REPRESENTATION_CONTEXT(3)
GLOBAL_UNCERTAINTY_ASSIGNED_CONTEXT((#445))
GLOBAL_UNIT_ASSIGNED_CONTEXT((#449,#451,#452))
REPRESENTATION_CONTEXT('','3D')
);
#448=(
GEOMETRIC_REPRESENTATION_CONTEXT(3)
GLOBAL_UNCERTAINTY_ASSIGNED_CONTEXT((#446))
GLOBAL_UNIT_ASSIGNED_CONTEXT((#449,#451,#452))
REPRESENTATION_CONTEXT('','3D')
);
#449=(
LENGTH_UNIT()
NAMED_UNIT(*)
SI_UNIT(.MILLI.,.METRE.)
);
#450=(
LENGTH_UNIT()
NAMED_UNIT(*)
SI_UNIT($,.METRE.)
);
#451=(
NAMED_UNIT(*)
PLANE_ANGLE_UNIT()
SI_UNIT($,.RADIAN.)
);
#452=(
NAMED_UNIT(*)
SI_UNIT($,.STERADIAN.)
SOLID_ANGLE_UNIT()
);
#453=SHAPE_DEFINITION_REPRESENTATION(#454,#455);
#454=PRODUCT_DEFINITION_SHAPE('',$,#457);
#455=SHAPE_REPRESENTATION('',(#197),#447);
#456=PRODUCT_DEFINITION_CONTEXT('part definition',#461,'design');
#457=PRODUCT_DEFINITION('insert alu double male',
'insert alu double male v1',#458,#456);
#458=PRODUCT_DEFINITION_FORMATION('',$,#463);
#459=PRODUCT_RELATED_PRODUCT_CATEGORY('insert alu double male v1',
'insert alu double male v1',(#463));
#460=APPLICATION_PROTOCOL_DEFINITION('international standard',
'automotive_design',2009,#461);
#461=APPLICATION_CONTEXT(
'Core Data for Automotive Mechanical Design Process');
#462=PRODUCT_CONTEXT('part definition',#461,'mechanical');
#463=PRODUCT('insert alu double male','insert alu double male v1',$,(#462));
#464=PRESENTATION_STYLE_ASSIGNMENT((#465));
#465=SURFACE_STYLE_USAGE(.BOTH.,#466);
#466=SURFACE_SIDE_STYLE('',(#467));
#467=SURFACE_STYLE_FILL_AREA(#468);
#468=FILL_AREA_STYLE('Acier - Satin\X\E9',(#469));
#469=FILL_AREA_STYLE_COLOUR('Acier - Satin\X\E9',#470);
#470=COLOUR_RGB('Acier - Satin\X\E9',0.627450980392157,0.627450980392157,
0.627450980392157);
ENDSEC;
END-ISO-10303-21;
