ISO-10303-21;
HEADER;
/* Generated by software containing ST-Developer
 * from STEP Tools, Inc. (www.steptools.com) 
 */

FILE_DESCRIPTION(
/* description */ (''),
/* implementation_level */ '2;1');

FILE_NAME(
/* name */ 
'C:/Users/cofy3/OneDrive/Bureau/RAPTOR   STEP/ENTRETOISE ALUMINIUM/N\X\B0
4 ENTRETOISE BATTERIE v1.step',
/* time_stamp */ '2022-03-06T23:06:39+01:00',
/* author */ (''),
/* organization */ (''),
/* preprocessor_version */ 'ST-DEVELOPER v18.1',
/* originating_system */ 'Autodesk Translation Framework v10.13.0.1454',

/* authorisation */ '');

FILE_SCHEMA (('AUTOMOTIVE_DESIGN { 1 0 10303 214 3 1 1 }'));
ENDSEC;

DATA;
#10=MECHANICAL_DESIGN_GEOMETRIC_PRESENTATION_REPRESENTATION('',(#13),#517);
#11=SHAPE_REPRESENTATION_RELATIONSHIP('SRR','None',#524,#12);
#12=ADVANCED_BREP_SHAPE_REPRESENTATION('',(#14),#516);
#13=STYLED_ITEM('',(#533),#14);
#14=MANIFOLD_SOLID_BREP('Corps1',#292);
#15=FACE_BOUND('',#73,.T.);
#16=FACE_BOUND('',#76,.T.);
#17=FACE_BOUND('',#79,.T.);
#18=ELLIPSE('',#326,4.00411160211615,4.00000020861626);
#19=CYLINDRICAL_SURFACE('',#311,2.5);
#20=CYLINDRICAL_SURFACE('',#315,2.5);
#21=CYLINDRICAL_SURFACE('',#335,4.00000020861626);
#22=CONICAL_SURFACE('',#309,1.25,1.02974425867665);
#23=CONICAL_SURFACE('',#313,1.25,1.02974425867665);
#24=CONICAL_SURFACE('',#333,5.00000022351742,0.785398368288454);
#25=CONICAL_SURFACE('',#337,5.00000022351742,1.10714877739874);
#26=CIRCLE('',#308,4.00000020861626);
#27=CIRCLE('',#310,2.5);
#28=CIRCLE('',#312,2.5);
#29=CIRCLE('',#314,2.5);
#30=CIRCLE('',#316,2.5);
#31=CIRCLE('',#318,4.00000020861629);
#32=CIRCLE('',#321,4.00000020861626);
#33=CIRCLE('',#323,4.00000020861626);
#34=CIRCLE('',#324,4.00000020861626);
#35=CIRCLE('',#328,4.00000020861626);
#36=CIRCLE('',#329,4.00000020861626);
#37=CIRCLE('',#332,6.00000023841858);
#38=CIRCLE('',#334,4.00000020861626);
#39=CIRCLE('',#336,4.00000020861626);
#40=CIRCLE('',#338,6.00000023841858);
#41=FACE_OUTER_BOUND('',#59,.T.);
#42=FACE_OUTER_BOUND('',#60,.T.);
#43=FACE_OUTER_BOUND('',#61,.T.);
#44=FACE_OUTER_BOUND('',#62,.T.);
#45=FACE_OUTER_BOUND('',#63,.T.);
#46=FACE_OUTER_BOUND('',#64,.T.);
#47=FACE_OUTER_BOUND('',#65,.T.);
#48=FACE_OUTER_BOUND('',#66,.T.);
#49=FACE_OUTER_BOUND('',#67,.T.);
#50=FACE_OUTER_BOUND('',#68,.T.);
#51=FACE_OUTER_BOUND('',#69,.T.);
#52=FACE_OUTER_BOUND('',#70,.T.);
#53=FACE_OUTER_BOUND('',#71,.T.);
#54=FACE_OUTER_BOUND('',#72,.T.);
#55=FACE_OUTER_BOUND('',#74,.T.);
#56=FACE_OUTER_BOUND('',#75,.T.);
#57=FACE_OUTER_BOUND('',#77,.T.);
#58=FACE_OUTER_BOUND('',#78,.T.);
#59=EDGE_LOOP('',(#187,#188,#189));
#60=EDGE_LOOP('',(#190,#191,#192));
#61=EDGE_LOOP('',(#193,#194,#195));
#62=EDGE_LOOP('',(#196,#197,#198,#199));
#63=EDGE_LOOP('',(#200,#201,#202));
#64=EDGE_LOOP('',(#203,#204,#205,#206));
#65=EDGE_LOOP('',(#207,#208,#209));
#66=EDGE_LOOP('',(#210,#211,#212,#213,#214));
#67=EDGE_LOOP('',(#215,#216));
#68=EDGE_LOOP('',(#217,#218,#219));
#69=EDGE_LOOP('',(#220,#221,#222));
#70=EDGE_LOOP('',(#223,#224,#225,#226,#227));
#71=EDGE_LOOP('',(#228,#229,#230,#231));
#72=EDGE_LOOP('',(#232));
#73=EDGE_LOOP('',(#233));
#74=EDGE_LOOP('',(#234,#235,#236,#237));
#75=EDGE_LOOP('',(#238,#239,#240,#241,#242,#243,#244,#245,#246,#247,#248,
#249,#250,#251));
#76=EDGE_LOOP('',(#252,#253,#254,#255,#256));
#77=EDGE_LOOP('',(#257,#258,#259,#260));
#78=EDGE_LOOP('',(#261));
#79=EDGE_LOOP('',(#262));
#80=LINE('',#436,#102);
#81=LINE('',#438,#103);
#82=LINE('',#439,#104);
#83=LINE('',#445,#105);
#84=LINE('',#446,#106);
#85=LINE('',#451,#107);
#86=LINE('',#455,#108);
#87=LINE('',#460,#109);
#88=LINE('',#464,#110);
#89=LINE('',#468,#111);
#90=LINE('',#471,#112);
#91=LINE('',#473,#113);
#92=LINE('',#474,#114);
#93=LINE('',#482,#115);
#94=LINE('',#487,#116);
#95=LINE('',#493,#117);
#96=LINE('',#495,#118);
#97=LINE('',#496,#119);
#98=LINE('',#503,#120);
#99=LINE('',#507,#121);
#100=LINE('',#508,#122);
#101=LINE('',#512,#123);
#102=VECTOR('',#344,10.);
#103=VECTOR('',#345,10.);
#104=VECTOR('',#346,10.);
#105=VECTOR('',#351,10.);
#106=VECTOR('',#352,10.);
#107=VECTOR('',#357,1.25);
#108=VECTOR('',#362,2.5);
#109=VECTOR('',#367,1.25);
#110=VECTOR('',#372,2.5);
#111=VECTOR('',#377,10.);
#112=VECTOR('',#380,10.);
#113=VECTOR('',#381,10.);
#114=VECTOR('',#382,10.);
#115=VECTOR('',#391,10.);
#116=VECTOR('',#398,10.);
#117=VECTOR('',#405,10.);
#118=VECTOR('',#408,10.);
#119=VECTOR('',#409,10.);
#120=VECTOR('',#418,5.00000022351742);
#121=VECTOR('',#423,4.00000020861626);
#122=VECTOR('',#424,4.00000020861626);
#123=VECTOR('',#429,5.00000022351742);
#124=VERTEX_POINT('',#434);
#125=VERTEX_POINT('',#435);
#126=VERTEX_POINT('',#437);
#127=VERTEX_POINT('',#441);
#128=VERTEX_POINT('',#442);
#129=VERTEX_POINT('',#444);
#130=VERTEX_POINT('',#448);
#131=VERTEX_POINT('',#450);
#132=VERTEX_POINT('',#453);
#133=VERTEX_POINT('',#457);
#134=VERTEX_POINT('',#459);
#135=VERTEX_POINT('',#462);
#136=VERTEX_POINT('',#466);
#137=VERTEX_POINT('',#470);
#138=VERTEX_POINT('',#472);
#139=VERTEX_POINT('',#478);
#140=VERTEX_POINT('',#479);
#141=VERTEX_POINT('',#481);
#142=VERTEX_POINT('',#485);
#143=VERTEX_POINT('',#489);
#144=VERTEX_POINT('',#491);
#145=VERTEX_POINT('',#498);
#146=VERTEX_POINT('',#501);
#147=VERTEX_POINT('',#505);
#148=VERTEX_POINT('',#510);
#149=EDGE_CURVE('',#124,#125,#80,.T.);
#150=EDGE_CURVE('',#126,#124,#81,.T.);
#151=EDGE_CURVE('',#125,#126,#82,.T.);
#152=EDGE_CURVE('',#127,#128,#26,.T.);
#153=EDGE_CURVE('',#129,#127,#83,.T.);
#154=EDGE_CURVE('',#128,#129,#84,.T.);
#155=EDGE_CURVE('',#130,#130,#27,.T.);
#156=EDGE_CURVE('',#130,#131,#85,.T.);
#157=EDGE_CURVE('',#132,#132,#28,.T.);
#158=EDGE_CURVE('',#132,#130,#86,.T.);
#159=EDGE_CURVE('',#133,#133,#29,.T.);
#160=EDGE_CURVE('',#133,#134,#87,.T.);
#161=EDGE_CURVE('',#135,#135,#30,.T.);
#162=EDGE_CURVE('',#135,#133,#88,.T.);
#163=EDGE_CURVE('',#128,#136,#31,.T.);
#164=EDGE_CURVE('',#129,#136,#89,.T.);
#165=EDGE_CURVE('',#136,#137,#90,.T.);
#166=EDGE_CURVE('',#138,#127,#91,.T.);
#167=EDGE_CURVE('',#137,#138,#92,.T.);
#168=EDGE_CURVE('',#137,#138,#32,.T.);
#169=EDGE_CURVE('',#139,#140,#33,.T.);
#170=EDGE_CURVE('',#139,#141,#93,.T.);
#171=EDGE_CURVE('',#140,#141,#34,.T.);
#172=EDGE_CURVE('',#124,#142,#18,.T.);
#173=EDGE_CURVE('',#125,#142,#94,.T.);
#174=EDGE_CURVE('',#142,#143,#35,.T.);
#175=EDGE_CURVE('',#144,#126,#36,.T.);
#176=EDGE_CURVE('',#143,#144,#95,.T.);
#177=EDGE_CURVE('',#143,#139,#96,.T.);
#178=EDGE_CURVE('',#141,#144,#97,.T.);
#179=EDGE_CURVE('',#145,#145,#37,.T.);
#180=EDGE_CURVE('',#146,#146,#38,.T.);
#181=EDGE_CURVE('',#146,#145,#98,.T.);
#182=EDGE_CURVE('',#147,#147,#39,.T.);
#183=EDGE_CURVE('',#147,#140,#99,.T.);
#184=EDGE_CURVE('',#126,#146,#100,.T.);
#185=EDGE_CURVE('',#148,#148,#40,.T.);
#186=EDGE_CURVE('',#148,#147,#101,.T.);
#187=ORIENTED_EDGE('',*,*,#149,.F.);
#188=ORIENTED_EDGE('',*,*,#150,.F.);
#189=ORIENTED_EDGE('',*,*,#151,.F.);
#190=ORIENTED_EDGE('',*,*,#152,.F.);
#191=ORIENTED_EDGE('',*,*,#153,.F.);
#192=ORIENTED_EDGE('',*,*,#154,.F.);
#193=ORIENTED_EDGE('',*,*,#155,.F.);
#194=ORIENTED_EDGE('',*,*,#156,.T.);
#195=ORIENTED_EDGE('',*,*,#156,.F.);
#196=ORIENTED_EDGE('',*,*,#157,.F.);
#197=ORIENTED_EDGE('',*,*,#158,.T.);
#198=ORIENTED_EDGE('',*,*,#155,.T.);
#199=ORIENTED_EDGE('',*,*,#158,.F.);
#200=ORIENTED_EDGE('',*,*,#159,.F.);
#201=ORIENTED_EDGE('',*,*,#160,.T.);
#202=ORIENTED_EDGE('',*,*,#160,.F.);
#203=ORIENTED_EDGE('',*,*,#161,.F.);
#204=ORIENTED_EDGE('',*,*,#162,.T.);
#205=ORIENTED_EDGE('',*,*,#159,.T.);
#206=ORIENTED_EDGE('',*,*,#162,.F.);
#207=ORIENTED_EDGE('',*,*,#163,.F.);
#208=ORIENTED_EDGE('',*,*,#154,.T.);
#209=ORIENTED_EDGE('',*,*,#164,.T.);
#210=ORIENTED_EDGE('',*,*,#165,.F.);
#211=ORIENTED_EDGE('',*,*,#164,.F.);
#212=ORIENTED_EDGE('',*,*,#153,.T.);
#213=ORIENTED_EDGE('',*,*,#166,.F.);
#214=ORIENTED_EDGE('',*,*,#167,.F.);
#215=ORIENTED_EDGE('',*,*,#168,.F.);
#216=ORIENTED_EDGE('',*,*,#167,.T.);
#217=ORIENTED_EDGE('',*,*,#169,.F.);
#218=ORIENTED_EDGE('',*,*,#170,.T.);
#219=ORIENTED_EDGE('',*,*,#171,.F.);
#220=ORIENTED_EDGE('',*,*,#172,.F.);
#221=ORIENTED_EDGE('',*,*,#149,.T.);
#222=ORIENTED_EDGE('',*,*,#173,.T.);
#223=ORIENTED_EDGE('',*,*,#174,.F.);
#224=ORIENTED_EDGE('',*,*,#173,.F.);
#225=ORIENTED_EDGE('',*,*,#151,.T.);
#226=ORIENTED_EDGE('',*,*,#175,.F.);
#227=ORIENTED_EDGE('',*,*,#176,.F.);
#228=ORIENTED_EDGE('',*,*,#177,.F.);
#229=ORIENTED_EDGE('',*,*,#176,.T.);
#230=ORIENTED_EDGE('',*,*,#178,.F.);
#231=ORIENTED_EDGE('',*,*,#170,.F.);
#232=ORIENTED_EDGE('',*,*,#179,.F.);
#233=ORIENTED_EDGE('',*,*,#157,.T.);
#234=ORIENTED_EDGE('',*,*,#180,.F.);
#235=ORIENTED_EDGE('',*,*,#181,.T.);
#236=ORIENTED_EDGE('',*,*,#179,.T.);
#237=ORIENTED_EDGE('',*,*,#181,.F.);
#238=ORIENTED_EDGE('',*,*,#182,.F.);
#239=ORIENTED_EDGE('',*,*,#183,.T.);
#240=ORIENTED_EDGE('',*,*,#171,.T.);
#241=ORIENTED_EDGE('',*,*,#178,.T.);
#242=ORIENTED_EDGE('',*,*,#175,.T.);
#243=ORIENTED_EDGE('',*,*,#184,.T.);
#244=ORIENTED_EDGE('',*,*,#180,.T.);
#245=ORIENTED_EDGE('',*,*,#184,.F.);
#246=ORIENTED_EDGE('',*,*,#150,.T.);
#247=ORIENTED_EDGE('',*,*,#172,.T.);
#248=ORIENTED_EDGE('',*,*,#174,.T.);
#249=ORIENTED_EDGE('',*,*,#177,.T.);
#250=ORIENTED_EDGE('',*,*,#169,.T.);
#251=ORIENTED_EDGE('',*,*,#183,.F.);
#252=ORIENTED_EDGE('',*,*,#152,.T.);
#253=ORIENTED_EDGE('',*,*,#163,.T.);
#254=ORIENTED_EDGE('',*,*,#165,.T.);
#255=ORIENTED_EDGE('',*,*,#168,.T.);
#256=ORIENTED_EDGE('',*,*,#166,.T.);
#257=ORIENTED_EDGE('',*,*,#185,.F.);
#258=ORIENTED_EDGE('',*,*,#186,.T.);
#259=ORIENTED_EDGE('',*,*,#182,.T.);
#260=ORIENTED_EDGE('',*,*,#186,.F.);
#261=ORIENTED_EDGE('',*,*,#185,.T.);
#262=ORIENTED_EDGE('',*,*,#161,.T.);
#263=PLANE('',#306);
#264=PLANE('',#307);
#265=PLANE('',#317);
#266=PLANE('',#319);
#267=PLANE('',#320);
#268=PLANE('',#322);
#269=PLANE('',#325);
#270=PLANE('',#327);
#271=PLANE('',#330);
#272=PLANE('',#331);
#273=PLANE('',#339);
#274=ADVANCED_FACE('',(#41),#263,.F.);
#275=ADVANCED_FACE('',(#42),#264,.F.);
#276=ADVANCED_FACE('',(#43),#22,.F.);
#277=ADVANCED_FACE('',(#44),#19,.F.);
#278=ADVANCED_FACE('',(#45),#23,.F.);
#279=ADVANCED_FACE('',(#46),#20,.F.);
#280=ADVANCED_FACE('',(#47),#265,.F.);
#281=ADVANCED_FACE('',(#48),#266,.F.);
#282=ADVANCED_FACE('',(#49),#267,.F.);
#283=ADVANCED_FACE('',(#50),#268,.F.);
#284=ADVANCED_FACE('',(#51),#269,.F.);
#285=ADVANCED_FACE('',(#52),#270,.F.);
#286=ADVANCED_FACE('',(#53),#271,.F.);
#287=ADVANCED_FACE('',(#54,#15),#272,.T.);
#288=ADVANCED_FACE('',(#55),#24,.T.);
#289=ADVANCED_FACE('',(#56,#16),#21,.T.);
#290=ADVANCED_FACE('',(#57),#25,.T.);
#291=ADVANCED_FACE('',(#58,#17),#273,.T.);
#292=CLOSED_SHELL('',(#274,#275,#276,#277,#278,#279,#280,#281,#282,#283,
#284,#285,#286,#287,#288,#289,#290,#291));
#293=DERIVED_UNIT_ELEMENT(#295,1.);
#294=DERIVED_UNIT_ELEMENT(#519,-3.);
#295=(
MASS_UNIT()
NAMED_UNIT(*)
SI_UNIT(.KILO.,.GRAM.)
);
#296=DERIVED_UNIT((#293,#294));
#297=MEASURE_REPRESENTATION_ITEM('density measure',
POSITIVE_RATIO_MEASURE(7850.),#296);
#298=PROPERTY_DEFINITION_REPRESENTATION(#303,#300);
#299=PROPERTY_DEFINITION_REPRESENTATION(#304,#301);
#300=REPRESENTATION('material name',(#302),#516);
#301=REPRESENTATION('density',(#297),#516);
#302=DESCRIPTIVE_REPRESENTATION_ITEM('Acier','Acier');
#303=PROPERTY_DEFINITION('material property','material name',#526);
#304=PROPERTY_DEFINITION('material property','density of part',#526);
#305=AXIS2_PLACEMENT_3D('placement',#432,#340,#341);
#306=AXIS2_PLACEMENT_3D('',#433,#342,#343);
#307=AXIS2_PLACEMENT_3D('',#440,#347,#348);
#308=AXIS2_PLACEMENT_3D('',#443,#349,#350);
#309=AXIS2_PLACEMENT_3D('',#447,#353,#354);
#310=AXIS2_PLACEMENT_3D('',#449,#355,#356);
#311=AXIS2_PLACEMENT_3D('',#452,#358,#359);
#312=AXIS2_PLACEMENT_3D('',#454,#360,#361);
#313=AXIS2_PLACEMENT_3D('',#456,#363,#364);
#314=AXIS2_PLACEMENT_3D('',#458,#365,#366);
#315=AXIS2_PLACEMENT_3D('',#461,#368,#369);
#316=AXIS2_PLACEMENT_3D('',#463,#370,#371);
#317=AXIS2_PLACEMENT_3D('',#465,#373,#374);
#318=AXIS2_PLACEMENT_3D('',#467,#375,#376);
#319=AXIS2_PLACEMENT_3D('',#469,#378,#379);
#320=AXIS2_PLACEMENT_3D('',#475,#383,#384);
#321=AXIS2_PLACEMENT_3D('',#476,#385,#386);
#322=AXIS2_PLACEMENT_3D('',#477,#387,#388);
#323=AXIS2_PLACEMENT_3D('',#480,#389,#390);
#324=AXIS2_PLACEMENT_3D('',#483,#392,#393);
#325=AXIS2_PLACEMENT_3D('',#484,#394,#395);
#326=AXIS2_PLACEMENT_3D('',#486,#396,#397);
#327=AXIS2_PLACEMENT_3D('',#488,#399,#400);
#328=AXIS2_PLACEMENT_3D('',#490,#401,#402);
#329=AXIS2_PLACEMENT_3D('',#492,#403,#404);
#330=AXIS2_PLACEMENT_3D('',#494,#406,#407);
#331=AXIS2_PLACEMENT_3D('',#497,#410,#411);
#332=AXIS2_PLACEMENT_3D('',#499,#412,#413);
#333=AXIS2_PLACEMENT_3D('',#500,#414,#415);
#334=AXIS2_PLACEMENT_3D('',#502,#416,#417);
#335=AXIS2_PLACEMENT_3D('',#504,#419,#420);
#336=AXIS2_PLACEMENT_3D('',#506,#421,#422);
#337=AXIS2_PLACEMENT_3D('',#509,#425,#426);
#338=AXIS2_PLACEMENT_3D('',#511,#427,#428);
#339=AXIS2_PLACEMENT_3D('',#513,#430,#431);
#340=DIRECTION('axis',(0.,0.,1.));
#341=DIRECTION('refdir',(1.,0.,0.));
#342=DIRECTION('center_axis',(0.,1.,0.));
#343=DIRECTION('ref_axis',(1.,0.,0.));
#344=DIRECTION('',(-0.998973207066026,0.,0.0453048735150937));
#345=DIRECTION('',(0.,0.,-1.));
#346=DIRECTION('',(1.,0.,0.));
#347=DIRECTION('center_axis',(0.,0.,-1.));
#348=DIRECTION('ref_axis',(1.,0.,0.));
#349=DIRECTION('center_axis',(0.,0.,-1.));
#350=DIRECTION('ref_axis',(-1.,0.,0.));
#351=DIRECTION('',(0.,-1.,0.));
#352=DIRECTION('',(0.99999999999999,0.,-1.39077501515315E-7));
#353=DIRECTION('center_axis',(0.,0.,1.));
#354=DIRECTION('ref_axis',(1.,0.,0.));
#355=DIRECTION('center_axis',(0.,0.,-1.));
#356=DIRECTION('ref_axis',(1.,0.,0.));
#357=DIRECTION('',(0.857167300702112,-1.04972719113862E-16,-0.515038074910054));
#358=DIRECTION('center_axis',(0.,0.,-1.));
#359=DIRECTION('ref_axis',(1.,0.,0.));
#360=DIRECTION('center_axis',(0.,0.,-1.));
#361=DIRECTION('ref_axis',(1.,0.,0.));
#362=DIRECTION('',(0.,0.,-1.));
#363=DIRECTION('center_axis',(0.,0.,-1.));
#364=DIRECTION('ref_axis',(-1.,0.,0.));
#365=DIRECTION('center_axis',(0.,0.,1.));
#366=DIRECTION('ref_axis',(-1.,0.,0.));
#367=DIRECTION('',(-0.857167300702112,-1.04972719113862E-16,0.515038074910054));
#368=DIRECTION('center_axis',(0.,0.,1.));
#369=DIRECTION('ref_axis',(-1.,0.,0.));
#370=DIRECTION('center_axis',(0.,0.,1.));
#371=DIRECTION('ref_axis',(-1.,0.,0.));
#372=DIRECTION('',(0.,0.,1.));
#373=DIRECTION('center_axis',(-1.39077501515315E-7,0.,-0.99999999999999));
#374=DIRECTION('ref_axis',(-0.99999999999999,0.,1.39077501515315E-7));
#375=DIRECTION('center_axis',(-1.39077501515315E-7,0.,-0.99999999999999));
#376=DIRECTION('ref_axis',(-0.99999999999999,0.,1.39077501515315E-7));
#377=DIRECTION('',(0.,1.,0.));
#378=DIRECTION('center_axis',(1.,0.,0.));
#379=DIRECTION('ref_axis',(0.,0.,-1.));
#380=DIRECTION('',(0.,0.,1.));
#381=DIRECTION('',(0.,0.,-1.));
#382=DIRECTION('',(0.,-1.,0.));
#383=DIRECTION('center_axis',(0.,0.,1.));
#384=DIRECTION('ref_axis',(1.,0.,0.));
#385=DIRECTION('center_axis',(0.,0.,1.));
#386=DIRECTION('ref_axis',(-1.,0.,0.));
#387=DIRECTION('center_axis',(0.,0.,-1.));
#388=DIRECTION('ref_axis',(-1.,0.,0.));
#389=DIRECTION('center_axis',(0.,0.,-1.));
#390=DIRECTION('ref_axis',(-1.,0.,0.));
#391=DIRECTION('',(0.,-1.,0.));
#392=DIRECTION('center_axis',(0.,0.,-1.));
#393=DIRECTION('ref_axis',(-1.,0.,0.));
#394=DIRECTION('center_axis',(0.0453048735150937,0.,0.998973207066026));
#395=DIRECTION('ref_axis',(0.998973207066026,0.,-0.0453048735150937));
#396=DIRECTION('center_axis',(0.0453048735150937,0.,0.998973207066026));
#397=DIRECTION('ref_axis',(-0.998973207066026,0.,0.0453048735150937));
#398=DIRECTION('',(0.,1.,0.));
#399=DIRECTION('center_axis',(0.,0.,1.));
#400=DIRECTION('ref_axis',(1.,0.,0.));
#401=DIRECTION('center_axis',(0.,0.,1.));
#402=DIRECTION('ref_axis',(-1.,0.,0.));
#403=DIRECTION('center_axis',(0.,0.,1.));
#404=DIRECTION('ref_axis',(-1.,0.,0.));
#405=DIRECTION('',(0.,-1.,0.));
#406=DIRECTION('center_axis',(-1.,0.,0.));
#407=DIRECTION('ref_axis',(0.,0.,1.));
#408=DIRECTION('',(0.,0.,-1.));
#409=DIRECTION('',(0.,0.,1.));
#410=DIRECTION('center_axis',(0.,0.,1.));
#411=DIRECTION('ref_axis',(1.,0.,0.));
#412=DIRECTION('center_axis',(0.,0.,-1.));
#413=DIRECTION('ref_axis',(1.,0.,0.));
#414=DIRECTION('center_axis',(0.,0.,1.));
#415=DIRECTION('ref_axis',(-1.,0.,0.));
#416=DIRECTION('center_axis',(0.,0.,-1.));
#417=DIRECTION('ref_axis',(1.,0.,0.));
#418=DIRECTION('',(0.707106926066352,-8.65956233662082E-17,0.707106636306713));
#419=DIRECTION('center_axis',(0.,0.,-1.));
#420=DIRECTION('ref_axis',(-1.,0.,0.));
#421=DIRECTION('center_axis',(0.,0.,-1.));
#422=DIRECTION('ref_axis',(1.,0.,0.));
#423=DIRECTION('',(0.,0.,1.));
#424=DIRECTION('',(0.,0.,1.));
#425=DIRECTION('center_axis',(0.,0.,-1.));
#426=DIRECTION('ref_axis',(-1.,0.,0.));
#427=DIRECTION('center_axis',(0.,0.,-1.));
#428=DIRECTION('ref_axis',(1.,0.,0.));
#429=DIRECTION('',(-0.894427217655922,1.0953574291726E-16,0.447213542187941));
#430=DIRECTION('center_axis',(0.,0.,-1.));
#431=DIRECTION('ref_axis',(-1.,0.,0.));
#432=CARTESIAN_POINT('',(0.,0.,0.));
#433=CARTESIAN_POINT('Origin',(-6.00000008940697,0.,-32.5000004842877));
#434=CARTESIAN_POINT('',(-5.99999979138374,0.,-28.0226757338803));
#435=CARTESIAN_POINT('',(-6.50000009685755,0.,-28.));
#436=CARTESIAN_POINT('',(-5.00000193786047,0.,-28.0680270765878));
#437=CARTESIAN_POINT('',(-5.99999979138374,0.,-28.0000004172325));
#438=CARTESIAN_POINT('',(-5.99999979138374,0.,-32.9999996721745));
#439=CARTESIAN_POINT('',(-7.00000010430813,0.,-28.0000004172325));
#440=CARTESIAN_POINT('Origin',(-15.0000002235174,0.,-37.000000551343));
#441=CARTESIAN_POINT('',(-13.0000001937151,-2.64575140681045,-37.000000551343));
#442=CARTESIAN_POINT('',(-14.0000002086163,0.,-36.9999998708566));
#443=CARTESIAN_POINT('Origin',(-10.,0.,-37.000000551343));
#444=CARTESIAN_POINT('',(-13.0000001937151,0.,-37.0000000099341));
#445=CARTESIAN_POINT('',(-13.0000001937151,0.,-37.000000551343));
#446=CARTESIAN_POINT('',(-15.0000002235174,0.,-36.9999997317791));
#447=CARTESIAN_POINT('Origin',(-10.0000001490116,0.,-10.7510757737845));
#448=CARTESIAN_POINT('',(-12.5000001490116,3.06161699786838E-16,-10.));
#449=CARTESIAN_POINT('Origin',(-10.0000001490116,0.,-10.));
#450=CARTESIAN_POINT('',(-10.0000001490116,0.,-11.5021515475689));
#451=CARTESIAN_POINT('',(-11.2500001490116,1.53080849893419E-16,-10.7510757737845));
#452=CARTESIAN_POINT('Origin',(-10.0000001490116,0.,-5.));
#453=CARTESIAN_POINT('',(-12.5000001490116,3.06161699786838E-16,0.));
#454=CARTESIAN_POINT('Origin',(-10.0000001490116,0.,0.));
#455=CARTESIAN_POINT('',(-12.5000001490116,3.06161699786838E-16,-5.));
#456=CARTESIAN_POINT('Origin',(-10.0000001490116,0.,-54.2489242262155));
#457=CARTESIAN_POINT('',(-7.50000014901161,3.06161699786838E-16,-55.));
#458=CARTESIAN_POINT('Origin',(-10.0000001490116,0.,-55.));
#459=CARTESIAN_POINT('',(-10.0000001490116,0.,-53.4978484524311));
#460=CARTESIAN_POINT('',(-8.75000014901161,1.53080849893419E-16,-54.2489242262155));
#461=CARTESIAN_POINT('Origin',(-10.0000001490116,0.,-60.));
#462=CARTESIAN_POINT('',(-7.50000014901161,3.06161699786838E-16,-65.));
#463=CARTESIAN_POINT('Origin',(-10.0000001490116,0.,-65.));
#464=CARTESIAN_POINT('',(-7.50000014901161,3.06161699786838E-16,-60.));
#465=CARTESIAN_POINT('Origin',(-13.0000001937151,0.,-37.0000000099341));
#466=CARTESIAN_POINT('',(-13.0000001937151,2.64575140681045,-37.0000000099341));
#467=CARTESIAN_POINT('Origin',(-10.,0.,-37.0000004271666));
#468=CARTESIAN_POINT('',(-13.0000001937151,0.,-37.0000000099341));
#469=CARTESIAN_POINT('Origin',(-13.0000001937151,0.,-28.));
#470=CARTESIAN_POINT('',(-13.0000001937151,2.64575140681045,-28.));
#471=CARTESIAN_POINT('',(-13.0000001937151,2.64575140681045,-32.9999996721745));
#472=CARTESIAN_POINT('',(-13.0000001937151,-2.64575140681045,-28.0000004172325));
#473=CARTESIAN_POINT('',(-13.0000001937151,-2.64575140681045,-32.9999996721745));
#474=CARTESIAN_POINT('',(-13.0000001937151,0.,-28.0000004172325));
#475=CARTESIAN_POINT('Origin',(-15.0000002235174,0.,-28.));
#476=CARTESIAN_POINT('Origin',(-10.,0.,-28.));
#477=CARTESIAN_POINT('Origin',(-5.00000007450581,0.,-36.9999997317791));
#478=CARTESIAN_POINT('',(-7.00000010430813,2.645751744737,-36.9999997317791));
#479=CARTESIAN_POINT('',(-5.99999979138374,-4.89858745207064E-16,-36.9999997317791));
#480=CARTESIAN_POINT('Origin',(-10.,0.,-36.9999997317791));
#481=CARTESIAN_POINT('',(-7.00000010430813,-2.645751744737,-37.000000551343));
#482=CARTESIAN_POINT('',(-7.00000010430813,0.,-37.000000551343));
#483=CARTESIAN_POINT('Origin',(-10.,0.,-36.9999997317791));
#484=CARTESIAN_POINT('Origin',(-6.50000009685755,0.,-28.));
#485=CARTESIAN_POINT('',(-6.50000009685755,1.93649227907909,-28.));
#486=CARTESIAN_POINT('Origin',(-10.,0.,-27.8412699642061));
#487=CARTESIAN_POINT('',(-6.50000009685755,0.,-28.));
#488=CARTESIAN_POINT('Origin',(-7.00000010430813,0.,-28.));
#489=CARTESIAN_POINT('',(-7.00000010430813,2.645751744737,-28.));
#490=CARTESIAN_POINT('Origin',(-10.,0.,-28.));
#491=CARTESIAN_POINT('',(-7.00000010430813,-2.645751744737,-28.0000004172325));
#492=CARTESIAN_POINT('Origin',(-10.,0.,-28.0000004172325));
#493=CARTESIAN_POINT('',(-7.00000010430813,0.,-28.0000004172325));
#494=CARTESIAN_POINT('Origin',(-7.00000010430813,0.,-36.9999997317791));
#495=CARTESIAN_POINT('',(-7.00000010430813,2.645751744737,-32.9999996721745));
#496=CARTESIAN_POINT('',(-7.00000010430813,-2.645751744737,-32.9999996721745));
#497=CARTESIAN_POINT('Origin',(-16.0000002384186,0.,0.));
#498=CARTESIAN_POINT('',(-3.99999976158142,-7.34788108686267E-16,1.38777878078145E-16));
#499=CARTESIAN_POINT('Origin',(-10.,0.,0.));
#500=CARTESIAN_POINT('Origin',(-10.,0.,-0.999999605119228));
#501=CARTESIAN_POINT('',(-5.99999979138374,-4.89858745207064E-16,-1.99999921023846));
#502=CARTESIAN_POINT('Origin',(-10.,0.,-1.99999921023846));
#503=CARTESIAN_POINT('',(-4.99999977648258,-6.12323426946666E-16,-0.999999605119228));
#504=CARTESIAN_POINT('Origin',(-10.,0.,-32.9999996721745));
#505=CARTESIAN_POINT('',(-5.99999979138374,-4.89858745207064E-16,-64.0000001341105));
#506=CARTESIAN_POINT('Origin',(-10.,0.,-64.0000001341105));
#507=CARTESIAN_POINT('',(-5.99999979138374,-4.89858745207064E-16,-32.9999996721745));
#508=CARTESIAN_POINT('',(-5.99999979138374,-4.89858745207064E-16,-32.9999996721745));
#509=CARTESIAN_POINT('Origin',(-10.,0.,-64.5000000670552));
#510=CARTESIAN_POINT('',(-3.99999976158142,-7.34788108686267E-16,-65.));
#511=CARTESIAN_POINT('Origin',(-10.,0.,-65.));
#512=CARTESIAN_POINT('',(-4.99999977648258,-6.12323426946666E-16,-64.5000000670552));
#513=CARTESIAN_POINT('Origin',(-10.,0.,-65.));
#514=UNCERTAINTY_MEASURE_WITH_UNIT(LENGTH_MEASURE(0.01),#518,
'DISTANCE_ACCURACY_VALUE',
'Maximum model space distance between geometric entities at asserted c
onnectivities');
#515=UNCERTAINTY_MEASURE_WITH_UNIT(LENGTH_MEASURE(0.01),#518,
'DISTANCE_ACCURACY_VALUE',
'Maximum model space distance between geometric entities at asserted c
onnectivities');
#516=(
GEOMETRIC_REPRESENTATION_CONTEXT(3)
GLOBAL_UNCERTAINTY_ASSIGNED_CONTEXT((#514))
GLOBAL_UNIT_ASSIGNED_CONTEXT((#518,#520,#521))
REPRESENTATION_CONTEXT('','3D')
);
#517=(
GEOMETRIC_REPRESENTATION_CONTEXT(3)
GLOBAL_UNCERTAINTY_ASSIGNED_CONTEXT((#515))
GLOBAL_UNIT_ASSIGNED_CONTEXT((#518,#520,#521))
REPRESENTATION_CONTEXT('','3D')
);
#518=(
LENGTH_UNIT()
NAMED_UNIT(*)
SI_UNIT(.MILLI.,.METRE.)
);
#519=(
LENGTH_UNIT()
NAMED_UNIT(*)
SI_UNIT($,.METRE.)
);
#520=(
NAMED_UNIT(*)
PLANE_ANGLE_UNIT()
SI_UNIT($,.RADIAN.)
);
#521=(
NAMED_UNIT(*)
SI_UNIT($,.STERADIAN.)
SOLID_ANGLE_UNIT()
);
#522=SHAPE_DEFINITION_REPRESENTATION(#523,#524);
#523=PRODUCT_DEFINITION_SHAPE('',$,#526);
#524=SHAPE_REPRESENTATION('',(#305),#516);
#525=PRODUCT_DEFINITION_CONTEXT('part definition',#530,'design');
#526=PRODUCT_DEFINITION('ENTRETOISE BATTERIE','ENTRETOISE BATTERIE v0',
#527,#525);
#527=PRODUCT_DEFINITION_FORMATION('',$,#532);
#528=PRODUCT_RELATED_PRODUCT_CATEGORY('ENTRETOISE BATTERIE v0',
'ENTRETOISE BATTERIE v0',(#532));
#529=APPLICATION_PROTOCOL_DEFINITION('international standard',
'automotive_design',2009,#530);
#530=APPLICATION_CONTEXT(
'Core Data for Automotive Mechanical Design Process');
#531=PRODUCT_CONTEXT('part definition',#530,'mechanical');
#532=PRODUCT('ENTRETOISE BATTERIE','ENTRETOISE BATTERIE v0',$,(#531));
#533=PRESENTATION_STYLE_ASSIGNMENT((#534));
#534=SURFACE_STYLE_USAGE(.BOTH.,#535);
#535=SURFACE_SIDE_STYLE('',(#536));
#536=SURFACE_STYLE_FILL_AREA(#537);
#537=FILL_AREA_STYLE('Acier - Satin\X\E9',(#538));
#538=FILL_AREA_STYLE_COLOUR('Acier - Satin\X\E9',#539);
#539=COLOUR_RGB('Acier - Satin\X\E9',0.627450980392157,0.627450980392157,
0.627450980392157);
ENDSEC;
END-ISO-10303-21;
