ISO-10303-21;
HEADER;
FILE_DESCRIPTION (( 'STEP AP214' ),
    '1' );
FILE_NAME ('EntretoiseFab_11x15x5.STEP',
    '2022-01-14T14:29:56',
    ( '' ),
    ( '' ),
    'SwSTEP 2.0',
    'SolidWorks 2021',
    '' );
FILE_SCHEMA (( 'AUTOMOTIVE_DESIGN' ));
ENDSEC;

DATA;
#1 = FILL_AREA_STYLE ('',( #187 ) ) ;
#2 = FILL_AREA_STYLE_COLOUR ( '', #97 ) ;
#3 = VERTEX_POINT ( 'NONE', #41 ) ;
#4 = EDGE_LOOP ( 'NONE', ( #52, #130, #200, #124 ) ) ;
#5 = PLANE ( 'NONE',  #96 ) ;
#6 = ORIENTED_EDGE ( 'NONE', *, *, #85, .F. ) ;
#7 = CIRCLE ( 'NONE', #20, 5.500000000000000000 ) ;
#8 = DIRECTION ( 'NONE',  ( -1.000000000000000000, 0.000000000000000000, 0.000000000000000000 ) ) ;
#9 = DIRECTION ( 'NONE',  ( 0.000000000000000000, 0.000000000000000000, 1.000000000000000000 ) ) ;
#10 = ORIENTED_EDGE ( 'NONE', *, *, #55, .F. ) ;
#11 = DIRECTION ( 'NONE',  ( -0.000000000000000000, -0.000000000000000000, -1.000000000000000000 ) ) ;
#12 = DIRECTION ( 'NONE',  ( -0.000000000000000000, -0.000000000000000000, -1.000000000000000000 ) ) ;
#13 = DIRECTION ( 'NONE',  ( 0.000000000000000000, 0.000000000000000000, 1.000000000000000000 ) ) ;
#14 = ORIENTED_EDGE ( 'NONE', *, *, #167, .F. ) ;
#15 = CARTESIAN_POINT ( 'NONE',  ( 2.309511395511770093, -37.60107609162385955, 5.000000000000000000 ) ) ;
#16 = AXIS2_PLACEMENT_3D ( 'NONE', #158, #141, #77 ) ;
#17 = CARTESIAN_POINT ( 'NONE',  ( 15.30951139551176965, -37.60107609162385955, 5.000000000000000000 ) ) ;
#18 =( NAMED_UNIT ( * ) PLANE_ANGLE_UNIT ( ) SI_UNIT ( $, .RADIAN. ) );
#19 = CARTESIAN_POINT ( 'NONE',  ( 7.809511395511768761, -37.60107609162385955, 5.000000000000000000 ) ) ;
#20 = AXIS2_PLACEMENT_3D ( 'NONE', #142, #123, #161 ) ;
#21 = PRESENTATION_LAYER_ASSIGNMENT (  '', '', ( #171 ) ) ;
#22 = ORIENTED_EDGE ( 'NONE', *, *, #72, .T. ) ;
#23 = UNCERTAINTY_MEASURE_WITH_UNIT (LENGTH_MEASURE( 1.000000000000000082E-05 ), #133, 'distance_accuracy_value', 'NONE');
#24 = PRODUCT_DEFINITION_SHAPE ( 'NONE', 'NONE',  #128 ) ;
#25 = VERTEX_POINT ( 'NONE', #117 ) ;
#26 = CIRCLE ( 'NONE', #153, 7.500000000000001776 ) ;
#27 = AXIS2_PLACEMENT_3D ( 'NONE', #110, #13, #69 ) ;
#28 = EDGE_LOOP ( 'NONE', ( #126, #162, #193, #14 ) ) ;
#29 = PRODUCT_RELATED_PRODUCT_CATEGORY ( 'part', '', ( #203 ) ) ;
#30 = SURFACE_STYLE_FILL_AREA ( #1 ) ;
#31 = ADVANCED_FACE ( 'NONE', ( #139 ), #116, .F. ) ;
#32 = VECTOR ( 'NONE', #11, 1000.000000000000000 ) ;
#33 = DIRECTION ( 'NONE',  ( 1.000000000000000000, 0.000000000000000000, 0.000000000000000000 ) ) ;
#34 = CARTESIAN_POINT ( 'NONE',  ( 7.809511395511768761, -37.60107609162385955, 5.000000000000000000 ) ) ;
#35 = ORIENTED_EDGE ( 'NONE', *, *, #210, .F. ) ;
#36 = SURFACE_SIDE_STYLE ('',( #135 ) ) ;
#37 = ORIENTED_EDGE ( 'NONE', *, *, #114, .T. ) ;
#38 = FACE_OUTER_BOUND ( 'NONE', #211, .T. ) ;
#39 = AXIS2_PLACEMENT_3D ( 'NONE', #131, #50, #166 ) ;
#40 = APPLICATION_CONTEXT ( 'automotive_design' ) ;
#41 = CARTESIAN_POINT ( 'NONE',  ( 2.309511395511770093, -37.60107609162385955, 0.000000000000000000 ) ) ;
#42 = CIRCLE ( 'NONE', #176, 5.500000000000000000 ) ;
#43 = DIRECTION ( 'NONE',  ( 0.000000000000000000, 0.000000000000000000, 1.000000000000000000 ) ) ;
#44 = APPLICATION_PROTOCOL_DEFINITION ( 'draft international standard', 'automotive_design', 1998, #40 ) ;
#45 = PRESENTATION_STYLE_ASSIGNMENT (( #57 ) ) ;
#46 =( NAMED_UNIT ( * ) SI_UNIT ( $, .STERADIAN. ) SOLID_ANGLE_UNIT ( ) );
#47 = DIRECTION ( 'NONE',  ( 0.000000000000000000, 0.000000000000000000, 1.000000000000000000 ) ) ;
#48 = AXIS2_PLACEMENT_3D ( 'NONE', #98, #60, #184 ) ;
#49 = STYLED_ITEM ( 'NONE', ( #45 ), #202 ) ;
#50 = DIRECTION ( 'NONE',  ( 0.000000000000000000, 0.000000000000000000, 1.000000000000000000 ) ) ;
#51 = PRODUCT_DEFINITION_FORMATION_WITH_SPECIFIED_SOURCE ( 'ANY', '', #203, .NOT_KNOWN. ) ;
#52 = ORIENTED_EDGE ( 'NONE', *, *, #100, .F. ) ;
#53 = LINE ( 'NONE', #151, #205 ) ;
#54 = CARTESIAN_POINT ( 'NONE',  ( 13.30951139551176787, -37.60107609162385955, 5.000000000000000000 ) ) ;
#55 = EDGE_CURVE ( 'NONE', #25, #91, #76, .T. ) ;
#56 = ORIENTED_EDGE ( 'NONE', *, *, #179, .F. ) ;
#57 = SURFACE_STYLE_USAGE ( .BOTH. , #154 ) ;
#58 = FILL_AREA_STYLE ('',( #2 ) ) ;
#59 = ORIENTED_EDGE ( 'NONE', *, *, #122, .T. ) ;
#60 = DIRECTION ( 'NONE',  ( -0.000000000000000000, -0.000000000000000000, -1.000000000000000000 ) ) ;
#61 = COLOUR_RGB ( '',0.7921568627450980005, 0.8196078431372548767, 0.9333333333333333481 ) ;
#62 =( GEOMETRIC_REPRESENTATION_CONTEXT ( 3 ) GLOBAL_UNCERTAINTY_ASSIGNED_CONTEXT ( ( #23 ) ) GLOBAL_UNIT_ASSIGNED_CONTEXT ( ( #133, #68, #199 ) ) REPRESENTATION_CONTEXT ( 'NONE', 'WORKASPACE' ) );
#63 = ADVANCED_FACE ( 'NONE', ( #159 ), #99, .F. ) ;
#64 = LINE ( 'NONE', #17, #180 ) ;
#65 = LINE ( 'NONE', #70, #32 ) ;
#66 = ORIENTED_EDGE ( 'NONE', *, *, #167, .T. ) ;
#67 = ADVANCED_FACE ( 'NONE', ( #144, #207 ), #5, .F. ) ;
#68 =( NAMED_UNIT ( * ) PLANE_ANGLE_UNIT ( ) SI_UNIT ( $, .RADIAN. ) );
#69 = DIRECTION ( 'NONE',  ( 1.000000000000000000, 0.000000000000000000, 0.000000000000000000 ) ) ;
#70 = CARTESIAN_POINT ( 'NONE',  ( 0.3095113955117684834, -37.60107609162385955, 5.000000000000000000 ) ) ;
#71 = MECHANICAL_DESIGN_GEOMETRIC_PRESENTATION_REPRESENTATION (  '', ( #171 ), #105 ) ;
#72 = EDGE_CURVE ( 'NONE', #198, #3, #7, .T. ) ;
#73 = CARTESIAN_POINT ( 'NONE',  ( 13.30951139551176787, -37.60107609162385955, 0.000000000000000000 ) ) ;
#74 = APPLICATION_PROTOCOL_DEFINITION ( 'draft international standard', 'automotive_design', 1998, #177 ) ;
#75 = CARTESIAN_POINT ( 'NONE',  ( 13.30951139551176787, -37.60107609162385955, 5.000000000000000000 ) ) ;
#76 = CIRCLE ( 'NONE', #168, 7.500000000000001776 ) ;
#77 = DIRECTION ( 'NONE',  ( 1.000000000000000000, 0.000000000000000000, 0.000000000000000000 ) ) ;
#78 =( NAMED_UNIT ( * ) SI_UNIT ( $, .STERADIAN. ) SOLID_ANGLE_UNIT ( ) );
#79 = DIRECTION ( 'NONE',  ( -1.000000000000000000, 0.000000000000000000, 0.000000000000000000 ) ) ;
#80 = DIRECTION ( 'NONE',  ( 1.000000000000000000, 0.000000000000000000, 0.000000000000000000 ) ) ;
#81 = DIRECTION ( 'NONE',  ( -0.000000000000000000, -0.000000000000000000, -1.000000000000000000 ) ) ;
#82 = PRESENTATION_STYLE_ASSIGNMENT (( #137 ) ) ;
#83 = MECHANICAL_DESIGN_GEOMETRIC_PRESENTATION_REPRESENTATION (  '', ( #49 ), #90 ) ;
#84 = ORIENTED_EDGE ( 'NONE', *, *, #85, .T. ) ;
#85 = EDGE_CURVE ( 'NONE', #91, #25, #26, .T. ) ;
#86 = DIRECTION ( 'NONE',  ( 0.000000000000000000, 0.000000000000000000, 1.000000000000000000 ) ) ;
#87 = UNCERTAINTY_MEASURE_WITH_UNIT (LENGTH_MEASURE( 1.000000000000000082E-05 ), #196, 'distance_accuracy_value', 'NONE');
#88 = FACE_OUTER_BOUND ( 'NONE', #143, .T. ) ;
#89 = CYLINDRICAL_SURFACE ( 'NONE', #160, 7.500000000000000888 ) ;
#90 =( GEOMETRIC_REPRESENTATION_CONTEXT ( 3 ) GLOBAL_UNCERTAINTY_ASSIGNED_CONTEXT ( ( #87 ) ) GLOBAL_UNIT_ASSIGNED_CONTEXT ( ( #196, #120, #46 ) ) REPRESENTATION_CONTEXT ( 'NONE', 'WORKASPACE' ) );
#91 = VERTEX_POINT ( 'NONE', #103 ) ;
#92 = AXIS2_PLACEMENT_3D ( 'NONE', #34, #164, #212 ) ;
#93 = CARTESIAN_POINT ( 'NONE',  ( 7.809511395511768761, -37.60107609162385955, 5.000000000000000000 ) ) ;
#94 = EDGE_CURVE ( 'NONE', #106, #108, #42, .T. ) ;
#95 = FACE_OUTER_BOUND ( 'NONE', #4, .T. ) ;
#96 = AXIS2_PLACEMENT_3D ( 'NONE', #209, #47, #188 ) ;
#97 = COLOUR_RGB ( '',0.7921568627450980005, 0.8196078431372548767, 0.9333333333333333481 ) ;
#98 = CARTESIAN_POINT ( 'NONE',  ( 7.809511395511768761, -37.60107609162385955, 5.000000000000000000 ) ) ;
#99 = CYLINDRICAL_SURFACE ( 'NONE', #118, 5.499999999999999112 ) ;
#100 = EDGE_CURVE ( 'NONE', #104, #136, #192, .T. ) ;
#101 = ORIENTED_EDGE ( 'NONE', *, *, #152, .T. ) ;
#102 = ADVANCED_FACE ( 'NONE', ( #88, #129 ), #194, .T. ) ;
#103 = CARTESIAN_POINT ( 'NONE',  ( 0.3095113955117684834, -37.60107609162385955, 0.000000000000000000 ) ) ;
#104 = VERTEX_POINT ( 'NONE', #147 ) ;
#105 =( GEOMETRIC_REPRESENTATION_CONTEXT ( 3 ) GLOBAL_UNCERTAINTY_ASSIGNED_CONTEXT ( ( #121 ) ) GLOBAL_UNIT_ASSIGNED_CONTEXT ( ( #208, #18, #78 ) ) REPRESENTATION_CONTEXT ( 'NONE', 'WORKASPACE' ) );
#106 = VERTEX_POINT ( 'NONE', #15 ) ;
#107 = DIRECTION ( 'NONE',  ( -0.000000000000000000, -0.000000000000000000, -1.000000000000000000 ) ) ;
#108 = VERTEX_POINT ( 'NONE', #54 ) ;
#109 = AXIS2_PLACEMENT_3D ( 'NONE', #169, #185, #79 ) ;
#110 = CARTESIAN_POINT ( 'NONE',  ( 7.809511395511768761, -37.60107609162385955, 5.000000000000000000 ) ) ;
#111 = ORIENTED_EDGE ( 'NONE', *, *, #72, .F. ) ;
#112 = CARTESIAN_POINT ( 'NONE',  ( 7.809511395511768761, -37.60107609162385955, 5.000000000000000000 ) ) ;
#113 = ORIENTED_EDGE ( 'NONE', *, *, #94, .F. ) ;
#114 = EDGE_CURVE ( 'NONE', #3, #198, #186, .T. ) ;
#115 = LINE ( 'NONE', #75, #140 ) ;
#116 = CYLINDRICAL_SURFACE ( 'NONE', #48, 5.499999999999999112 ) ;
#117 = CARTESIAN_POINT ( 'NONE',  ( 15.30951139551176965, -37.60107609162385955, 0.000000000000000000 ) ) ;
#118 = AXIS2_PLACEMENT_3D ( 'NONE', #19, #81, #8 ) ;
#119 = SHAPE_DEFINITION_REPRESENTATION ( #24, #132 ) ;
#120 =( NAMED_UNIT ( * ) PLANE_ANGLE_UNIT ( ) SI_UNIT ( $, .RADIAN. ) );
#121 = UNCERTAINTY_MEASURE_WITH_UNIT (LENGTH_MEASURE( 1.000000000000000082E-05 ), #208, 'distance_accuracy_value', 'NONE');
#122 = EDGE_CURVE ( 'NONE', #136, #91, #65, .T. ) ;
#123 = DIRECTION ( 'NONE',  ( 0.000000000000000000, 0.000000000000000000, 1.000000000000000000 ) ) ;
#124 = ORIENTED_EDGE ( 'NONE', *, *, #122, .F. ) ;
#125 = CARTESIAN_POINT ( 'NONE',  ( 0.3095113955117684834, -37.60107609162385955, 5.000000000000000000 ) ) ;
#126 = ORIENTED_EDGE ( 'NONE', *, *, #94, .T. ) ;
#127 = PRODUCT_DEFINITION_CONTEXT ( 'detailed design', #40, 'design' ) ;
#128 = PRODUCT_DEFINITION ( 'UNKNOWN', '', #51, #127 ) ;
#129 = FACE_BOUND ( 'NONE', #134, .T. ) ;
#130 = ORIENTED_EDGE ( 'NONE', *, *, #214, .T. ) ;
#131 = CARTESIAN_POINT ( 'NONE',  ( 7.809511395511768761, -37.60107609162385955, 0.000000000000000000 ) ) ;
#132 = ADVANCED_BREP_SHAPE_REPRESENTATION ( 'EntretoiseFab_11x15x5', ( #202, #16 ), #62 ) ;
#133 =( LENGTH_UNIT ( ) NAMED_UNIT ( * ) SI_UNIT ( .MILLI., .METRE. ) );
#134 = EDGE_LOOP ( 'NONE', ( #113, #148 ) ) ;
#135 = SURFACE_STYLE_FILL_AREA ( #58 ) ;
#136 = VERTEX_POINT ( 'NONE', #125 ) ;
#137 = SURFACE_STYLE_USAGE ( .BOTH. , #36 ) ;
#138 = CARTESIAN_POINT ( 'NONE',  ( 7.809511395511768761, -37.60107609162385955, 5.000000000000000000 ) ) ;
#139 = FACE_OUTER_BOUND ( 'NONE', #145, .T. ) ;
#140 = VECTOR ( 'NONE', #156, 1000.000000000000000 ) ;
#141 = DIRECTION ( 'NONE',  ( 0.000000000000000000, 0.000000000000000000, 1.000000000000000000 ) ) ;
#142 = CARTESIAN_POINT ( 'NONE',  ( 7.809511395511768761, -37.60107609162385955, 0.000000000000000000 ) ) ;
#143 = EDGE_LOOP ( 'NONE', ( #178, #195 ) ) ;
#144 = FACE_OUTER_BOUND ( 'NONE', #149, .T. ) ;
#145 = EDGE_LOOP ( 'NONE', ( #56, #101, #66, #111 ) ) ;
#146 = DIRECTION ( 'NONE',  ( 1.000000000000000000, 0.000000000000000000, 0.000000000000000000 ) ) ;
#147 = CARTESIAN_POINT ( 'NONE',  ( 15.30951139551176965, -37.60107609162385955, 5.000000000000000000 ) ) ;
#148 = ORIENTED_EDGE ( 'NONE', *, *, #152, .F. ) ;
#149 = EDGE_LOOP ( 'NONE', ( #6, #10 ) ) ;
#150 = DIRECTION ( 'NONE',  ( -0.000000000000000000, -0.000000000000000000, -1.000000000000000000 ) ) ;
#151 = CARTESIAN_POINT ( 'NONE',  ( 2.309511395511770093, -37.60107609162385955, 5.000000000000000000 ) ) ;
#152 = EDGE_CURVE ( 'NONE', #108, #106, #201, .T. ) ;
#153 = AXIS2_PLACEMENT_3D ( 'NONE', #190, #191, #33 ) ;
#154 = SURFACE_SIDE_STYLE ('',( #30 ) ) ;
#155 = CLOSED_SHELL ( 'NONE', ( #63, #174, #102, #67, #170, #31 ) ) ;
#156 = DIRECTION ( 'NONE',  ( -0.000000000000000000, -0.000000000000000000, -1.000000000000000000 ) ) ;
#157 = CIRCLE ( 'NONE', #183, 7.500000000000001776 ) ;
#158 = CARTESIAN_POINT ( 'NONE',  ( 0.000000000000000000, 0.000000000000000000, 0.000000000000000000 ) ) ;
#159 = FACE_OUTER_BOUND ( 'NONE', #28, .T. ) ;
#160 = AXIS2_PLACEMENT_3D ( 'NONE', #112, #107, #172 ) ;
#161 = DIRECTION ( 'NONE',  ( 1.000000000000000000, 0.000000000000000000, 0.000000000000000000 ) ) ;
#162 = ORIENTED_EDGE ( 'NONE', *, *, #179, .T. ) ;
#163 = DIRECTION ( 'NONE',  ( 1.000000000000000000, 0.000000000000000000, 0.000000000000000000 ) ) ;
#164 = DIRECTION ( 'NONE',  ( 0.000000000000000000, 0.000000000000000000, 1.000000000000000000 ) ) ;
#165 = ORIENTED_EDGE ( 'NONE', *, *, #214, .F. ) ;
#166 = DIRECTION ( 'NONE',  ( 1.000000000000000000, 0.000000000000000000, 0.000000000000000000 ) ) ;
#167 = EDGE_CURVE ( 'NONE', #106, #3, #53, .T. ) ;
#168 = AXIS2_PLACEMENT_3D ( 'NONE', #173, #43, #80 ) ;
#169 = CARTESIAN_POINT ( 'NONE',  ( 7.809511395511768761, -37.60107609162385955, 5.000000000000000000 ) ) ;
#170 = ADVANCED_FACE ( 'NONE', ( #38 ), #89, .T. ) ;
#171 = STYLED_ITEM ( 'NONE', ( #82 ), #132 ) ;
#172 = DIRECTION ( 'NONE',  ( -1.000000000000000000, 0.000000000000000000, 0.000000000000000000 ) ) ;
#173 = CARTESIAN_POINT ( 'NONE',  ( 7.809511395511768761, -37.60107609162385955, 0.000000000000000000 ) ) ;
#174 = ADVANCED_FACE ( 'NONE', ( #95 ), #204, .T. ) ;
#175 = CARTESIAN_POINT ( 'NONE',  ( 7.809511395511768761, -37.60107609162385955, 5.000000000000000000 ) ) ;
#176 = AXIS2_PLACEMENT_3D ( 'NONE', #175, #86, #146 ) ;
#177 = APPLICATION_CONTEXT ( 'automotive_design' ) ;
#178 = ORIENTED_EDGE ( 'NONE', *, *, #210, .T. ) ;
#179 = EDGE_CURVE ( 'NONE', #108, #198, #115, .T. ) ;
#180 = VECTOR ( 'NONE', #12, 1000.000000000000000 ) ;
#181 = EDGE_LOOP ( 'NONE', ( #37, #22 ) ) ;
#182 = PRESENTATION_LAYER_ASSIGNMENT (  '', '', ( #49 ) ) ;
#183 = AXIS2_PLACEMENT_3D ( 'NONE', #138, #189, #163 ) ;
#184 = DIRECTION ( 'NONE',  ( -1.000000000000000000, 0.000000000000000000, 0.000000000000000000 ) ) ;
#185 = DIRECTION ( 'NONE',  ( -0.000000000000000000, -0.000000000000000000, -1.000000000000000000 ) ) ;
#186 = CIRCLE ( 'NONE', #39, 5.500000000000000000 ) ;
#187 = FILL_AREA_STYLE_COLOUR ( '', #61 ) ;
#188 = DIRECTION ( 'NONE',  ( 1.000000000000000000, 0.000000000000000000, -0.000000000000000000 ) ) ;
#189 = DIRECTION ( 'NONE',  ( 0.000000000000000000, 0.000000000000000000, 1.000000000000000000 ) ) ;
#190 = CARTESIAN_POINT ( 'NONE',  ( 7.809511395511768761, -37.60107609162385955, 0.000000000000000000 ) ) ;
#191 = DIRECTION ( 'NONE',  ( 0.000000000000000000, 0.000000000000000000, 1.000000000000000000 ) ) ;
#192 = CIRCLE ( 'NONE', #92, 7.500000000000001776 ) ;
#193 = ORIENTED_EDGE ( 'NONE', *, *, #114, .F. ) ;
#194 = PLANE ( 'NONE',  #213 ) ;
#195 = ORIENTED_EDGE ( 'NONE', *, *, #100, .T. ) ;
#196 =( LENGTH_UNIT ( ) NAMED_UNIT ( * ) SI_UNIT ( .MILLI., .METRE. ) );
#197 = DIRECTION ( 'NONE',  ( 1.000000000000000000, 0.000000000000000000, -0.000000000000000000 ) ) ;
#198 = VERTEX_POINT ( 'NONE', #73 ) ;
#199 =( NAMED_UNIT ( * ) SI_UNIT ( $, .STERADIAN. ) SOLID_ANGLE_UNIT ( ) );
#200 = ORIENTED_EDGE ( 'NONE', *, *, #55, .T. ) ;
#201 = CIRCLE ( 'NONE', #27, 5.500000000000000000 ) ;
#202 = MANIFOLD_SOLID_BREP ( 'Boss.-Extru.1', #155 ) ;
#203 = PRODUCT ( 'EntretoiseFab_11x15x5', 'EntretoiseFab_11x15x5', '', ( #206 ) ) ;
#204 = CYLINDRICAL_SURFACE ( 'NONE', #109, 7.500000000000000888 ) ;
#205 = VECTOR ( 'NONE', #150, 1000.000000000000000 ) ;
#206 = PRODUCT_CONTEXT ( 'NONE', #177, 'mechanical' ) ;
#207 = FACE_BOUND ( 'NONE', #181, .T. ) ;
#208 =( LENGTH_UNIT ( ) NAMED_UNIT ( * ) SI_UNIT ( .MILLI., .METRE. ) );
#209 = CARTESIAN_POINT ( 'NONE',  ( 7.809511395511768761, -37.60107609162385955, 0.000000000000000000 ) ) ;
#210 = EDGE_CURVE ( 'NONE', #136, #104, #157, .T. ) ;
#211 = EDGE_LOOP ( 'NONE', ( #165, #35, #59, #84 ) ) ;
#212 = DIRECTION ( 'NONE',  ( 1.000000000000000000, 0.000000000000000000, 0.000000000000000000 ) ) ;
#213 = AXIS2_PLACEMENT_3D ( 'NONE', #93, #9, #197 ) ;
#214 = EDGE_CURVE ( 'NONE', #104, #25, #64, .T. ) ;
ENDSEC;
END-ISO-10303-21;
