ISO-10303-21;
HEADER;
/* Generated by software containing ST-Developer
 * from STEP Tools, Inc. (www.steptools.com) 
 */

FILE_DESCRIPTION(
/* description */ (''),
/* implementation_level */ '2;1');

FILE_NAME(
/* name */ 
'C:/Users/cofy3/OneDrive/Bureau/RAPTOR   STEP/ENTRETOISE ALUMINIUM/CHA
RNIERE FINALE v1 v1.step',
/* time_stamp */ '2022-03-05T00:59:29+01:00',
/* author */ (''),
/* organization */ (''),
/* preprocessor_version */ 'ST-DEVELOPER v18.1',
/* originating_system */ 'Autodesk Translation Framework v10.13.0.1454',

/* authorisation */ '');

FILE_SCHEMA (('AUTOMOTIVE_DESIGN { 1 0 10303 214 3 1 1 }'));
ENDSEC;

DATA;
#10=MECHANICAL_DESIGN_GEOMETRIC_PRESENTATION_REPRESENTATION('',(#13),#514);
#11=SHAPE_REPRESENTATION_RELATIONSHIP('SRR','None',#521,#12);
#12=ADVANCED_BREP_SHAPE_REPRESENTATION('',(#14),#513);
#13=STYLED_ITEM('',(#530),#14);
#14=MANIFOLD_SOLID_BREP('Corps1',#302);
#15=FACE_BOUND('',#52,.T.);
#16=FACE_BOUND('',#53,.T.);
#17=FACE_BOUND('',#54,.T.);
#18=FACE_BOUND('',#60,.T.);
#19=FACE_BOUND('',#63,.T.);
#20=FACE_BOUND('',#65,.T.);
#21=FACE_BOUND('',#68,.T.);
#22=FACE_BOUND('',#70,.T.);
#23=FACE_BOUND('',#71,.T.);
#24=FACE_BOUND('',#72,.T.);
#25=PLANE('',#325);
#26=PLANE('',#326);
#27=PLANE('',#327);
#28=PLANE('',#334);
#29=PLANE('',#338);
#30=PLANE('',#340);
#31=PLANE('',#343);
#32=PLANE('',#344);
#33=FACE_OUTER_BOUND('',#48,.T.);
#34=FACE_OUTER_BOUND('',#49,.T.);
#35=FACE_OUTER_BOUND('',#50,.T.);
#36=FACE_OUTER_BOUND('',#51,.T.);
#37=FACE_OUTER_BOUND('',#55,.T.);
#38=FACE_OUTER_BOUND('',#56,.T.);
#39=FACE_OUTER_BOUND('',#57,.T.);
#40=FACE_OUTER_BOUND('',#58,.T.);
#41=FACE_OUTER_BOUND('',#59,.T.);
#42=FACE_OUTER_BOUND('',#61,.T.);
#43=FACE_OUTER_BOUND('',#62,.T.);
#44=FACE_OUTER_BOUND('',#64,.T.);
#45=FACE_OUTER_BOUND('',#66,.T.);
#46=FACE_OUTER_BOUND('',#67,.T.);
#47=FACE_OUTER_BOUND('',#69,.T.);
#48=EDGE_LOOP('',(#202,#203,#204,#205));
#49=EDGE_LOOP('',(#206,#207,#208,#209));
#50=EDGE_LOOP('',(#210,#211,#212,#213));
#51=EDGE_LOOP('',(#214,#215,#216,#217));
#52=EDGE_LOOP('',(#218));
#53=EDGE_LOOP('',(#219));
#54=EDGE_LOOP('',(#220));
#55=EDGE_LOOP('',(#221,#222,#223,#224,#225,#226,#227,#228));
#56=EDGE_LOOP('',(#229,#230,#231,#232,#233,#234,#235,#236));
#57=EDGE_LOOP('',(#237,#238,#239,#240));
#58=EDGE_LOOP('',(#241,#242,#243,#244));
#59=EDGE_LOOP('',(#245,#246,#247,#248));
#60=EDGE_LOOP('',(#249));
#61=EDGE_LOOP('',(#250,#251,#252,#253));
#62=EDGE_LOOP('',(#254,#255,#256,#257));
#63=EDGE_LOOP('',(#258));
#64=EDGE_LOOP('',(#259,#260,#261,#262));
#65=EDGE_LOOP('',(#263));
#66=EDGE_LOOP('',(#264,#265,#266,#267));
#67=EDGE_LOOP('',(#268,#269,#270,#271));
#68=EDGE_LOOP('',(#272));
#69=EDGE_LOOP('',(#273,#274,#275,#276));
#70=EDGE_LOOP('',(#277));
#71=EDGE_LOOP('',(#278));
#72=EDGE_LOOP('',(#279));
#73=LINE('',#435,#98);
#74=LINE('',#441,#99);
#75=LINE('',#447,#100);
#76=LINE('',#452,#101);
#77=LINE('',#454,#102);
#78=LINE('',#456,#103);
#79=LINE('',#457,#104);
#80=LINE('',#461,#105);
#81=LINE('',#463,#106);
#82=LINE('',#464,#107);
#83=LINE('',#466,#108);
#84=LINE('',#468,#109);
#85=LINE('',#470,#110);
#86=LINE('',#471,#111);
#87=LINE('',#475,#112);
#88=LINE('',#477,#113);
#89=LINE('',#478,#114);
#90=LINE('',#480,#115);
#91=LINE('',#482,#116);
#92=LINE('',#484,#117);
#93=LINE('',#485,#118);
#94=LINE('',#490,#119);
#95=LINE('',#496,#120);
#96=LINE('',#500,#121);
#97=LINE('',#504,#122);
#98=VECTOR('',#351,1.65);
#99=VECTOR('',#358,1.65);
#100=VECTOR('',#365,1.65);
#101=VECTOR('',#370,10.);
#102=VECTOR('',#371,10.);
#103=VECTOR('',#372,10.);
#104=VECTOR('',#373,10.);
#105=VECTOR('',#376,10.);
#106=VECTOR('',#377,10.);
#107=VECTOR('',#378,10.);
#108=VECTOR('',#379,10.);
#109=VECTOR('',#380,10.);
#110=VECTOR('',#381,10.);
#111=VECTOR('',#382,10.);
#112=VECTOR('',#385,10.);
#113=VECTOR('',#386,10.);
#114=VECTOR('',#387,10.);
#115=VECTOR('',#388,10.);
#116=VECTOR('',#389,10.);
#117=VECTOR('',#390,10.);
#118=VECTOR('',#391,10.);
#119=VECTOR('',#396,2.1);
#120=VECTOR('',#403,2.1);
#121=VECTOR('',#410,10.);
#122=VECTOR('',#417,10.);
#123=CIRCLE('',#317,1.65);
#124=CIRCLE('',#318,1.65);
#125=CIRCLE('',#320,1.65);
#126=CIRCLE('',#321,1.65);
#127=CIRCLE('',#323,1.65);
#128=CIRCLE('',#324,1.65);
#129=CIRCLE('',#329,2.1);
#130=CIRCLE('',#330,2.1);
#131=CIRCLE('',#332,2.1);
#132=CIRCLE('',#333,2.1);
#133=CIRCLE('',#335,5.);
#134=CIRCLE('',#337,5.);
#135=CIRCLE('',#339,5.);
#136=CIRCLE('',#341,5.);
#137=VERTEX_POINT('',#432);
#138=VERTEX_POINT('',#434);
#139=VERTEX_POINT('',#438);
#140=VERTEX_POINT('',#440);
#141=VERTEX_POINT('',#444);
#142=VERTEX_POINT('',#446);
#143=VERTEX_POINT('',#450);
#144=VERTEX_POINT('',#451);
#145=VERTEX_POINT('',#453);
#146=VERTEX_POINT('',#455);
#147=VERTEX_POINT('',#459);
#148=VERTEX_POINT('',#460);
#149=VERTEX_POINT('',#462);
#150=VERTEX_POINT('',#465);
#151=VERTEX_POINT('',#467);
#152=VERTEX_POINT('',#469);
#153=VERTEX_POINT('',#473);
#154=VERTEX_POINT('',#474);
#155=VERTEX_POINT('',#476);
#156=VERTEX_POINT('',#479);
#157=VERTEX_POINT('',#481);
#158=VERTEX_POINT('',#483);
#159=VERTEX_POINT('',#487);
#160=VERTEX_POINT('',#489);
#161=VERTEX_POINT('',#493);
#162=VERTEX_POINT('',#495);
#163=EDGE_CURVE('',#137,#137,#123,.T.);
#164=EDGE_CURVE('',#137,#138,#73,.T.);
#165=EDGE_CURVE('',#138,#138,#124,.T.);
#166=EDGE_CURVE('',#139,#139,#125,.T.);
#167=EDGE_CURVE('',#139,#140,#74,.T.);
#168=EDGE_CURVE('',#140,#140,#126,.T.);
#169=EDGE_CURVE('',#141,#141,#127,.T.);
#170=EDGE_CURVE('',#141,#142,#75,.T.);
#171=EDGE_CURVE('',#142,#142,#128,.T.);
#172=EDGE_CURVE('',#143,#144,#76,.T.);
#173=EDGE_CURVE('',#144,#145,#77,.T.);
#174=EDGE_CURVE('',#145,#146,#78,.T.);
#175=EDGE_CURVE('',#146,#143,#79,.T.);
#176=EDGE_CURVE('',#147,#148,#80,.T.);
#177=EDGE_CURVE('',#149,#148,#81,.T.);
#178=EDGE_CURVE('',#146,#149,#82,.T.);
#179=EDGE_CURVE('',#145,#150,#83,.T.);
#180=EDGE_CURVE('',#151,#150,#84,.T.);
#181=EDGE_CURVE('',#152,#151,#85,.T.);
#182=EDGE_CURVE('',#147,#152,#86,.T.);
#183=EDGE_CURVE('',#153,#154,#87,.T.);
#184=EDGE_CURVE('',#155,#154,#88,.T.);
#185=EDGE_CURVE('',#144,#155,#89,.T.);
#186=EDGE_CURVE('',#143,#156,#90,.T.);
#187=EDGE_CURVE('',#157,#156,#91,.T.);
#188=EDGE_CURVE('',#158,#157,#92,.T.);
#189=EDGE_CURVE('',#153,#158,#93,.T.);
#190=EDGE_CURVE('',#159,#159,#129,.T.);
#191=EDGE_CURVE('',#159,#160,#94,.T.);
#192=EDGE_CURVE('',#160,#160,#130,.T.);
#193=EDGE_CURVE('',#161,#161,#131,.T.);
#194=EDGE_CURVE('',#161,#162,#95,.T.);
#195=EDGE_CURVE('',#162,#162,#132,.T.);
#196=EDGE_CURVE('',#148,#157,#133,.T.);
#197=EDGE_CURVE('',#158,#147,#96,.T.);
#198=EDGE_CURVE('',#156,#149,#134,.T.);
#199=EDGE_CURVE('',#152,#153,#97,.T.);
#200=EDGE_CURVE('',#154,#151,#135,.T.);
#201=EDGE_CURVE('',#150,#155,#136,.T.);
#202=ORIENTED_EDGE('',*,*,#163,.F.);
#203=ORIENTED_EDGE('',*,*,#164,.T.);
#204=ORIENTED_EDGE('',*,*,#165,.F.);
#205=ORIENTED_EDGE('',*,*,#164,.F.);
#206=ORIENTED_EDGE('',*,*,#166,.F.);
#207=ORIENTED_EDGE('',*,*,#167,.T.);
#208=ORIENTED_EDGE('',*,*,#168,.F.);
#209=ORIENTED_EDGE('',*,*,#167,.F.);
#210=ORIENTED_EDGE('',*,*,#169,.F.);
#211=ORIENTED_EDGE('',*,*,#170,.T.);
#212=ORIENTED_EDGE('',*,*,#171,.F.);
#213=ORIENTED_EDGE('',*,*,#170,.F.);
#214=ORIENTED_EDGE('',*,*,#172,.T.);
#215=ORIENTED_EDGE('',*,*,#173,.T.);
#216=ORIENTED_EDGE('',*,*,#174,.T.);
#217=ORIENTED_EDGE('',*,*,#175,.T.);
#218=ORIENTED_EDGE('',*,*,#163,.T.);
#219=ORIENTED_EDGE('',*,*,#166,.T.);
#220=ORIENTED_EDGE('',*,*,#169,.T.);
#221=ORIENTED_EDGE('',*,*,#176,.T.);
#222=ORIENTED_EDGE('',*,*,#177,.F.);
#223=ORIENTED_EDGE('',*,*,#178,.F.);
#224=ORIENTED_EDGE('',*,*,#174,.F.);
#225=ORIENTED_EDGE('',*,*,#179,.T.);
#226=ORIENTED_EDGE('',*,*,#180,.F.);
#227=ORIENTED_EDGE('',*,*,#181,.F.);
#228=ORIENTED_EDGE('',*,*,#182,.F.);
#229=ORIENTED_EDGE('',*,*,#183,.T.);
#230=ORIENTED_EDGE('',*,*,#184,.F.);
#231=ORIENTED_EDGE('',*,*,#185,.F.);
#232=ORIENTED_EDGE('',*,*,#172,.F.);
#233=ORIENTED_EDGE('',*,*,#186,.T.);
#234=ORIENTED_EDGE('',*,*,#187,.F.);
#235=ORIENTED_EDGE('',*,*,#188,.F.);
#236=ORIENTED_EDGE('',*,*,#189,.F.);
#237=ORIENTED_EDGE('',*,*,#190,.F.);
#238=ORIENTED_EDGE('',*,*,#191,.T.);
#239=ORIENTED_EDGE('',*,*,#192,.F.);
#240=ORIENTED_EDGE('',*,*,#191,.F.);
#241=ORIENTED_EDGE('',*,*,#193,.F.);
#242=ORIENTED_EDGE('',*,*,#194,.T.);
#243=ORIENTED_EDGE('',*,*,#195,.F.);
#244=ORIENTED_EDGE('',*,*,#194,.F.);
#245=ORIENTED_EDGE('',*,*,#188,.T.);
#246=ORIENTED_EDGE('',*,*,#196,.F.);
#247=ORIENTED_EDGE('',*,*,#176,.F.);
#248=ORIENTED_EDGE('',*,*,#197,.F.);
#249=ORIENTED_EDGE('',*,*,#193,.T.);
#250=ORIENTED_EDGE('',*,*,#198,.T.);
#251=ORIENTED_EDGE('',*,*,#177,.T.);
#252=ORIENTED_EDGE('',*,*,#196,.T.);
#253=ORIENTED_EDGE('',*,*,#187,.T.);
#254=ORIENTED_EDGE('',*,*,#199,.F.);
#255=ORIENTED_EDGE('',*,*,#181,.T.);
#256=ORIENTED_EDGE('',*,*,#200,.F.);
#257=ORIENTED_EDGE('',*,*,#183,.F.);
#258=ORIENTED_EDGE('',*,*,#190,.T.);
#259=ORIENTED_EDGE('',*,*,#179,.F.);
#260=ORIENTED_EDGE('',*,*,#173,.F.);
#261=ORIENTED_EDGE('',*,*,#185,.T.);
#262=ORIENTED_EDGE('',*,*,#201,.F.);
#263=ORIENTED_EDGE('',*,*,#192,.T.);
#264=ORIENTED_EDGE('',*,*,#201,.T.);
#265=ORIENTED_EDGE('',*,*,#184,.T.);
#266=ORIENTED_EDGE('',*,*,#200,.T.);
#267=ORIENTED_EDGE('',*,*,#180,.T.);
#268=ORIENTED_EDGE('',*,*,#186,.F.);
#269=ORIENTED_EDGE('',*,*,#175,.F.);
#270=ORIENTED_EDGE('',*,*,#178,.T.);
#271=ORIENTED_EDGE('',*,*,#198,.F.);
#272=ORIENTED_EDGE('',*,*,#195,.T.);
#273=ORIENTED_EDGE('',*,*,#197,.T.);
#274=ORIENTED_EDGE('',*,*,#182,.T.);
#275=ORIENTED_EDGE('',*,*,#199,.T.);
#276=ORIENTED_EDGE('',*,*,#189,.T.);
#277=ORIENTED_EDGE('',*,*,#165,.T.);
#278=ORIENTED_EDGE('',*,*,#168,.T.);
#279=ORIENTED_EDGE('',*,*,#171,.T.);
#280=CYLINDRICAL_SURFACE('',#316,1.65);
#281=CYLINDRICAL_SURFACE('',#319,1.65);
#282=CYLINDRICAL_SURFACE('',#322,1.65);
#283=CYLINDRICAL_SURFACE('',#328,2.1);
#284=CYLINDRICAL_SURFACE('',#331,2.1);
#285=CYLINDRICAL_SURFACE('',#336,5.);
#286=CYLINDRICAL_SURFACE('',#342,5.);
#287=ADVANCED_FACE('',(#33),#280,.F.);
#288=ADVANCED_FACE('',(#34),#281,.F.);
#289=ADVANCED_FACE('',(#35),#282,.F.);
#290=ADVANCED_FACE('',(#36,#15,#16,#17),#25,.F.);
#291=ADVANCED_FACE('',(#37),#26,.T.);
#292=ADVANCED_FACE('',(#38),#27,.T.);
#293=ADVANCED_FACE('',(#39),#283,.F.);
#294=ADVANCED_FACE('',(#40),#284,.F.);
#295=ADVANCED_FACE('',(#41,#18),#28,.T.);
#296=ADVANCED_FACE('',(#42),#285,.T.);
#297=ADVANCED_FACE('',(#43,#19),#29,.T.);
#298=ADVANCED_FACE('',(#44,#20),#30,.T.);
#299=ADVANCED_FACE('',(#45),#286,.T.);
#300=ADVANCED_FACE('',(#46,#21),#31,.T.);
#301=ADVANCED_FACE('',(#47,#22,#23,#24),#32,.T.);
#302=CLOSED_SHELL('',(#287,#288,#289,#290,#291,#292,#293,#294,#295,#296,
#297,#298,#299,#300,#301));
#303=DERIVED_UNIT_ELEMENT(#305,1.);
#304=DERIVED_UNIT_ELEMENT(#516,-3.);
#305=(
MASS_UNIT()
NAMED_UNIT(*)
SI_UNIT(.KILO.,.GRAM.)
);
#306=DERIVED_UNIT((#303,#304));
#307=MEASURE_REPRESENTATION_ITEM('density measure',
POSITIVE_RATIO_MEASURE(7850.),#306);
#308=PROPERTY_DEFINITION_REPRESENTATION(#313,#310);
#309=PROPERTY_DEFINITION_REPRESENTATION(#314,#311);
#310=REPRESENTATION('material name',(#312),#513);
#311=REPRESENTATION('density',(#307),#513);
#312=DESCRIPTIVE_REPRESENTATION_ITEM('Acier','Acier');
#313=PROPERTY_DEFINITION('material property','material name',#523);
#314=PROPERTY_DEFINITION('material property','density of part',#523);
#315=AXIS2_PLACEMENT_3D('placement',#430,#345,#346);
#316=AXIS2_PLACEMENT_3D('',#431,#347,#348);
#317=AXIS2_PLACEMENT_3D('',#433,#349,#350);
#318=AXIS2_PLACEMENT_3D('',#436,#352,#353);
#319=AXIS2_PLACEMENT_3D('',#437,#354,#355);
#320=AXIS2_PLACEMENT_3D('',#439,#356,#357);
#321=AXIS2_PLACEMENT_3D('',#442,#359,#360);
#322=AXIS2_PLACEMENT_3D('',#443,#361,#362);
#323=AXIS2_PLACEMENT_3D('',#445,#363,#364);
#324=AXIS2_PLACEMENT_3D('',#448,#366,#367);
#325=AXIS2_PLACEMENT_3D('',#449,#368,#369);
#326=AXIS2_PLACEMENT_3D('',#458,#374,#375);
#327=AXIS2_PLACEMENT_3D('',#472,#383,#384);
#328=AXIS2_PLACEMENT_3D('',#486,#392,#393);
#329=AXIS2_PLACEMENT_3D('',#488,#394,#395);
#330=AXIS2_PLACEMENT_3D('',#491,#397,#398);
#331=AXIS2_PLACEMENT_3D('',#492,#399,#400);
#332=AXIS2_PLACEMENT_3D('',#494,#401,#402);
#333=AXIS2_PLACEMENT_3D('',#497,#404,#405);
#334=AXIS2_PLACEMENT_3D('',#498,#406,#407);
#335=AXIS2_PLACEMENT_3D('',#499,#408,#409);
#336=AXIS2_PLACEMENT_3D('',#501,#411,#412);
#337=AXIS2_PLACEMENT_3D('',#502,#413,#414);
#338=AXIS2_PLACEMENT_3D('',#503,#415,#416);
#339=AXIS2_PLACEMENT_3D('',#505,#418,#419);
#340=AXIS2_PLACEMENT_3D('',#506,#420,#421);
#341=AXIS2_PLACEMENT_3D('',#507,#422,#423);
#342=AXIS2_PLACEMENT_3D('',#508,#424,#425);
#343=AXIS2_PLACEMENT_3D('',#509,#426,#427);
#344=AXIS2_PLACEMENT_3D('',#510,#428,#429);
#345=DIRECTION('axis',(0.,0.,1.));
#346=DIRECTION('refdir',(1.,0.,0.));
#347=DIRECTION('center_axis',(0.,0.,1.));
#348=DIRECTION('ref_axis',(-1.,0.,0.));
#349=DIRECTION('center_axis',(0.,0.,1.));
#350=DIRECTION('ref_axis',(-1.,0.,0.));
#351=DIRECTION('',(0.,0.,1.));
#352=DIRECTION('center_axis',(0.,0.,-1.));
#353=DIRECTION('ref_axis',(-1.,0.,0.));
#354=DIRECTION('center_axis',(0.,0.,1.));
#355=DIRECTION('ref_axis',(-1.,0.,0.));
#356=DIRECTION('center_axis',(0.,0.,1.));
#357=DIRECTION('ref_axis',(-1.,0.,0.));
#358=DIRECTION('',(0.,0.,1.));
#359=DIRECTION('center_axis',(0.,0.,-1.));
#360=DIRECTION('ref_axis',(-1.,0.,0.));
#361=DIRECTION('center_axis',(0.,0.,1.));
#362=DIRECTION('ref_axis',(-1.,0.,0.));
#363=DIRECTION('center_axis',(0.,0.,1.));
#364=DIRECTION('ref_axis',(-1.,0.,0.));
#365=DIRECTION('',(0.,0.,1.));
#366=DIRECTION('center_axis',(0.,0.,-1.));
#367=DIRECTION('ref_axis',(-1.,0.,0.));
#368=DIRECTION('center_axis',(0.,0.,1.));
#369=DIRECTION('ref_axis',(1.,0.,0.));
#370=DIRECTION('',(-1.,0.,0.));
#371=DIRECTION('',(0.,1.,0.));
#372=DIRECTION('',(1.,0.,0.));
#373=DIRECTION('',(0.,-1.,0.));
#374=DIRECTION('center_axis',(0.,1.,0.));
#375=DIRECTION('ref_axis',(-1.,0.,0.));
#376=DIRECTION('',(0.,0.,1.));
#377=DIRECTION('',(-1.,0.,0.));
#378=DIRECTION('',(0.,0.,1.));
#379=DIRECTION('',(0.,0.,1.));
#380=DIRECTION('',(-1.,0.,0.));
#381=DIRECTION('',(0.,0.,1.));
#382=DIRECTION('',(-1.,0.,0.));
#383=DIRECTION('center_axis',(0.,-1.,0.));
#384=DIRECTION('ref_axis',(1.,0.,0.));
#385=DIRECTION('',(0.,0.,1.));
#386=DIRECTION('',(1.,0.,0.));
#387=DIRECTION('',(0.,0.,1.));
#388=DIRECTION('',(0.,0.,1.));
#389=DIRECTION('',(1.,0.,0.));
#390=DIRECTION('',(0.,0.,1.));
#391=DIRECTION('',(1.,0.,0.));
#392=DIRECTION('center_axis',(-1.,0.,0.));
#393=DIRECTION('ref_axis',(0.,1.,0.));
#394=DIRECTION('center_axis',(-1.,0.,0.));
#395=DIRECTION('ref_axis',(0.,1.,0.));
#396=DIRECTION('',(-1.,0.,0.));
#397=DIRECTION('center_axis',(1.,0.,0.));
#398=DIRECTION('ref_axis',(0.,1.,0.));
#399=DIRECTION('center_axis',(1.,0.,0.));
#400=DIRECTION('ref_axis',(0.,-1.,0.));
#401=DIRECTION('center_axis',(1.,0.,0.));
#402=DIRECTION('ref_axis',(0.,-1.,0.));
#403=DIRECTION('',(1.,0.,0.));
#404=DIRECTION('center_axis',(-1.,0.,0.));
#405=DIRECTION('ref_axis',(0.,-1.,0.));
#406=DIRECTION('center_axis',(-1.,0.,0.));
#407=DIRECTION('ref_axis',(0.,-1.,0.));
#408=DIRECTION('center_axis',(1.,0.,0.));
#409=DIRECTION('ref_axis',(0.,-0.707106781186547,0.707106781186547));
#410=DIRECTION('',(0.,1.,0.));
#411=DIRECTION('center_axis',(1.,0.,0.));
#412=DIRECTION('ref_axis',(0.,-0.707106781186547,0.707106781186547));
#413=DIRECTION('center_axis',(-1.,0.,0.));
#414=DIRECTION('ref_axis',(0.,0.707106781186547,0.707106781186547));
#415=DIRECTION('center_axis',(1.,0.,0.));
#416=DIRECTION('ref_axis',(0.,1.,0.));
#417=DIRECTION('',(0.,-1.,0.));
#418=DIRECTION('center_axis',(-1.,0.,0.));
#419=DIRECTION('ref_axis',(0.,0.707106781186547,0.707106781186547));
#420=DIRECTION('center_axis',(-1.,0.,0.));
#421=DIRECTION('ref_axis',(0.,-1.,0.));
#422=DIRECTION('center_axis',(1.,0.,0.));
#423=DIRECTION('ref_axis',(0.,-0.707106781186547,0.707106781186547));
#424=DIRECTION('center_axis',(1.,0.,0.));
#425=DIRECTION('ref_axis',(0.,-0.707106781186547,0.707106781186547));
#426=DIRECTION('center_axis',(1.,0.,0.));
#427=DIRECTION('ref_axis',(0.,1.,0.));
#428=DIRECTION('center_axis',(0.,0.,1.));
#429=DIRECTION('ref_axis',(1.,0.,0.));
#430=CARTESIAN_POINT('',(0.,0.,0.));
#431=CARTESIAN_POINT('Origin',(-35.,5.05505925943947,3.));
#432=CARTESIAN_POINT('',(-33.35,5.05505925943947,0.));
#433=CARTESIAN_POINT('Origin',(-35.,5.05505925943947,0.));
#434=CARTESIAN_POINT('',(-33.35,5.05505925943947,10.));
#435=CARTESIAN_POINT('',(-33.35,5.05505925943947,3.));
#436=CARTESIAN_POINT('Origin',(-35.,5.05505925943947,10.));
#437=CARTESIAN_POINT('Origin',(-55.,5.,3.));
#438=CARTESIAN_POINT('',(-53.35,5.,0.));
#439=CARTESIAN_POINT('Origin',(-55.,5.,0.));
#440=CARTESIAN_POINT('',(-53.35,5.,10.));
#441=CARTESIAN_POINT('',(-53.35,5.,3.));
#442=CARTESIAN_POINT('Origin',(-55.,5.,10.));
#443=CARTESIAN_POINT('Origin',(-15.,5.,3.));
#444=CARTESIAN_POINT('',(-13.35,5.,0.));
#445=CARTESIAN_POINT('Origin',(-15.,5.,0.));
#446=CARTESIAN_POINT('',(-13.35,5.,10.));
#447=CARTESIAN_POINT('',(-13.35,5.,3.));
#448=CARTESIAN_POINT('Origin',(-15.,5.,10.));
#449=CARTESIAN_POINT('Origin',(-35.,5.,0.));
#450=CARTESIAN_POINT('',(0.,0.,0.));
#451=CARTESIAN_POINT('',(-70.,0.,0.));
#452=CARTESIAN_POINT('',(0.,0.,0.));
#453=CARTESIAN_POINT('',(-70.,10.,0.));
#454=CARTESIAN_POINT('',(-70.,0.,0.));
#455=CARTESIAN_POINT('',(0.,10.,0.));
#456=CARTESIAN_POINT('',(-70.,10.,0.));
#457=CARTESIAN_POINT('',(0.,10.,0.));
#458=CARTESIAN_POINT('Origin',(-10.,10.,0.));
#459=CARTESIAN_POINT('',(-10.,10.,10.));
#460=CARTESIAN_POINT('',(-10.,10.,15.));
#461=CARTESIAN_POINT('',(-10.,10.,0.));
#462=CARTESIAN_POINT('',(0.,10.,15.));
#463=CARTESIAN_POINT('',(-7.5,10.,15.));
#464=CARTESIAN_POINT('',(0.,10.,0.));
#465=CARTESIAN_POINT('',(-70.,10.,15.));
#466=CARTESIAN_POINT('',(-70.,10.,0.));
#467=CARTESIAN_POINT('',(-60.,10.,15.));
#468=CARTESIAN_POINT('',(-37.5,10.,15.));
#469=CARTESIAN_POINT('',(-60.,10.,10.));
#470=CARTESIAN_POINT('',(-60.,10.,0.));
#471=CARTESIAN_POINT('',(-70.,10.,10.));
#472=CARTESIAN_POINT('Origin',(-60.,0.,0.));
#473=CARTESIAN_POINT('',(-60.,0.,10.));
#474=CARTESIAN_POINT('',(-60.,0.,15.));
#475=CARTESIAN_POINT('',(-60.,0.,0.));
#476=CARTESIAN_POINT('',(-70.,0.,15.));
#477=CARTESIAN_POINT('',(-62.5,0.,15.));
#478=CARTESIAN_POINT('',(-70.,0.,0.));
#479=CARTESIAN_POINT('',(0.,0.,15.));
#480=CARTESIAN_POINT('',(0.,0.,0.));
#481=CARTESIAN_POINT('',(-10.,0.,15.));
#482=CARTESIAN_POINT('',(-32.5,0.,15.));
#483=CARTESIAN_POINT('',(-10.,0.,10.));
#484=CARTESIAN_POINT('',(-10.,0.,0.));
#485=CARTESIAN_POINT('',(0.,0.,10.));
#486=CARTESIAN_POINT('Origin',(-535.,5.00000007450581,15.0000002235174));
#487=CARTESIAN_POINT('',(-60.,2.90000007450581,15.0000002235174));
#488=CARTESIAN_POINT('Origin',(-60.,5.00000007450581,15.0000002235174));
#489=CARTESIAN_POINT('',(-70.,2.90000007450581,15.0000002235174));
#490=CARTESIAN_POINT('',(-535.,2.90000007450581,15.0000002235174));
#491=CARTESIAN_POINT('Origin',(-70.,5.00000007450581,15.0000002235174));
#492=CARTESIAN_POINT('Origin',(515.,5.00000007450581,15.0000002235174));
#493=CARTESIAN_POINT('',(-10.,7.10000007450581,15.0000002235174));
#494=CARTESIAN_POINT('Origin',(-10.,5.00000007450581,15.0000002235174));
#495=CARTESIAN_POINT('',(0.,7.10000007450581,15.0000002235174));
#496=CARTESIAN_POINT('',(515.,7.10000007450581,15.0000002235174));
#497=CARTESIAN_POINT('Origin',(0.,5.00000007450581,15.0000002235174));
#498=CARTESIAN_POINT('Origin',(-10.,10.,0.));
#499=CARTESIAN_POINT('Origin',(-10.,5.,15.));
#500=CARTESIAN_POINT('',(-10.,0.,10.));
#501=CARTESIAN_POINT('Origin',(-32.5,5.,15.));
#502=CARTESIAN_POINT('Origin',(0.,5.,15.));
#503=CARTESIAN_POINT('Origin',(-60.,0.,0.));
#504=CARTESIAN_POINT('',(-60.,0.,10.));
#505=CARTESIAN_POINT('Origin',(-60.,5.,15.));
#506=CARTESIAN_POINT('Origin',(-70.,10.,0.));
#507=CARTESIAN_POINT('Origin',(-70.,5.,15.));
#508=CARTESIAN_POINT('Origin',(-62.5,5.,15.));
#509=CARTESIAN_POINT('Origin',(0.,0.,0.));
#510=CARTESIAN_POINT('Origin',(-35.,5.,10.));
#511=UNCERTAINTY_MEASURE_WITH_UNIT(LENGTH_MEASURE(0.01),#515,
'DISTANCE_ACCURACY_VALUE',
'Maximum model space distance between geometric entities at asserted c
onnectivities');
#512=UNCERTAINTY_MEASURE_WITH_UNIT(LENGTH_MEASURE(0.01),#515,
'DISTANCE_ACCURACY_VALUE',
'Maximum model space distance between geometric entities at asserted c
onnectivities');
#513=(
GEOMETRIC_REPRESENTATION_CONTEXT(3)
GLOBAL_UNCERTAINTY_ASSIGNED_CONTEXT((#511))
GLOBAL_UNIT_ASSIGNED_CONTEXT((#515,#517,#518))
REPRESENTATION_CONTEXT('','3D')
);
#514=(
GEOMETRIC_REPRESENTATION_CONTEXT(3)
GLOBAL_UNCERTAINTY_ASSIGNED_CONTEXT((#512))
GLOBAL_UNIT_ASSIGNED_CONTEXT((#515,#517,#518))
REPRESENTATION_CONTEXT('','3D')
);
#515=(
LENGTH_UNIT()
NAMED_UNIT(*)
SI_UNIT(.MILLI.,.METRE.)
);
#516=(
LENGTH_UNIT()
NAMED_UNIT(*)
SI_UNIT($,.METRE.)
);
#517=(
NAMED_UNIT(*)
PLANE_ANGLE_UNIT()
SI_UNIT($,.RADIAN.)
);
#518=(
NAMED_UNIT(*)
SI_UNIT($,.STERADIAN.)
SOLID_ANGLE_UNIT()
);
#519=SHAPE_DEFINITION_REPRESENTATION(#520,#521);
#520=PRODUCT_DEFINITION_SHAPE('',$,#523);
#521=SHAPE_REPRESENTATION('',(#315),#513);
#522=PRODUCT_DEFINITION_CONTEXT('part definition',#527,'design');
#523=PRODUCT_DEFINITION('CHARNIERE FINALE v1','CHARNIERE FINALE v1 v1',
#524,#522);
#524=PRODUCT_DEFINITION_FORMATION('',$,#529);
#525=PRODUCT_RELATED_PRODUCT_CATEGORY('CHARNIERE FINALE v1 v1',
'CHARNIERE FINALE v1 v1',(#529));
#526=APPLICATION_PROTOCOL_DEFINITION('international standard',
'automotive_design',2009,#527);
#527=APPLICATION_CONTEXT(
'Core Data for Automotive Mechanical Design Process');
#528=PRODUCT_CONTEXT('part definition',#527,'mechanical');
#529=PRODUCT('CHARNIERE FINALE v1','CHARNIERE FINALE v1 v1',$,(#528));
#530=PRESENTATION_STYLE_ASSIGNMENT((#531));
#531=SURFACE_STYLE_USAGE(.BOTH.,#532);
#532=SURFACE_SIDE_STYLE('',(#533));
#533=SURFACE_STYLE_FILL_AREA(#534);
#534=FILL_AREA_STYLE('Acier - Satin\X\E9',(#535));
#535=FILL_AREA_STYLE_COLOUR('Acier - Satin\X\E9',#536);
#536=COLOUR_RGB('Acier - Satin\X\E9',0.627450980392157,0.627450980392157,
0.627450980392157);
ENDSEC;
END-ISO-10303-21;
