ISO-10303-21;
HEADER;
FILE_DESCRIPTION(('CATIA V5 STEP Exchange'),'2;1');

FILE_NAME('C:\\Users\\pierr\\Desktop\\pont_grand.stp','2022-03-05T09:16:54+00:00',('none'),('none'),'CATIA Version 5 Release 20 GA (IN-10)','CATIA V5 STEP AP203','none');

FILE_SCHEMA(('CONFIG_CONTROL_DESIGN'));

ENDSEC;
/* file written by CATIA V5R20 */
DATA;
#5=PRODUCT('Part6','','',(#2)) ;
#1=APPLICATION_CONTEXT('configuration controlled 3D design of mechanical parts and assemblies') ;
#14=PRODUCT_DEFINITION('',' ',#6,#3) ;
#16=SECURITY_CLASSIFICATION(' ',' ',#15) ;
#15=SECURITY_CLASSIFICATION_LEVEL('unclassified') ;
#47=CARTESIAN_POINT(' ',(0.,0.,0.)) ;
#52=CARTESIAN_POINT('Axis2P3D Location',(9.7,3.7,4.)) ;
#57=CARTESIAN_POINT('Line Origine',(9.7,1.85,6.5)) ;
#61=CARTESIAN_POINT('Vertex',(9.7,1.85,4.)) ;
#63=CARTESIAN_POINT('Vertex',(9.7,1.85,9.)) ;
#66=CARTESIAN_POINT('Line Origine',(9.7,2.775,4.)) ;
#70=CARTESIAN_POINT('Vertex',(9.7,3.7,4.)) ;
#73=CARTESIAN_POINT('Line Origine',(9.7,3.7,6.5)) ;
#77=CARTESIAN_POINT('Vertex',(9.7,3.7,9.)) ;
#80=CARTESIAN_POINT('Line Origine',(9.7,2.775,9.)) ;
#92=CARTESIAN_POINT('Axis2P3D Location',(0.,0.,9.)) ;
#97=CARTESIAN_POINT('Line Origine',(0.,0.925,9.)) ;
#101=CARTESIAN_POINT('Vertex',(0.,1.85,9.)) ;
#103=CARTESIAN_POINT('Vertex',(-1.3110874821E-015,-4.33381070565E-025,9.)) ;
#106=CARTESIAN_POINT('Line Origine',(0.925,-4.33381070565E-025,9.)) ;
#110=CARTESIAN_POINT('Vertex',(1.85,-4.33381070565E-025,9.)) ;
#113=CARTESIAN_POINT('Axis2P3D Location',(1.85,1.85,9.)) ;
#124=CARTESIAN_POINT('Axis2P3D Location',(0.,3.7,0.)) ;
#129=CARTESIAN_POINT('Line Origine',(0.,1.85,6.5)) ;
#133=CARTESIAN_POINT('Vertex',(0.,1.85,4.)) ;
#136=CARTESIAN_POINT('Line Origine',(0.,2.775,4.)) ;
#140=CARTESIAN_POINT('Vertex',(0.,3.7,4.)) ;
#143=CARTESIAN_POINT('Line Origine',(0.,3.7,2.)) ;
#147=CARTESIAN_POINT('Vertex',(0.,3.7,0.)) ;
#150=CARTESIAN_POINT('Line Origine',(0.,1.85000047684,0.)) ;
#154=CARTESIAN_POINT('Vertex',(0.,0.,0.)) ;
#157=CARTESIAN_POINT('Line Origine',(0.,9.53674319959E-007,2.)) ;
#161=CARTESIAN_POINT('Vertex',(0.,0.,4.)) ;
#164=CARTESIAN_POINT('Line Origine',(0.,0.,6.5)) ;
#179=CARTESIAN_POINT('Axis2P3D Location',(0.,0.,0.)) ;
#184=CARTESIAN_POINT('Line Origine',(21.35,3.7,0.)) ;
#188=CARTESIAN_POINT('Vertex',(42.7,3.7,0.)) ;
#191=CARTESIAN_POINT('Line Origine',(42.7,1.85,0.)) ;
#195=CARTESIAN_POINT('Vertex',(42.7,0.,0.)) ;
#198=CARTESIAN_POINT('Line Origine',(21.35,0.,0.)) ;
#210=CARTESIAN_POINT('Axis2P3D Location',(42.7,0.,0.)) ;
#215=CARTESIAN_POINT('Line Origine',(42.7,0.,4.5)) ;
#219=CARTESIAN_POINT('Vertex',(42.7,0.,9.)) ;
#222=CARTESIAN_POINT('Line Origine',(42.7,3.7,2.)) ;
#226=CARTESIAN_POINT('Vertex',(42.7,3.7,4.)) ;
#229=CARTESIAN_POINT('Line Origine',(42.7,2.775,4.)) ;
#233=CARTESIAN_POINT('Vertex',(42.7,1.85,4.)) ;
#236=CARTESIAN_POINT('Line Origine',(42.7,1.85,6.5)) ;
#240=CARTESIAN_POINT('Vertex',(42.7,1.85,9.)) ;
#243=CARTESIAN_POINT('Line Origine',(42.7,0.925,9.)) ;
#257=CARTESIAN_POINT('Line Origine',(41.775,0.,9.)) ;
#261=CARTESIAN_POINT('Vertex',(40.85,0.,9.)) ;
#264=CARTESIAN_POINT('Axis2P3D Location',(40.85,1.85,9.)) ;
#275=CARTESIAN_POINT('Axis2P3D Location',(33.,3.7,4.)) ;
#280=CARTESIAN_POINT('Line Origine',(33.,3.7,6.5)) ;
#284=CARTESIAN_POINT('Vertex',(33.,3.7,4.)) ;
#286=CARTESIAN_POINT('Vertex',(33.,3.7,9.)) ;
#289=CARTESIAN_POINT('Line Origine',(33.,2.775,4.)) ;
#293=CARTESIAN_POINT('Vertex',(33.,1.85,4.)) ;
#296=CARTESIAN_POINT('Line Origine',(33.,1.85,6.5)) ;
#300=CARTESIAN_POINT('Vertex',(33.,1.85,9.)) ;
#303=CARTESIAN_POINT('Line Origine',(33.,2.775,9.)) ;
#315=CARTESIAN_POINT('Line Origine',(8.775,3.7,9.)) ;
#319=CARTESIAN_POINT('Vertex',(7.85,3.7,9.)) ;
#322=CARTESIAN_POINT('Axis2P3D Location',(7.85,1.85,9.)) ;
#333=CARTESIAN_POINT('Line Origine',(33.925,3.7,9.)) ;
#337=CARTESIAN_POINT('Vertex',(34.85,3.7,9.)) ;
#340=CARTESIAN_POINT('Axis2P3D Location',(34.85,1.85,9.)) ;
#351=CARTESIAN_POINT('Axis2P3D Location',(34.85,1.85,6.5)) ;
#356=CARTESIAN_POINT('Line Origine',(34.85,3.7,7.5)) ;
#360=CARTESIAN_POINT('Vertex',(34.85,3.7,11.)) ;
#363=CARTESIAN_POINT('Axis2P3D Location',(34.85,1.85,4.)) ;
#367=CARTESIAN_POINT('Vertex',(34.85,0.,4.)) ;
#370=CARTESIAN_POINT('Line Origine',(34.85,2.22044604925E-016,7.5)) ;
#374=CARTESIAN_POINT('Vertex',(34.85,2.22044604925E-016,11.)) ;
#377=CARTESIAN_POINT('Axis2P3D Location',(34.85,1.85,11.)) ;
#391=CARTESIAN_POINT('Axis2P3D Location',(42.7,3.7,0.)) ;
#396=CARTESIAN_POINT('Line Origine',(40.85,3.7,7.5)) ;
#400=CARTESIAN_POINT('Vertex',(40.85,3.7,4.)) ;
#402=CARTESIAN_POINT('Vertex',(40.85,3.7,11.)) ;
#405=CARTESIAN_POINT('Line Origine',(41.775,3.7,4.)) ;
#410=CARTESIAN_POINT('Line Origine',(0.925,3.7,4.)) ;
#414=CARTESIAN_POINT('Vertex',(1.85,3.7,4.)) ;
#417=CARTESIAN_POINT('Line Origine',(1.85,3.7,7.5)) ;
#421=CARTESIAN_POINT('Vertex',(1.85,3.7,11.)) ;
#424=CARTESIAN_POINT('Line Origine',(4.85,3.7,11.)) ;
#428=CARTESIAN_POINT('Vertex',(7.85,3.7,11.)) ;
#431=CARTESIAN_POINT('Line Origine',(7.85,3.7,10.)) ;
#436=CARTESIAN_POINT('Line Origine',(21.35,3.7,4.)) ;
#441=CARTESIAN_POINT('Line Origine',(37.85,3.7,11.)) ;
#465=CARTESIAN_POINT('Axis2P3D Location',(0.,0.,0.)) ;
#470=CARTESIAN_POINT('Line Origine',(21.35,0.,4.)) ;
#474=CARTESIAN_POINT('Vertex',(7.85,0.,4.)) ;
#477=CARTESIAN_POINT('Line Origine',(7.85,0.,7.5)) ;
#481=CARTESIAN_POINT('Vertex',(7.85,0.,11.)) ;
#484=CARTESIAN_POINT('Line Origine',(4.85,0.,11.)) ;
#488=CARTESIAN_POINT('Vertex',(1.85,0.,11.)) ;
#491=CARTESIAN_POINT('Line Origine',(1.85,0.,10.)) ;
#496=CARTESIAN_POINT('Line Origine',(40.85,0.,10.)) ;
#500=CARTESIAN_POINT('Vertex',(40.85,0.,11.)) ;
#503=CARTESIAN_POINT('Line Origine',(37.85,0.,11.)) ;
#524=CARTESIAN_POINT('Axis2P3D Location',(40.85,1.85,6.5)) ;
#529=CARTESIAN_POINT('Axis2P3D Location',(40.85,1.85,4.)) ;
#534=CARTESIAN_POINT('Axis2P3D Location',(40.85,1.85,11.)) ;
#548=CARTESIAN_POINT('Axis2P3D Location',(7.85,1.85,6.5)) ;
#553=CARTESIAN_POINT('Axis2P3D Location',(7.85,1.85,4.)) ;
#558=CARTESIAN_POINT('Axis2P3D Location',(7.85,1.85,11.)) ;
#572=CARTESIAN_POINT('Axis2P3D Location',(1.85,1.85,6.5)) ;
#577=CARTESIAN_POINT('Axis2P3D Location',(1.85,1.85,4.)) ;
#582=CARTESIAN_POINT('Axis2P3D Location',(1.85,1.85,11.)) ;
#596=CARTESIAN_POINT('Axis2P3D Location',(0.,0.,11.)) ;
#615=CARTESIAN_POINT('Axis2P3D Location',(0.,0.,4.)) ;
#53=DIRECTION('Axis2P3D Direction',(-1.,0.,0.)) ;
#54=DIRECTION('Axis2P3D XDirection',(0.,-1.,0.)) ;
#58=DIRECTION('Vector Direction',(0.,0.,1.)) ;
#67=DIRECTION('Vector Direction',(0.,-1.,0.)) ;
#74=DIRECTION('Vector Direction',(0.,0.,1.)) ;
#81=DIRECTION('Vector Direction',(0.,-1.,0.)) ;
#93=DIRECTION('Axis2P3D Direction',(0.,0.,1.)) ;
#94=DIRECTION('Axis2P3D XDirection',(1.,0.,0.)) ;
#98=DIRECTION('Vector Direction',(0.,1.,0.)) ;
#107=DIRECTION('Vector Direction',(1.,0.,0.)) ;
#114=DIRECTION('Axis2P3D Direction',(0.,0.,1.)) ;
#125=DIRECTION('Axis2P3D Direction',(-1.,0.,0.)) ;
#126=DIRECTION('Axis2P3D XDirection',(0.,-1.,0.)) ;
#130=DIRECTION('Vector Direction',(0.,0.,1.)) ;
#137=DIRECTION('Vector Direction',(0.,-1.,0.)) ;
#144=DIRECTION('Vector Direction',(0.,0.,1.)) ;
#151=DIRECTION('Vector Direction',(0.,-1.,0.)) ;
#158=DIRECTION('Vector Direction',(0.,0.,1.)) ;
#165=DIRECTION('Vector Direction',(0.,0.,1.)) ;
#180=DIRECTION('Axis2P3D Direction',(0.,0.,1.)) ;
#181=DIRECTION('Axis2P3D XDirection',(1.,0.,0.)) ;
#185=DIRECTION('Vector Direction',(-1.,0.,0.)) ;
#192=DIRECTION('Vector Direction',(0.,1.,0.)) ;
#199=DIRECTION('Vector Direction',(1.,0.,0.)) ;
#211=DIRECTION('Axis2P3D Direction',(1.,0.,0.)) ;
#212=DIRECTION('Axis2P3D XDirection',(0.,1.,0.)) ;
#216=DIRECTION('Vector Direction',(0.,0.,1.)) ;
#223=DIRECTION('Vector Direction',(0.,0.,1.)) ;
#230=DIRECTION('Vector Direction',(0.,1.,0.)) ;
#237=DIRECTION('Vector Direction',(0.,0.,1.)) ;
#244=DIRECTION('Vector Direction',(0.,1.,0.)) ;
#258=DIRECTION('Vector Direction',(-1.,0.,0.)) ;
#265=DIRECTION('Axis2P3D Direction',(0.,0.,1.)) ;
#276=DIRECTION('Axis2P3D Direction',(-1.,0.,0.)) ;
#277=DIRECTION('Axis2P3D XDirection',(0.,-1.,0.)) ;
#281=DIRECTION('Vector Direction',(0.,0.,1.)) ;
#290=DIRECTION('Vector Direction',(0.,-1.,0.)) ;
#297=DIRECTION('Vector Direction',(0.,0.,1.)) ;
#304=DIRECTION('Vector Direction',(0.,-1.,0.)) ;
#316=DIRECTION('Vector Direction',(1.,0.,0.)) ;
#323=DIRECTION('Axis2P3D Direction',(0.,0.,1.)) ;
#334=DIRECTION('Vector Direction',(-1.,2.40048221541E-016,0.)) ;
#341=DIRECTION('Axis2P3D Direction',(0.,0.,1.)) ;
#352=DIRECTION('Axis2P3D Direction',(0.,0.,1.)) ;
#353=DIRECTION('Axis2P3D XDirection',(2.72576759906E-015,1.,0.)) ;
#357=DIRECTION('Vector Direction',(0.,0.,1.)) ;
#364=DIRECTION('Axis2P3D Direction',(0.,0.,1.)) ;
#371=DIRECTION('Vector Direction',(0.,0.,1.)) ;
#378=DIRECTION('Axis2P3D Direction',(0.,0.,1.)) ;
#392=DIRECTION('Axis2P3D Direction',(0.,1.,-0.)) ;
#393=DIRECTION('Axis2P3D XDirection',(-1.,0.,0.)) ;
#397=DIRECTION('Vector Direction',(0.,0.,1.)) ;
#406=DIRECTION('Vector Direction',(-1.,0.,0.)) ;
#411=DIRECTION('Vector Direction',(-1.,0.,0.)) ;
#418=DIRECTION('Vector Direction',(0.,0.,1.)) ;
#425=DIRECTION('Vector Direction',(-1.,0.,0.)) ;
#432=DIRECTION('Vector Direction',(0.,0.,1.)) ;
#437=DIRECTION('Vector Direction',(-1.,0.,0.)) ;
#442=DIRECTION('Vector Direction',(1.,0.,0.)) ;
#466=DIRECTION('Axis2P3D Direction',(0.,-1.,0.)) ;
#467=DIRECTION('Axis2P3D XDirection',(1.,0.,0.)) ;
#471=DIRECTION('Vector Direction',(1.,0.,0.)) ;
#478=DIRECTION('Vector Direction',(0.,0.,1.)) ;
#485=DIRECTION('Vector Direction',(1.,0.,0.)) ;
#492=DIRECTION('Vector Direction',(0.,0.,1.)) ;
#497=DIRECTION('Vector Direction',(0.,0.,1.)) ;
#504=DIRECTION('Vector Direction',(-1.,0.,0.)) ;
#525=DIRECTION('Axis2P3D Direction',(0.,0.,1.)) ;
#526=DIRECTION('Axis2P3D XDirection',(-1.07187543957E-015,-1.,-0.)) ;
#530=DIRECTION('Axis2P3D Direction',(0.,0.,1.)) ;
#535=DIRECTION('Axis2P3D Direction',(0.,0.,1.)) ;
#549=DIRECTION('Axis2P3D Direction',(0.,0.,1.)) ;
#550=DIRECTION('Axis2P3D XDirection',(-1.83697019872E-016,-1.,-0.)) ;
#554=DIRECTION('Axis2P3D Direction',(0.,0.,1.)) ;
#559=DIRECTION('Axis2P3D Direction',(0.,0.,1.)) ;
#573=DIRECTION('Axis2P3D Direction',(0.,0.,1.)) ;
#574=DIRECTION('Axis2P3D XDirection',(7.27366154732E-016,1.,0.)) ;
#578=DIRECTION('Axis2P3D Direction',(0.,0.,1.)) ;
#583=DIRECTION('Axis2P3D Direction',(0.,0.,1.)) ;
#597=DIRECTION('Axis2P3D Direction',(0.,0.,1.)) ;
#598=DIRECTION('Axis2P3D XDirection',(1.,0.,0.)) ;
#616=DIRECTION('Axis2P3D Direction',(0.,0.,1.)) ;
#617=DIRECTION('Axis2P3D XDirection',(1.,0.,0.)) ;
#48=AXIS2_PLACEMENT_3D(' ',#47,$,$) ;
#55=AXIS2_PLACEMENT_3D('Plane Axis2P3D',#52,#53,#54) ;
#95=AXIS2_PLACEMENT_3D('Plane Axis2P3D',#92,#93,#94) ;
#115=AXIS2_PLACEMENT_3D('Circle Axis2P3D',#113,#114,$) ;
#127=AXIS2_PLACEMENT_3D('Plane Axis2P3D',#124,#125,#126) ;
#182=AXIS2_PLACEMENT_3D('Plane Axis2P3D',#179,#180,#181) ;
#213=AXIS2_PLACEMENT_3D('Plane Axis2P3D',#210,#211,#212) ;
#266=AXIS2_PLACEMENT_3D('Circle Axis2P3D',#264,#265,$) ;
#278=AXIS2_PLACEMENT_3D('Plane Axis2P3D',#275,#276,#277) ;
#324=AXIS2_PLACEMENT_3D('Circle Axis2P3D',#322,#323,$) ;
#342=AXIS2_PLACEMENT_3D('Circle Axis2P3D',#340,#341,$) ;
#354=AXIS2_PLACEMENT_3D('Cylinder Axis2P3D',#351,#352,#353) ;
#365=AXIS2_PLACEMENT_3D('Circle Axis2P3D',#363,#364,$) ;
#379=AXIS2_PLACEMENT_3D('Circle Axis2P3D',#377,#378,$) ;
#394=AXIS2_PLACEMENT_3D('Plane Axis2P3D',#391,#392,#393) ;
#468=AXIS2_PLACEMENT_3D('Plane Axis2P3D',#465,#466,#467) ;
#527=AXIS2_PLACEMENT_3D('Cylinder Axis2P3D',#524,#525,#526) ;
#531=AXIS2_PLACEMENT_3D('Circle Axis2P3D',#529,#530,$) ;
#536=AXIS2_PLACEMENT_3D('Circle Axis2P3D',#534,#535,$) ;
#551=AXIS2_PLACEMENT_3D('Cylinder Axis2P3D',#548,#549,#550) ;
#555=AXIS2_PLACEMENT_3D('Circle Axis2P3D',#553,#554,$) ;
#560=AXIS2_PLACEMENT_3D('Circle Axis2P3D',#558,#559,$) ;
#575=AXIS2_PLACEMENT_3D('Cylinder Axis2P3D',#572,#573,#574) ;
#579=AXIS2_PLACEMENT_3D('Circle Axis2P3D',#577,#578,$) ;
#584=AXIS2_PLACEMENT_3D('Circle Axis2P3D',#582,#583,$) ;
#599=AXIS2_PLACEMENT_3D('Plane Axis2P3D',#596,#597,#598) ;
#618=AXIS2_PLACEMENT_3D('Plane Axis2P3D',#615,#616,#617) ;
#40=PRODUCT_DEFINITION_SHAPE(' ',' ',#14) ;
#31=APPROVAL_PERSON_ORGANIZATION(#25,#21,#19) ;
#25=PERSON_AND_ORGANIZATION(#22,#23) ;
#22=PERSON(' ',' ',' ',$,$,$) ;
#23=ORGANIZATION(' ',' ',' ') ;
#21=APPROVAL(#20,' ') ;
#20=APPROVAL_STATUS('not_yet_approved') ;
#19=APPROVAL_ROLE('APPROVER') ;
#13=DATE_AND_TIME(#11,#12) ;
#12=LOCAL_TIME(10,16,54.,#10) ;
#10=COORDINATED_UNIVERSAL_TIME_OFFSET(0,0,.AHEAD.) ;
#86=ORIENTED_EDGE('',*,*,#65,.F.) ;
#87=ORIENTED_EDGE('',*,*,#72,.T.) ;
#88=ORIENTED_EDGE('',*,*,#79,.T.) ;
#89=ORIENTED_EDGE('',*,*,#84,.F.) ;
#119=ORIENTED_EDGE('',*,*,#105,.T.) ;
#120=ORIENTED_EDGE('',*,*,#112,.T.) ;
#121=ORIENTED_EDGE('',*,*,#117,.F.) ;
#170=ORIENTED_EDGE('',*,*,#135,.F.) ;
#171=ORIENTED_EDGE('',*,*,#142,.F.) ;
#172=ORIENTED_EDGE('',*,*,#149,.F.) ;
#173=ORIENTED_EDGE('',*,*,#156,.T.) ;
#174=ORIENTED_EDGE('',*,*,#163,.T.) ;
#175=ORIENTED_EDGE('',*,*,#168,.T.) ;
#176=ORIENTED_EDGE('',*,*,#105,.F.) ;
#204=ORIENTED_EDGE('',*,*,#156,.F.) ;
#205=ORIENTED_EDGE('',*,*,#190,.F.) ;
#206=ORIENTED_EDGE('',*,*,#197,.F.) ;
#207=ORIENTED_EDGE('',*,*,#202,.F.) ;
#249=ORIENTED_EDGE('',*,*,#221,.F.) ;
#250=ORIENTED_EDGE('',*,*,#197,.T.) ;
#251=ORIENTED_EDGE('',*,*,#228,.T.) ;
#252=ORIENTED_EDGE('',*,*,#235,.F.) ;
#253=ORIENTED_EDGE('',*,*,#242,.T.) ;
#254=ORIENTED_EDGE('',*,*,#247,.F.) ;
#270=ORIENTED_EDGE('',*,*,#263,.T.) ;
#271=ORIENTED_EDGE('',*,*,#247,.T.) ;
#272=ORIENTED_EDGE('',*,*,#268,.F.) ;
#309=ORIENTED_EDGE('',*,*,#288,.F.) ;
#310=ORIENTED_EDGE('',*,*,#295,.T.) ;
#311=ORIENTED_EDGE('',*,*,#302,.T.) ;
#312=ORIENTED_EDGE('',*,*,#307,.F.) ;
#328=ORIENTED_EDGE('',*,*,#84,.T.) ;
#329=ORIENTED_EDGE('',*,*,#321,.T.) ;
#330=ORIENTED_EDGE('',*,*,#326,.F.) ;
#346=ORIENTED_EDGE('',*,*,#339,.T.) ;
#347=ORIENTED_EDGE('',*,*,#307,.T.) ;
#348=ORIENTED_EDGE('',*,*,#344,.F.) ;
#383=ORIENTED_EDGE('',*,*,#362,.F.) ;
#384=ORIENTED_EDGE('',*,*,#344,.T.) ;
#385=ORIENTED_EDGE('',*,*,#302,.F.) ;
#386=ORIENTED_EDGE('',*,*,#369,.T.) ;
#387=ORIENTED_EDGE('',*,*,#376,.T.) ;
#388=ORIENTED_EDGE('',*,*,#381,.F.) ;
#447=ORIENTED_EDGE('',*,*,#404,.F.) ;
#448=ORIENTED_EDGE('',*,*,#409,.F.) ;
#449=ORIENTED_EDGE('',*,*,#228,.F.) ;
#450=ORIENTED_EDGE('',*,*,#190,.T.) ;
#451=ORIENTED_EDGE('',*,*,#149,.T.) ;
#452=ORIENTED_EDGE('',*,*,#416,.F.) ;
#453=ORIENTED_EDGE('',*,*,#423,.T.) ;
#454=ORIENTED_EDGE('',*,*,#430,.F.) ;
#455=ORIENTED_EDGE('',*,*,#435,.F.) ;
#456=ORIENTED_EDGE('',*,*,#321,.F.) ;
#457=ORIENTED_EDGE('',*,*,#79,.F.) ;
#458=ORIENTED_EDGE('',*,*,#440,.F.) ;
#459=ORIENTED_EDGE('',*,*,#288,.T.) ;
#460=ORIENTED_EDGE('',*,*,#339,.F.) ;
#461=ORIENTED_EDGE('',*,*,#362,.T.) ;
#462=ORIENTED_EDGE('',*,*,#445,.F.) ;
#509=ORIENTED_EDGE('',*,*,#376,.F.) ;
#510=ORIENTED_EDGE('',*,*,#476,.F.) ;
#511=ORIENTED_EDGE('',*,*,#483,.T.) ;
#512=ORIENTED_EDGE('',*,*,#490,.F.) ;
#513=ORIENTED_EDGE('',*,*,#495,.F.) ;
#514=ORIENTED_EDGE('',*,*,#112,.F.) ;
#515=ORIENTED_EDGE('',*,*,#168,.F.) ;
#516=ORIENTED_EDGE('',*,*,#163,.F.) ;
#517=ORIENTED_EDGE('',*,*,#202,.T.) ;
#518=ORIENTED_EDGE('',*,*,#221,.T.) ;
#519=ORIENTED_EDGE('',*,*,#263,.F.) ;
#520=ORIENTED_EDGE('',*,*,#502,.T.) ;
#521=ORIENTED_EDGE('',*,*,#507,.F.) ;
#540=ORIENTED_EDGE('',*,*,#502,.F.) ;
#541=ORIENTED_EDGE('',*,*,#268,.T.) ;
#542=ORIENTED_EDGE('',*,*,#242,.F.) ;
#543=ORIENTED_EDGE('',*,*,#533,.T.) ;
#544=ORIENTED_EDGE('',*,*,#404,.T.) ;
#545=ORIENTED_EDGE('',*,*,#538,.F.) ;
#564=ORIENTED_EDGE('',*,*,#483,.F.) ;
#565=ORIENTED_EDGE('',*,*,#557,.T.) ;
#566=ORIENTED_EDGE('',*,*,#65,.T.) ;
#567=ORIENTED_EDGE('',*,*,#326,.T.) ;
#568=ORIENTED_EDGE('',*,*,#435,.T.) ;
#569=ORIENTED_EDGE('',*,*,#562,.F.) ;
#588=ORIENTED_EDGE('',*,*,#423,.F.) ;
#589=ORIENTED_EDGE('',*,*,#581,.T.) ;
#590=ORIENTED_EDGE('',*,*,#135,.T.) ;
#591=ORIENTED_EDGE('',*,*,#117,.T.) ;
#592=ORIENTED_EDGE('',*,*,#495,.T.) ;
#593=ORIENTED_EDGE('',*,*,#586,.F.) ;
#602=ORIENTED_EDGE('',*,*,#490,.T.) ;
#603=ORIENTED_EDGE('',*,*,#562,.T.) ;
#604=ORIENTED_EDGE('',*,*,#430,.T.) ;
#605=ORIENTED_EDGE('',*,*,#586,.T.) ;
#609=ORIENTED_EDGE('',*,*,#538,.T.) ;
#610=ORIENTED_EDGE('',*,*,#445,.T.) ;
#611=ORIENTED_EDGE('',*,*,#381,.T.) ;
#612=ORIENTED_EDGE('',*,*,#507,.T.) ;
#621=ORIENTED_EDGE('',*,*,#440,.T.) ;
#622=ORIENTED_EDGE('',*,*,#72,.F.) ;
#623=ORIENTED_EDGE('',*,*,#557,.F.) ;
#624=ORIENTED_EDGE('',*,*,#476,.T.) ;
#625=ORIENTED_EDGE('',*,*,#369,.F.) ;
#626=ORIENTED_EDGE('',*,*,#295,.F.) ;
#630=ORIENTED_EDGE('',*,*,#416,.T.) ;
#631=ORIENTED_EDGE('',*,*,#142,.T.) ;
#632=ORIENTED_EDGE('',*,*,#581,.F.) ;
#636=ORIENTED_EDGE('',*,*,#235,.T.) ;
#637=ORIENTED_EDGE('',*,*,#409,.T.) ;
#638=ORIENTED_EDGE('',*,*,#533,.F.) ;
#51=CLOSED_SHELL('Closed Shell',(#91,#123,#178,#209,#256,#274,#314,#332,#350,#390,#464,#523,#547,#571,#595,#607,#614,#628,#634,#640)) ;
#59=VECTOR('Line Direction',#58,1.) ;
#68=VECTOR('Line Direction',#67,1.) ;
#75=VECTOR('Line Direction',#74,1.) ;
#82=VECTOR('Line Direction',#81,1.) ;
#99=VECTOR('Line Direction',#98,1.) ;
#108=VECTOR('Line Direction',#107,1.) ;
#131=VECTOR('Line Direction',#130,1.) ;
#138=VECTOR('Line Direction',#137,1.) ;
#145=VECTOR('Line Direction',#144,1.) ;
#152=VECTOR('Line Direction',#151,1.) ;
#159=VECTOR('Line Direction',#158,1.) ;
#166=VECTOR('Line Direction',#165,1.) ;
#186=VECTOR('Line Direction',#185,1.) ;
#193=VECTOR('Line Direction',#192,1.) ;
#200=VECTOR('Line Direction',#199,1.) ;
#217=VECTOR('Line Direction',#216,1.) ;
#224=VECTOR('Line Direction',#223,1.) ;
#231=VECTOR('Line Direction',#230,1.) ;
#238=VECTOR('Line Direction',#237,1.) ;
#245=VECTOR('Line Direction',#244,1.) ;
#259=VECTOR('Line Direction',#258,1.) ;
#282=VECTOR('Line Direction',#281,1.) ;
#291=VECTOR('Line Direction',#290,1.) ;
#298=VECTOR('Line Direction',#297,1.) ;
#305=VECTOR('Line Direction',#304,1.) ;
#317=VECTOR('Line Direction',#316,1.) ;
#335=VECTOR('Line Direction',#334,1.) ;
#358=VECTOR('Line Direction',#357,1.) ;
#372=VECTOR('Line Direction',#371,1.) ;
#398=VECTOR('Line Direction',#397,1.) ;
#407=VECTOR('Line Direction',#406,1.) ;
#412=VECTOR('Line Direction',#411,1.) ;
#419=VECTOR('Line Direction',#418,1.) ;
#426=VECTOR('Line Direction',#425,1.) ;
#433=VECTOR('Line Direction',#432,1.) ;
#438=VECTOR('Line Direction',#437,1.) ;
#443=VECTOR('Line Direction',#442,1.) ;
#472=VECTOR('Line Direction',#471,1.) ;
#479=VECTOR('Line Direction',#478,1.) ;
#486=VECTOR('Line Direction',#485,1.) ;
#493=VECTOR('Line Direction',#492,1.) ;
#498=VECTOR('Line Direction',#497,1.) ;
#505=VECTOR('Line Direction',#504,1.) ;
#642=ADVANCED_BREP_SHAPE_REPRESENTATION('NONE',(#641),#46) ;
#49=SHAPE_REPRESENTATION(' ',(#48),#46) ;
#91=ADVANCED_FACE('Corps principal',(#90),#56,.F.) ;
#123=ADVANCED_FACE('Corps principal',(#122),#96,.T.) ;
#178=ADVANCED_FACE('Corps principal',(#177),#128,.T.) ;
#209=ADVANCED_FACE('Corps principal',(#208),#183,.F.) ;
#256=ADVANCED_FACE('Corps principal',(#255),#214,.T.) ;
#274=ADVANCED_FACE('Corps principal',(#273),#96,.T.) ;
#314=ADVANCED_FACE('Corps principal',(#313),#279,.T.) ;
#332=ADVANCED_FACE('Corps principal',(#331),#96,.T.) ;
#350=ADVANCED_FACE('Corps principal',(#349),#96,.T.) ;
#390=ADVANCED_FACE('Corps principal',(#389),#355,.T.) ;
#464=ADVANCED_FACE('Corps principal',(#463),#395,.T.) ;
#523=ADVANCED_FACE('Corps principal',(#522),#469,.T.) ;
#547=ADVANCED_FACE('Corps principal',(#546),#528,.T.) ;
#571=ADVANCED_FACE('Corps principal',(#570),#552,.T.) ;
#595=ADVANCED_FACE('Corps principal',(#594),#576,.T.) ;
#607=ADVANCED_FACE('Corps principal',(#606),#600,.T.) ;
#614=ADVANCED_FACE('Corps principal',(#613),#600,.T.) ;
#628=ADVANCED_FACE('Corps principal',(#627),#619,.T.) ;
#634=ADVANCED_FACE('Corps principal',(#633),#619,.T.) ;
#640=ADVANCED_FACE('Corps principal',(#639),#619,.T.) ;
#4=APPLICATION_PROTOCOL_DEFINITION('international standard','config_control_design',1994,#1) ;
#32=APPROVAL_DATE_TIME(#13,#21) ;
#641=MANIFOLD_SOLID_BREP('Corps principal',#51) ;
#11=CALENDAR_DATE(2022,5,3) ;
#30=CC_DESIGN_APPROVAL(#21,(#16,#6,#14)) ;
#18=CC_DESIGN_DATE_AND_TIME_ASSIGNMENT(#13,#17,(#16)) ;
#29=CC_DESIGN_DATE_AND_TIME_ASSIGNMENT(#13,#28,(#14)) ;
#17=DATE_TIME_ROLE('classification_date') ;
#28=DATE_TIME_ROLE('creation_date') ;
#27=CC_DESIGN_PERSON_AND_ORGANIZATION_ASSIGNMENT(#25,#26,(#16)) ;
#33=CC_DESIGN_PERSON_AND_ORGANIZATION_ASSIGNMENT(#25,#34,(#6)) ;
#35=CC_DESIGN_PERSON_AND_ORGANIZATION_ASSIGNMENT(#25,#36,(#6,#14)) ;
#37=CC_DESIGN_PERSON_AND_ORGANIZATION_ASSIGNMENT(#25,#38,(#5)) ;
#26=PERSON_AND_ORGANIZATION_ROLE('classification_officer') ;
#34=PERSON_AND_ORGANIZATION_ROLE('design_supplier') ;
#36=PERSON_AND_ORGANIZATION_ROLE('creator') ;
#38=PERSON_AND_ORGANIZATION_ROLE('design_owner') ;
#39=CC_DESIGN_SECURITY_CLASSIFICATION(#16,(#6)) ;
#116=CIRCLE('generated circle',#115,1.85) ;
#267=CIRCLE('generated circle',#266,1.85) ;
#325=CIRCLE('generated circle',#324,1.85) ;
#343=CIRCLE('generated circle',#342,1.85) ;
#366=CIRCLE('generated circle',#365,1.85) ;
#380=CIRCLE('generated circle',#379,1.85) ;
#532=CIRCLE('generated circle',#531,1.85) ;
#537=CIRCLE('generated circle',#536,1.85) ;
#556=CIRCLE('generated circle',#555,1.85) ;
#561=CIRCLE('generated circle',#560,1.85) ;
#580=CIRCLE('generated circle',#579,1.85) ;
#585=CIRCLE('generated circle',#584,1.85) ;
#643=SHAPE_REPRESENTATION_RELATIONSHIP(' ',' ',#49,#642) ;
#355=CYLINDRICAL_SURFACE('generated cylinder',#354,1.85) ;
#528=CYLINDRICAL_SURFACE('generated cylinder',#527,1.85) ;
#552=CYLINDRICAL_SURFACE('generated cylinder',#551,1.85) ;
#576=CYLINDRICAL_SURFACE('generated cylinder',#575,1.85) ;
#3=DESIGN_CONTEXT(' ',#1,'design') ;
#65=EDGE_CURVE('',#62,#64,#60,.T.) ;
#72=EDGE_CURVE('',#62,#71,#69,.F.) ;
#79=EDGE_CURVE('',#71,#78,#76,.T.) ;
#84=EDGE_CURVE('',#64,#78,#83,.F.) ;
#105=EDGE_CURVE('',#102,#104,#100,.F.) ;
#112=EDGE_CURVE('',#104,#111,#109,.T.) ;
#117=EDGE_CURVE('',#102,#111,#116,.T.) ;
#135=EDGE_CURVE('',#134,#102,#132,.T.) ;
#142=EDGE_CURVE('',#141,#134,#139,.T.) ;
#149=EDGE_CURVE('',#148,#141,#146,.T.) ;
#156=EDGE_CURVE('',#148,#155,#153,.T.) ;
#163=EDGE_CURVE('',#155,#162,#160,.T.) ;
#168=EDGE_CURVE('',#162,#104,#167,.T.) ;
#190=EDGE_CURVE('',#189,#148,#187,.T.) ;
#197=EDGE_CURVE('',#196,#189,#194,.T.) ;
#202=EDGE_CURVE('',#155,#196,#201,.T.) ;
#221=EDGE_CURVE('',#196,#220,#218,.T.) ;
#228=EDGE_CURVE('',#189,#227,#225,.T.) ;
#235=EDGE_CURVE('',#234,#227,#232,.T.) ;
#242=EDGE_CURVE('',#234,#241,#239,.T.) ;
#247=EDGE_CURVE('',#220,#241,#246,.T.) ;
#263=EDGE_CURVE('',#262,#220,#260,.F.) ;
#268=EDGE_CURVE('',#262,#241,#267,.T.) ;
#288=EDGE_CURVE('',#285,#287,#283,.T.) ;
#295=EDGE_CURVE('',#285,#294,#292,.T.) ;
#302=EDGE_CURVE('',#294,#301,#299,.T.) ;
#307=EDGE_CURVE('',#287,#301,#306,.T.) ;
#321=EDGE_CURVE('',#78,#320,#318,.F.) ;
#326=EDGE_CURVE('',#64,#320,#325,.T.) ;
#339=EDGE_CURVE('',#338,#287,#336,.T.) ;
#344=EDGE_CURVE('',#338,#301,#343,.T.) ;
#362=EDGE_CURVE('',#338,#361,#359,.T.) ;
#369=EDGE_CURVE('',#294,#368,#366,.T.) ;
#376=EDGE_CURVE('',#368,#375,#373,.T.) ;
#381=EDGE_CURVE('',#361,#375,#380,.T.) ;
#404=EDGE_CURVE('',#401,#403,#399,.T.) ;
#409=EDGE_CURVE('',#227,#401,#408,.T.) ;
#416=EDGE_CURVE('',#415,#141,#413,.T.) ;
#423=EDGE_CURVE('',#415,#422,#420,.T.) ;
#430=EDGE_CURVE('',#429,#422,#427,.T.) ;
#435=EDGE_CURVE('',#320,#429,#434,.T.) ;
#440=EDGE_CURVE('',#285,#71,#439,.T.) ;
#445=EDGE_CURVE('',#403,#361,#444,.F.) ;
#476=EDGE_CURVE('',#475,#368,#473,.T.) ;
#483=EDGE_CURVE('',#475,#482,#480,.T.) ;
#490=EDGE_CURVE('',#489,#482,#487,.T.) ;
#495=EDGE_CURVE('',#111,#489,#494,.T.) ;
#502=EDGE_CURVE('',#262,#501,#499,.T.) ;
#507=EDGE_CURVE('',#375,#501,#506,.F.) ;
#533=EDGE_CURVE('',#234,#401,#532,.T.) ;
#538=EDGE_CURVE('',#501,#403,#537,.T.) ;
#557=EDGE_CURVE('',#475,#62,#556,.T.) ;
#562=EDGE_CURVE('',#482,#429,#561,.T.) ;
#581=EDGE_CURVE('',#415,#134,#580,.T.) ;
#586=EDGE_CURVE('',#422,#489,#585,.T.) ;
#85=EDGE_LOOP('',(#86,#87,#88,#89)) ;
#118=EDGE_LOOP('',(#119,#120,#121)) ;
#169=EDGE_LOOP('',(#170,#171,#172,#173,#174,#175,#176)) ;
#203=EDGE_LOOP('',(#204,#205,#206,#207)) ;
#248=EDGE_LOOP('',(#249,#250,#251,#252,#253,#254)) ;
#269=EDGE_LOOP('',(#270,#271,#272)) ;
#308=EDGE_LOOP('',(#309,#310,#311,#312)) ;
#327=EDGE_LOOP('',(#328,#329,#330)) ;
#345=EDGE_LOOP('',(#346,#347,#348)) ;
#382=EDGE_LOOP('',(#383,#384,#385,#386,#387,#388)) ;
#446=EDGE_LOOP('',(#447,#448,#449,#450,#451,#452,#453,#454,#455,#456,#457,#458,#459,#460,#461,#462)) ;
#508=EDGE_LOOP('',(#509,#510,#511,#512,#513,#514,#515,#516,#517,#518,#519,#520,#521)) ;
#539=EDGE_LOOP('',(#540,#541,#542,#543,#544,#545)) ;
#563=EDGE_LOOP('',(#564,#565,#566,#567,#568,#569)) ;
#587=EDGE_LOOP('',(#588,#589,#590,#591,#592,#593)) ;
#601=EDGE_LOOP('',(#602,#603,#604,#605)) ;
#608=EDGE_LOOP('',(#609,#610,#611,#612)) ;
#620=EDGE_LOOP('',(#621,#622,#623,#624,#625,#626)) ;
#629=EDGE_LOOP('',(#630,#631,#632)) ;
#635=EDGE_LOOP('',(#636,#637,#638)) ;
#90=FACE_OUTER_BOUND('',#85,.T.) ;
#122=FACE_OUTER_BOUND('',#118,.T.) ;
#177=FACE_OUTER_BOUND('',#169,.T.) ;
#208=FACE_OUTER_BOUND('',#203,.T.) ;
#255=FACE_OUTER_BOUND('',#248,.T.) ;
#273=FACE_OUTER_BOUND('',#269,.T.) ;
#313=FACE_OUTER_BOUND('',#308,.T.) ;
#331=FACE_OUTER_BOUND('',#327,.T.) ;
#349=FACE_OUTER_BOUND('',#345,.T.) ;
#389=FACE_OUTER_BOUND('',#382,.T.) ;
#463=FACE_OUTER_BOUND('',#446,.T.) ;
#522=FACE_OUTER_BOUND('',#508,.T.) ;
#546=FACE_OUTER_BOUND('',#539,.T.) ;
#570=FACE_OUTER_BOUND('',#563,.T.) ;
#594=FACE_OUTER_BOUND('',#587,.T.) ;
#606=FACE_OUTER_BOUND('',#601,.T.) ;
#613=FACE_OUTER_BOUND('',#608,.T.) ;
#627=FACE_OUTER_BOUND('',#620,.T.) ;
#633=FACE_OUTER_BOUND('',#629,.T.) ;
#639=FACE_OUTER_BOUND('',#635,.T.) ;
#45=UNCERTAINTY_MEASURE_WITH_UNIT(LENGTH_MEASURE(0.005),#41,'distance_accuracy_value','CONFUSED CURVE UNCERTAINTY') ;
#60=LINE('Line',#57,#59) ;
#69=LINE('Line',#66,#68) ;
#76=LINE('Line',#73,#75) ;
#83=LINE('Line',#80,#82) ;
#100=LINE('Line',#97,#99) ;
#109=LINE('Line',#106,#108) ;
#132=LINE('Line',#129,#131) ;
#139=LINE('Line',#136,#138) ;
#146=LINE('Line',#143,#145) ;
#153=LINE('Line',#150,#152) ;
#160=LINE('Line',#157,#159) ;
#167=LINE('Line',#164,#166) ;
#187=LINE('Line',#184,#186) ;
#194=LINE('Line',#191,#193) ;
#201=LINE('Line',#198,#200) ;
#218=LINE('Line',#215,#217) ;
#225=LINE('Line',#222,#224) ;
#232=LINE('Line',#229,#231) ;
#239=LINE('Line',#236,#238) ;
#246=LINE('Line',#243,#245) ;
#260=LINE('Line',#257,#259) ;
#283=LINE('Line',#280,#282) ;
#292=LINE('Line',#289,#291) ;
#299=LINE('Line',#296,#298) ;
#306=LINE('Line',#303,#305) ;
#318=LINE('Line',#315,#317) ;
#336=LINE('Line',#333,#335) ;
#359=LINE('Line',#356,#358) ;
#373=LINE('Line',#370,#372) ;
#399=LINE('Line',#396,#398) ;
#408=LINE('Line',#405,#407) ;
#413=LINE('Line',#410,#412) ;
#420=LINE('Line',#417,#419) ;
#427=LINE('Line',#424,#426) ;
#434=LINE('Line',#431,#433) ;
#439=LINE('Line',#436,#438) ;
#444=LINE('Line',#441,#443) ;
#473=LINE('Line',#470,#472) ;
#480=LINE('Line',#477,#479) ;
#487=LINE('Line',#484,#486) ;
#494=LINE('Line',#491,#493) ;
#499=LINE('Line',#496,#498) ;
#506=LINE('Line',#503,#505) ;
#2=MECHANICAL_CONTEXT(' ',#1,'mechanical') ;
#24=PERSONAL_ADDRESS(' ',' ',' ',' ',' ',' ',' ',' ',' ',' ',' ',' ',(#22),' ') ;
#56=PLANE('Plane',#55) ;
#96=PLANE('Plane',#95) ;
#128=PLANE('Plane',#127) ;
#183=PLANE('Plane',#182) ;
#214=PLANE('Plane',#213) ;
#279=PLANE('Plane',#278) ;
#395=PLANE('Plane',#394) ;
#469=PLANE('Plane',#468) ;
#600=PLANE('Plane',#599) ;
#619=PLANE('Plane',#618) ;
#43=PLANE_ANGLE_MEASURE_WITH_UNIT(PLANE_ANGLE_MEASURE(0.0174532925199),#42) ;
#7=PRODUCT_CATEGORY('part',$) ;
#9=PRODUCT_CATEGORY_RELATIONSHIP(' ',' ',#7,#8) ;
#6=PRODUCT_DEFINITION_FORMATION_WITH_SPECIFIED_SOURCE('',' ',#5,.NOT_KNOWN.) ;
#8=PRODUCT_RELATED_PRODUCT_CATEGORY('detail',$,(#5)) ;
#50=SHAPE_DEFINITION_REPRESENTATION(#40,#49) ;
#62=VERTEX_POINT('',#61) ;
#64=VERTEX_POINT('',#63) ;
#71=VERTEX_POINT('',#70) ;
#78=VERTEX_POINT('',#77) ;
#102=VERTEX_POINT('',#101) ;
#104=VERTEX_POINT('',#103) ;
#111=VERTEX_POINT('',#110) ;
#134=VERTEX_POINT('',#133) ;
#141=VERTEX_POINT('',#140) ;
#148=VERTEX_POINT('',#147) ;
#155=VERTEX_POINT('',#154) ;
#162=VERTEX_POINT('',#161) ;
#189=VERTEX_POINT('',#188) ;
#196=VERTEX_POINT('',#195) ;
#220=VERTEX_POINT('',#219) ;
#227=VERTEX_POINT('',#226) ;
#234=VERTEX_POINT('',#233) ;
#241=VERTEX_POINT('',#240) ;
#262=VERTEX_POINT('',#261) ;
#285=VERTEX_POINT('',#284) ;
#287=VERTEX_POINT('',#286) ;
#294=VERTEX_POINT('',#293) ;
#301=VERTEX_POINT('',#300) ;
#320=VERTEX_POINT('',#319) ;
#338=VERTEX_POINT('',#337) ;
#361=VERTEX_POINT('',#360) ;
#368=VERTEX_POINT('',#367) ;
#375=VERTEX_POINT('',#374) ;
#401=VERTEX_POINT('',#400) ;
#403=VERTEX_POINT('',#402) ;
#415=VERTEX_POINT('',#414) ;
#422=VERTEX_POINT('',#421) ;
#429=VERTEX_POINT('',#428) ;
#475=VERTEX_POINT('',#474) ;
#482=VERTEX_POINT('',#481) ;
#489=VERTEX_POINT('',#488) ;
#501=VERTEX_POINT('',#500) ;
#41=(LENGTH_UNIT()NAMED_UNIT(*)SI_UNIT(.MILLI.,.METRE.)) ;
#42=(NAMED_UNIT(*)PLANE_ANGLE_UNIT()SI_UNIT($,.RADIAN.)) ;
#44=(NAMED_UNIT(*)SI_UNIT($,.STERADIAN.)SOLID_ANGLE_UNIT()) ;
#46=(GEOMETRIC_REPRESENTATION_CONTEXT(3)GLOBAL_UNCERTAINTY_ASSIGNED_CONTEXT((#45))GLOBAL_UNIT_ASSIGNED_CONTEXT((#41,#42,#44))REPRESENTATION_CONTEXT(' ',' ')) ;
ENDSEC;
END-ISO-10303-21;
