ISO-10303-21;
HEADER;
/* Generated by software containing ST-Developer
 * from STEP Tools, Inc. (www.steptools.com) 
 */

FILE_DESCRIPTION(
/* description */ (''),
/* implementation_level */ '2;1');

FILE_NAME(
/* name */ 
'C:/Users/cofy3/OneDrive/Bureau/RAPTOR   STEP/ENTRETOISE ALUMINIUM/ENT
RETOISE 2  FINALE v1 v1.step',
/* time_stamp */ '2022-03-05T01:00:03+01:00',
/* author */ (''),
/* organization */ (''),
/* preprocessor_version */ 'ST-DEVELOPER v18.1',
/* originating_system */ 'Autodesk Translation Framework v10.13.0.1454',

/* authorisation */ '');

FILE_SCHEMA (('AUTOMOTIVE_DESIGN { 1 0 10303 214 3 1 1 }'));
ENDSEC;

DATA;
#10=MECHANICAL_DESIGN_GEOMETRIC_PRESENTATION_REPRESENTATION('',(#13),#443);
#11=SHAPE_REPRESENTATION_RELATIONSHIP('SRR','None',#450,#12);
#12=ADVANCED_BREP_SHAPE_REPRESENTATION('',(#14),#442);
#13=STYLED_ITEM('',(#459),#14);
#14=MANIFOLD_SOLID_BREP('Corps1',#264);
#15=FACE_BOUND('',#51,.T.);
#16=FACE_BOUND('',#58,.T.);
#17=FACE_BOUND('',#61,.T.);
#18=PLANE('',#282);
#19=PLANE('',#283);
#20=PLANE('',#284);
#21=PLANE('',#285);
#22=PLANE('',#288);
#23=PLANE('',#289);
#24=PLANE('',#290);
#25=PLANE('',#295);
#26=PLANE('',#296);
#27=PLANE('',#297);
#28=CYLINDRICAL_SURFACE('',#280,1.65);
#29=CYLINDRICAL_SURFACE('',#291,2.1);
#30=CYLINDRICAL_SURFACE('',#293,5.);
#31=FACE_OUTER_BOUND('',#45,.T.);
#32=FACE_OUTER_BOUND('',#46,.T.);
#33=FACE_OUTER_BOUND('',#47,.T.);
#34=FACE_OUTER_BOUND('',#48,.T.);
#35=FACE_OUTER_BOUND('',#49,.T.);
#36=FACE_OUTER_BOUND('',#50,.T.);
#37=FACE_OUTER_BOUND('',#52,.T.);
#38=FACE_OUTER_BOUND('',#53,.T.);
#39=FACE_OUTER_BOUND('',#54,.T.);
#40=FACE_OUTER_BOUND('',#55,.T.);
#41=FACE_OUTER_BOUND('',#56,.T.);
#42=FACE_OUTER_BOUND('',#57,.T.);
#43=FACE_OUTER_BOUND('',#59,.T.);
#44=FACE_OUTER_BOUND('',#60,.T.);
#45=EDGE_LOOP('',(#181,#182,#183));
#46=EDGE_LOOP('',(#184,#185,#186,#187));
#47=EDGE_LOOP('',(#188,#189,#190,#191));
#48=EDGE_LOOP('',(#192,#193,#194,#195));
#49=EDGE_LOOP('',(#196,#197,#198,#199,#200,#201));
#50=EDGE_LOOP('',(#202,#203,#204,#205,#206,#207));
#51=EDGE_LOOP('',(#208));
#52=EDGE_LOOP('',(#209,#210,#211,#212,#213,#214));
#53=EDGE_LOOP('',(#215,#216,#217,#218));
#54=EDGE_LOOP('',(#219,#220,#221,#222));
#55=EDGE_LOOP('',(#223,#224,#225,#226));
#56=EDGE_LOOP('',(#227,#228,#229,#230));
#57=EDGE_LOOP('',(#231,#232,#233,#234));
#58=EDGE_LOOP('',(#235));
#59=EDGE_LOOP('',(#236,#237,#238,#239));
#60=EDGE_LOOP('',(#240,#241,#242,#243,#244,#245,#246,#247));
#61=EDGE_LOOP('',(#248));
#62=LINE('',#373,#90);
#63=LINE('',#377,#91);
#64=LINE('',#381,#92);
#65=LINE('',#383,#93);
#66=LINE('',#385,#94);
#67=LINE('',#386,#95);
#68=LINE('',#389,#96);
#69=LINE('',#391,#97);
#70=LINE('',#392,#98);
#71=LINE('',#396,#99);
#72=LINE('',#398,#100);
#73=LINE('',#400,#101);
#74=LINE('',#402,#102);
#75=LINE('',#404,#103);
#76=LINE('',#405,#104);
#77=LINE('',#407,#105);
#78=LINE('',#409,#106);
#79=LINE('',#411,#107);
#80=LINE('',#417,#108);
#81=LINE('',#418,#109);
#82=LINE('',#421,#110);
#83=LINE('',#422,#111);
#84=LINE('',#424,#112);
#85=LINE('',#427,#113);
#86=LINE('',#432,#114);
#87=LINE('',#435,#115);
#88=LINE('',#436,#116);
#89=LINE('',#438,#117);
#90=VECTOR('',#304,0.825);
#91=VECTOR('',#309,1.65);
#92=VECTOR('',#312,10.);
#93=VECTOR('',#313,10.);
#94=VECTOR('',#314,10.);
#95=VECTOR('',#315,10.);
#96=VECTOR('',#318,10.);
#97=VECTOR('',#319,10.);
#98=VECTOR('',#320,10.);
#99=VECTOR('',#323,10.);
#100=VECTOR('',#324,10.);
#101=VECTOR('',#325,10.);
#102=VECTOR('',#326,10.);
#103=VECTOR('',#327,10.);
#104=VECTOR('',#328,10.);
#105=VECTOR('',#331,10.);
#106=VECTOR('',#332,10.);
#107=VECTOR('',#333,10.);
#108=VECTOR('',#340,10.);
#109=VECTOR('',#341,10.);
#110=VECTOR('',#344,10.);
#111=VECTOR('',#345,10.);
#112=VECTOR('',#348,10.);
#113=VECTOR('',#351,2.1);
#114=VECTOR('',#358,10.);
#115=VECTOR('',#361,10.);
#116=VECTOR('',#362,10.);
#117=VECTOR('',#365,10.);
#118=CIRCLE('',#279,1.65);
#119=CIRCLE('',#281,1.65);
#120=CIRCLE('',#286,5.);
#121=CIRCLE('',#287,2.1);
#122=CIRCLE('',#292,2.1);
#123=CIRCLE('',#294,5.);
#124=VERTEX_POINT('',#370);
#125=VERTEX_POINT('',#372);
#126=VERTEX_POINT('',#375);
#127=VERTEX_POINT('',#379);
#128=VERTEX_POINT('',#380);
#129=VERTEX_POINT('',#382);
#130=VERTEX_POINT('',#384);
#131=VERTEX_POINT('',#388);
#132=VERTEX_POINT('',#390);
#133=VERTEX_POINT('',#394);
#134=VERTEX_POINT('',#395);
#135=VERTEX_POINT('',#397);
#136=VERTEX_POINT('',#399);
#137=VERTEX_POINT('',#401);
#138=VERTEX_POINT('',#403);
#139=VERTEX_POINT('',#408);
#140=VERTEX_POINT('',#410);
#141=VERTEX_POINT('',#413);
#142=VERTEX_POINT('',#416);
#143=VERTEX_POINT('',#420);
#144=VERTEX_POINT('',#426);
#145=VERTEX_POINT('',#430);
#146=VERTEX_POINT('',#434);
#147=EDGE_CURVE('',#124,#124,#118,.T.);
#148=EDGE_CURVE('',#124,#125,#62,.T.);
#149=EDGE_CURVE('',#126,#126,#119,.T.);
#150=EDGE_CURVE('',#126,#124,#63,.T.);
#151=EDGE_CURVE('',#127,#128,#64,.T.);
#152=EDGE_CURVE('',#129,#127,#65,.T.);
#153=EDGE_CURVE('',#130,#129,#66,.T.);
#154=EDGE_CURVE('',#128,#130,#67,.T.);
#155=EDGE_CURVE('',#130,#131,#68,.T.);
#156=EDGE_CURVE('',#132,#129,#69,.T.);
#157=EDGE_CURVE('',#131,#132,#70,.T.);
#158=EDGE_CURVE('',#133,#134,#71,.T.);
#159=EDGE_CURVE('',#135,#134,#72,.T.);
#160=EDGE_CURVE('',#136,#135,#73,.T.);
#161=EDGE_CURVE('',#136,#137,#74,.T.);
#162=EDGE_CURVE('',#138,#137,#75,.T.);
#163=EDGE_CURVE('',#138,#133,#76,.T.);
#164=EDGE_CURVE('',#134,#127,#77,.T.);
#165=EDGE_CURVE('',#139,#128,#78,.T.);
#166=EDGE_CURVE('',#140,#139,#79,.T.);
#167=EDGE_CURVE('',#135,#140,#120,.T.);
#168=EDGE_CURVE('',#141,#141,#121,.T.);
#169=EDGE_CURVE('',#133,#142,#80,.T.);
#170=EDGE_CURVE('',#142,#132,#81,.T.);
#171=EDGE_CURVE('',#138,#143,#82,.T.);
#172=EDGE_CURVE('',#143,#142,#83,.T.);
#173=EDGE_CURVE('',#131,#143,#84,.T.);
#174=EDGE_CURVE('',#141,#144,#85,.T.);
#175=EDGE_CURVE('',#144,#144,#122,.T.);
#176=EDGE_CURVE('',#145,#136,#123,.T.);
#177=EDGE_CURVE('',#140,#145,#86,.T.);
#178=EDGE_CURVE('',#145,#146,#87,.T.);
#179=EDGE_CURVE('',#137,#146,#88,.T.);
#180=EDGE_CURVE('',#146,#139,#89,.T.);
#181=ORIENTED_EDGE('',*,*,#147,.F.);
#182=ORIENTED_EDGE('',*,*,#148,.T.);
#183=ORIENTED_EDGE('',*,*,#148,.F.);
#184=ORIENTED_EDGE('',*,*,#149,.F.);
#185=ORIENTED_EDGE('',*,*,#150,.T.);
#186=ORIENTED_EDGE('',*,*,#147,.T.);
#187=ORIENTED_EDGE('',*,*,#150,.F.);
#188=ORIENTED_EDGE('',*,*,#151,.F.);
#189=ORIENTED_EDGE('',*,*,#152,.F.);
#190=ORIENTED_EDGE('',*,*,#153,.F.);
#191=ORIENTED_EDGE('',*,*,#154,.F.);
#192=ORIENTED_EDGE('',*,*,#155,.F.);
#193=ORIENTED_EDGE('',*,*,#153,.T.);
#194=ORIENTED_EDGE('',*,*,#156,.F.);
#195=ORIENTED_EDGE('',*,*,#157,.F.);
#196=ORIENTED_EDGE('',*,*,#158,.T.);
#197=ORIENTED_EDGE('',*,*,#159,.F.);
#198=ORIENTED_EDGE('',*,*,#160,.F.);
#199=ORIENTED_EDGE('',*,*,#161,.T.);
#200=ORIENTED_EDGE('',*,*,#162,.F.);
#201=ORIENTED_EDGE('',*,*,#163,.T.);
#202=ORIENTED_EDGE('',*,*,#164,.T.);
#203=ORIENTED_EDGE('',*,*,#151,.T.);
#204=ORIENTED_EDGE('',*,*,#165,.F.);
#205=ORIENTED_EDGE('',*,*,#166,.F.);
#206=ORIENTED_EDGE('',*,*,#167,.F.);
#207=ORIENTED_EDGE('',*,*,#159,.T.);
#208=ORIENTED_EDGE('',*,*,#168,.T.);
#209=ORIENTED_EDGE('',*,*,#158,.F.);
#210=ORIENTED_EDGE('',*,*,#169,.T.);
#211=ORIENTED_EDGE('',*,*,#170,.T.);
#212=ORIENTED_EDGE('',*,*,#156,.T.);
#213=ORIENTED_EDGE('',*,*,#152,.T.);
#214=ORIENTED_EDGE('',*,*,#164,.F.);
#215=ORIENTED_EDGE('',*,*,#163,.F.);
#216=ORIENTED_EDGE('',*,*,#171,.T.);
#217=ORIENTED_EDGE('',*,*,#172,.T.);
#218=ORIENTED_EDGE('',*,*,#169,.F.);
#219=ORIENTED_EDGE('',*,*,#173,.F.);
#220=ORIENTED_EDGE('',*,*,#157,.T.);
#221=ORIENTED_EDGE('',*,*,#170,.F.);
#222=ORIENTED_EDGE('',*,*,#172,.F.);
#223=ORIENTED_EDGE('',*,*,#168,.F.);
#224=ORIENTED_EDGE('',*,*,#174,.T.);
#225=ORIENTED_EDGE('',*,*,#175,.F.);
#226=ORIENTED_EDGE('',*,*,#174,.F.);
#227=ORIENTED_EDGE('',*,*,#176,.T.);
#228=ORIENTED_EDGE('',*,*,#160,.T.);
#229=ORIENTED_EDGE('',*,*,#167,.T.);
#230=ORIENTED_EDGE('',*,*,#177,.T.);
#231=ORIENTED_EDGE('',*,*,#161,.F.);
#232=ORIENTED_EDGE('',*,*,#176,.F.);
#233=ORIENTED_EDGE('',*,*,#178,.T.);
#234=ORIENTED_EDGE('',*,*,#179,.F.);
#235=ORIENTED_EDGE('',*,*,#175,.T.);
#236=ORIENTED_EDGE('',*,*,#178,.F.);
#237=ORIENTED_EDGE('',*,*,#177,.F.);
#238=ORIENTED_EDGE('',*,*,#166,.T.);
#239=ORIENTED_EDGE('',*,*,#180,.F.);
#240=ORIENTED_EDGE('',*,*,#173,.T.);
#241=ORIENTED_EDGE('',*,*,#171,.F.);
#242=ORIENTED_EDGE('',*,*,#162,.T.);
#243=ORIENTED_EDGE('',*,*,#179,.T.);
#244=ORIENTED_EDGE('',*,*,#180,.T.);
#245=ORIENTED_EDGE('',*,*,#165,.T.);
#246=ORIENTED_EDGE('',*,*,#154,.T.);
#247=ORIENTED_EDGE('',*,*,#155,.T.);
#248=ORIENTED_EDGE('',*,*,#149,.T.);
#249=CONICAL_SURFACE('',#278,0.825,1.02974425867665);
#250=ADVANCED_FACE('',(#31),#249,.F.);
#251=ADVANCED_FACE('',(#32),#28,.F.);
#252=ADVANCED_FACE('',(#33),#18,.T.);
#253=ADVANCED_FACE('',(#34),#19,.T.);
#254=ADVANCED_FACE('',(#35),#20,.T.);
#255=ADVANCED_FACE('',(#36,#15),#21,.T.);
#256=ADVANCED_FACE('',(#37),#22,.F.);
#257=ADVANCED_FACE('',(#38),#23,.T.);
#258=ADVANCED_FACE('',(#39),#24,.T.);
#259=ADVANCED_FACE('',(#40),#29,.F.);
#260=ADVANCED_FACE('',(#41),#30,.T.);
#261=ADVANCED_FACE('',(#42,#16),#25,.T.);
#262=ADVANCED_FACE('',(#43),#26,.T.);
#263=ADVANCED_FACE('',(#44,#17),#27,.T.);
#264=CLOSED_SHELL('',(#250,#251,#252,#253,#254,#255,#256,#257,#258,#259,
#260,#261,#262,#263));
#265=DERIVED_UNIT_ELEMENT(#267,1.);
#266=DERIVED_UNIT_ELEMENT(#445,-3.);
#267=(
MASS_UNIT()
NAMED_UNIT(*)
SI_UNIT(.KILO.,.GRAM.)
);
#268=DERIVED_UNIT((#265,#266));
#269=MEASURE_REPRESENTATION_ITEM('density measure',
POSITIVE_RATIO_MEASURE(7850.),#268);
#270=PROPERTY_DEFINITION_REPRESENTATION(#275,#272);
#271=PROPERTY_DEFINITION_REPRESENTATION(#276,#273);
#272=REPRESENTATION('material name',(#274),#442);
#273=REPRESENTATION('density',(#269),#442);
#274=DESCRIPTIVE_REPRESENTATION_ITEM('Acier','Acier');
#275=PROPERTY_DEFINITION('material property','material name',#452);
#276=PROPERTY_DEFINITION('material property','density of part',#452);
#277=AXIS2_PLACEMENT_3D('placement',#368,#298,#299);
#278=AXIS2_PLACEMENT_3D('',#369,#300,#301);
#279=AXIS2_PLACEMENT_3D('',#371,#302,#303);
#280=AXIS2_PLACEMENT_3D('',#374,#305,#306);
#281=AXIS2_PLACEMENT_3D('',#376,#307,#308);
#282=AXIS2_PLACEMENT_3D('',#378,#310,#311);
#283=AXIS2_PLACEMENT_3D('',#387,#316,#317);
#284=AXIS2_PLACEMENT_3D('',#393,#321,#322);
#285=AXIS2_PLACEMENT_3D('',#406,#329,#330);
#286=AXIS2_PLACEMENT_3D('',#412,#334,#335);
#287=AXIS2_PLACEMENT_3D('',#414,#336,#337);
#288=AXIS2_PLACEMENT_3D('',#415,#338,#339);
#289=AXIS2_PLACEMENT_3D('',#419,#342,#343);
#290=AXIS2_PLACEMENT_3D('',#423,#346,#347);
#291=AXIS2_PLACEMENT_3D('',#425,#349,#350);
#292=AXIS2_PLACEMENT_3D('',#428,#352,#353);
#293=AXIS2_PLACEMENT_3D('',#429,#354,#355);
#294=AXIS2_PLACEMENT_3D('',#431,#356,#357);
#295=AXIS2_PLACEMENT_3D('',#433,#359,#360);
#296=AXIS2_PLACEMENT_3D('',#437,#363,#364);
#297=AXIS2_PLACEMENT_3D('',#439,#366,#367);
#298=DIRECTION('axis',(0.,0.,1.));
#299=DIRECTION('refdir',(1.,0.,0.));
#300=DIRECTION('center_axis',(0.,1.,0.));
#301=DIRECTION('ref_axis',(0.,0.,1.));
#302=DIRECTION('center_axis',(0.,-1.,0.));
#303=DIRECTION('ref_axis',(0.,0.,1.));
#304=DIRECTION('',(-1.04972719113862E-16,-0.515038074910054,0.857167300702112));
#305=DIRECTION('center_axis',(0.,-1.,0.));
#306=DIRECTION('ref_axis',(0.,0.,1.));
#307=DIRECTION('center_axis',(0.,-1.,0.));
#308=DIRECTION('ref_axis',(0.,0.,1.));
#309=DIRECTION('',(0.,-1.,0.));
#310=DIRECTION('center_axis',(1.,0.,0.));
#311=DIRECTION('ref_axis',(0.,0.,1.));
#312=DIRECTION('',(0.,1.,0.));
#313=DIRECTION('',(0.,0.,1.));
#314=DIRECTION('',(0.,-1.,0.));
#315=DIRECTION('',(0.,0.,-1.));
#316=DIRECTION('center_axis',(0.,0.,-1.));
#317=DIRECTION('ref_axis',(1.,0.,0.));
#318=DIRECTION('',(-1.,0.,0.));
#319=DIRECTION('',(1.,0.,0.));
#320=DIRECTION('',(0.,-1.,0.));
#321=DIRECTION('center_axis',(-1.,0.,0.));
#322=DIRECTION('ref_axis',(0.,0.,1.));
#323=DIRECTION('',(0.,0.,-1.));
#324=DIRECTION('',(0.,1.,0.));
#325=DIRECTION('',(0.,0.,-1.));
#326=DIRECTION('',(0.,1.,0.));
#327=DIRECTION('',(0.,0.,1.));
#328=DIRECTION('',(0.,-1.,0.));
#329=DIRECTION('center_axis',(0.,0.,-1.));
#330=DIRECTION('ref_axis',(-1.,0.,0.));
#331=DIRECTION('',(1.,0.,0.));
#332=DIRECTION('',(-1.,0.,0.));
#333=DIRECTION('',(0.,1.,0.));
#334=DIRECTION('center_axis',(0.,0.,1.));
#335=DIRECTION('ref_axis',(0.707106781186547,-0.707106781186547,0.));
#336=DIRECTION('center_axis',(0.,0.,1.));
#337=DIRECTION('ref_axis',(-1.,0.,0.));
#338=DIRECTION('center_axis',(0.,1.,0.));
#339=DIRECTION('ref_axis',(0.,0.,1.));
#340=DIRECTION('',(-1.,0.,-7.45058054141268E-9));
#341=DIRECTION('',(0.,0.,-1.));
#342=DIRECTION('center_axis',(-7.45058054141268E-9,0.,1.));
#343=DIRECTION('ref_axis',(-1.,0.,-7.45058054141268E-9));
#344=DIRECTION('',(-1.,0.,-7.45058054141268E-9));
#345=DIRECTION('',(0.,-1.,0.));
#346=DIRECTION('center_axis',(-1.,0.,0.));
#347=DIRECTION('ref_axis',(0.,0.,-1.));
#348=DIRECTION('',(0.,0.,1.));
#349=DIRECTION('center_axis',(0.,0.,1.));
#350=DIRECTION('ref_axis',(-1.,0.,0.));
#351=DIRECTION('',(0.,0.,1.));
#352=DIRECTION('center_axis',(0.,0.,-1.));
#353=DIRECTION('ref_axis',(-1.,0.,0.));
#354=DIRECTION('center_axis',(0.,0.,1.));
#355=DIRECTION('ref_axis',(-0.707106781186547,-0.707106781186547,0.));
#356=DIRECTION('center_axis',(0.,0.,-1.));
#357=DIRECTION('ref_axis',(0.707106781186547,-0.707106781186547,0.));
#358=DIRECTION('',(0.,0.,1.));
#359=DIRECTION('center_axis',(0.,0.,1.));
#360=DIRECTION('ref_axis',(1.,0.,0.));
#361=DIRECTION('',(0.,1.,0.));
#362=DIRECTION('',(1.,0.,0.));
#363=DIRECTION('center_axis',(1.,0.,0.));
#364=DIRECTION('ref_axis',(0.,0.,-1.));
#365=DIRECTION('',(0.,0.,-1.));
#366=DIRECTION('center_axis',(0.,1.,0.));
#367=DIRECTION('ref_axis',(0.,0.,1.));
#368=CARTESIAN_POINT('',(0.,0.,0.));
#369=CARTESIAN_POINT('Origin',(3.72529029846191E-8,8.50428998930226,5.0000000372529));
#370=CARTESIAN_POINT('',(3.72529031866859E-8,9.,3.3500000372529));
#371=CARTESIAN_POINT('Origin',(3.72529029846191E-8,9.,5.0000000372529));
#372=CARTESIAN_POINT('',(3.72529029846191E-8,8.00857997860452,5.0000000372529));
#373=CARTESIAN_POINT('',(3.72529030856525E-8,8.50428998930226,4.1750000372529));
#374=CARTESIAN_POINT('Origin',(3.72529029846191E-8,12.,5.0000000372529));
#375=CARTESIAN_POINT('',(3.72529031866859E-8,15.,3.3500000372529));
#376=CARTESIAN_POINT('Origin',(3.72529029846191E-8,15.,5.0000000372529));
#377=CARTESIAN_POINT('',(3.72529031866859E-8,12.,3.3500000372529));
#378=CARTESIAN_POINT('Origin',(5.,15.,0.));
#379=CARTESIAN_POINT('',(5.,9.,0.00777051140046892));
#380=CARTESIAN_POINT('',(5.,15.,0.00777051140046892));
#381=CARTESIAN_POINT('',(5.,7.5,0.00777051140046892));
#382=CARTESIAN_POINT('',(5.,9.,0.));
#383=CARTESIAN_POINT('',(5.,9.,10.));
#384=CARTESIAN_POINT('',(5.,15.,0.));
#385=CARTESIAN_POINT('',(5.,15.,0.));
#386=CARTESIAN_POINT('',(5.,15.,10.));
#387=CARTESIAN_POINT('Origin',(-5.,15.,0.));
#388=CARTESIAN_POINT('',(-5.,15.,0.));
#389=CARTESIAN_POINT('',(5.,15.,0.));
#390=CARTESIAN_POINT('',(-5.,9.,0.));
#391=CARTESIAN_POINT('',(5.,9.,0.));
#392=CARTESIAN_POINT('',(-5.,15.,0.));
#393=CARTESIAN_POINT('Origin',(-4.98852149203622,0.,0.00777051140046892));
#394=CARTESIAN_POINT('',(-4.98852149203622,9.,10.0000000000855));
#395=CARTESIAN_POINT('',(-4.98852149203622,9.,0.00777051140046892));
#396=CARTESIAN_POINT('',(-4.98852149203622,9.,1.25388527432669));
#397=CARTESIAN_POINT('',(-4.98852149203622,5.,0.00777051140046892));
#398=CARTESIAN_POINT('',(-4.98852149203622,0.,0.00777051140046892));
#399=CARTESIAN_POINT('',(-4.98852149203622,5.,10.0077705114005));
#400=CARTESIAN_POINT('',(-4.98852149203622,5.,2.50777051140047));
#401=CARTESIAN_POINT('',(-4.98852149203622,15.,10.0077705114005));
#402=CARTESIAN_POINT('',(-4.98852149203622,0.,10.0077705114005));
#403=CARTESIAN_POINT('',(-4.98852149203622,15.,10.0000000000855));
#404=CARTESIAN_POINT('',(-4.98852149203622,15.,0.00777051140046892));
#405=CARTESIAN_POINT('',(-4.98852149203622,7.5,10.0000000000855));
#406=CARTESIAN_POINT('Origin',(5.01147850796378,0.,0.00777051140046892));
#407=CARTESIAN_POINT('',(2.50573927260834,9.,0.00777051140046892));
#408=CARTESIAN_POINT('',(5.01147850796378,15.,0.00777051140046892));
#409=CARTESIAN_POINT('',(5.01147850796378,15.,0.00777051140046892));
#410=CARTESIAN_POINT('',(5.01147850796378,5.,0.00777051140046892));
#411=CARTESIAN_POINT('',(5.01147850796378,0.,0.00777051140046892));
#412=CARTESIAN_POINT('Origin',(0.0114785079637836,5.,0.00777051140046892));
#413=CARTESIAN_POINT('',(2.11147850796378,5.00000007450581,0.00777051140048002));
#414=CARTESIAN_POINT('Origin',(0.0114785079637836,5.00000007450581,0.00777051140046892));
#415=CARTESIAN_POINT('Origin',(0.0114785079637836,9.,5.00777051140047));
#416=CARTESIAN_POINT('',(-5.,9.,10.));
#417=CARTESIAN_POINT('',(5.00000007450581,9.,10.0000000745058));
#418=CARTESIAN_POINT('',(-5.,9.,5.));
#419=CARTESIAN_POINT('Origin',(-0.475514522050393,15.,10.00000003371));
#420=CARTESIAN_POINT('',(-5.,15.,10.));
#421=CARTESIAN_POINT('',(5.00000007450581,15.,10.0000000745058));
#422=CARTESIAN_POINT('',(-5.,15.,10.));
#423=CARTESIAN_POINT('Origin',(-5.,15.,10.));
#424=CARTESIAN_POINT('',(-5.,15.,5.));
#425=CARTESIAN_POINT('Origin',(0.0114785079637836,5.00000007450581,525.007770511401));
#426=CARTESIAN_POINT('',(2.11147850796378,5.00000007450581,10.0077705114005));
#427=CARTESIAN_POINT('',(2.11147850796378,5.00000007450581,525.007770511401));
#428=CARTESIAN_POINT('Origin',(0.0114785079637836,5.00000007450581,10.0077705114005));
#429=CARTESIAN_POINT('Origin',(0.0114785079637836,5.,2.50777051140047));
#430=CARTESIAN_POINT('',(5.01147850796378,5.,10.0077705114005));
#431=CARTESIAN_POINT('Origin',(0.0114785079637836,5.,10.0077705114005));
#432=CARTESIAN_POINT('',(5.01147850796378,5.,7.50777051140047));
#433=CARTESIAN_POINT('Origin',(-4.98852149203622,0.,10.0077705114005));
#434=CARTESIAN_POINT('',(5.01147850796378,15.,10.0077705114005));
#435=CARTESIAN_POINT('',(5.01147850796378,0.,10.0077705114005));
#436=CARTESIAN_POINT('',(-4.98852149203622,15.,10.0077705114005));
#437=CARTESIAN_POINT('Origin',(5.01147850796378,0.,10.0077705114005));
#438=CARTESIAN_POINT('',(5.01147850796378,15.,10.0077705114005));
#439=CARTESIAN_POINT('Origin',(0.0114785079637836,15.,5.00777051140047));
#440=UNCERTAINTY_MEASURE_WITH_UNIT(LENGTH_MEASURE(0.01),#444,
'DISTANCE_ACCURACY_VALUE',
'Maximum model space distance between geometric entities at asserted c
onnectivities');
#441=UNCERTAINTY_MEASURE_WITH_UNIT(LENGTH_MEASURE(0.01),#444,
'DISTANCE_ACCURACY_VALUE',
'Maximum model space distance between geometric entities at asserted c
onnectivities');
#442=(
GEOMETRIC_REPRESENTATION_CONTEXT(3)
GLOBAL_UNCERTAINTY_ASSIGNED_CONTEXT((#440))
GLOBAL_UNIT_ASSIGNED_CONTEXT((#444,#446,#447))
REPRESENTATION_CONTEXT('','3D')
);
#443=(
GEOMETRIC_REPRESENTATION_CONTEXT(3)
GLOBAL_UNCERTAINTY_ASSIGNED_CONTEXT((#441))
GLOBAL_UNIT_ASSIGNED_CONTEXT((#444,#446,#447))
REPRESENTATION_CONTEXT('','3D')
);
#444=(
LENGTH_UNIT()
NAMED_UNIT(*)
SI_UNIT(.MILLI.,.METRE.)
);
#445=(
LENGTH_UNIT()
NAMED_UNIT(*)
SI_UNIT($,.METRE.)
);
#446=(
NAMED_UNIT(*)
PLANE_ANGLE_UNIT()
SI_UNIT($,.RADIAN.)
);
#447=(
NAMED_UNIT(*)
SI_UNIT($,.STERADIAN.)
SOLID_ANGLE_UNIT()
);
#448=SHAPE_DEFINITION_REPRESENTATION(#449,#450);
#449=PRODUCT_DEFINITION_SHAPE('',$,#452);
#450=SHAPE_REPRESENTATION('',(#277),#442);
#451=PRODUCT_DEFINITION_CONTEXT('part definition',#456,'design');
#452=PRODUCT_DEFINITION('ENTRETOISE 2  FINALE v1',
'ENTRETOISE 2  FINALE v1 v1',#453,#451);
#453=PRODUCT_DEFINITION_FORMATION('',$,#458);
#454=PRODUCT_RELATED_PRODUCT_CATEGORY('ENTRETOISE 2  FINALE v1 v1',
'ENTRETOISE 2  FINALE v1 v1',(#458));
#455=APPLICATION_PROTOCOL_DEFINITION('international standard',
'automotive_design',2009,#456);
#456=APPLICATION_CONTEXT(
'Core Data for Automotive Mechanical Design Process');
#457=PRODUCT_CONTEXT('part definition',#456,'mechanical');
#458=PRODUCT('ENTRETOISE 2  FINALE v1','ENTRETOISE 2  FINALE v1 v1',$,(#457));
#459=PRESENTATION_STYLE_ASSIGNMENT((#460));
#460=SURFACE_STYLE_USAGE(.BOTH.,#461);
#461=SURFACE_SIDE_STYLE('',(#462));
#462=SURFACE_STYLE_FILL_AREA(#463);
#463=FILL_AREA_STYLE('Acier - Satin\X\E9',(#464));
#464=FILL_AREA_STYLE_COLOUR('Acier - Satin\X\E9',#465);
#465=COLOUR_RGB('Acier - Satin\X\E9',0.627450980392157,0.627450980392157,
0.627450980392157);
ENDSEC;
END-ISO-10303-21;
