ISO-10303-21;
HEADER;
FILE_DESCRIPTION (( 'STEP AP214' ),
    '1' );
FILE_NAME ('FIN COUPELLE BSA.STEP',
    '2022-06-29T11:47:53',
    ( '' ),
    ( '' ),
    'SwSTEP 2.0',
    'SolidWorks 2020',
    '' );
FILE_SCHEMA (( 'AUTOMOTIVE_DESIGN' ));
ENDSEC;

DATA;
#1 = DIRECTION ( 'NONE',  ( -1.000000000000000000, 0.000000000000000000, 0.000000000000000000 ) ) ;
#2 = ORIENTED_EDGE ( 'NONE', *, *, #187, .T. ) ;
#3 = EDGE_LOOP ( 'NONE', ( #51, #166 ) ) ;
#4 = ORIENTED_EDGE ( 'NONE', *, *, #102, .F. ) ;
#5 = VERTEX_POINT ( 'NONE', #284 ) ;
#6 =( NAMED_UNIT ( * ) PLANE_ANGLE_UNIT ( ) SI_UNIT ( $, .RADIAN. ) );
#7 = PRESENTATION_LAYER_ASSIGNMENT (  '', '', ( #19 ) ) ;
#8 = ORIENTED_EDGE ( 'NONE', *, *, #180, .F. ) ;
#9 = FILL_AREA_STYLE ('',( #247 ) ) ;
#10 = APPLICATION_PROTOCOL_DEFINITION ( 'draft international standard', 'automotive_design', 1998, #261 ) ;
#11 = CARTESIAN_POINT ( 'NONE',  ( 19.00000000000000000, 2.326828918379970970E-15, 8.000000000000000000 ) ) ;
#12 = DIRECTION ( 'NONE',  ( 0.000000000000000000, 0.000000000000000000, 1.000000000000000000 ) ) ;
#13 = VECTOR ( 'NONE', #78, 1000.000000000000000 ) ;
#14 =( NAMED_UNIT ( * ) PLANE_ANGLE_UNIT ( ) SI_UNIT ( $, .RADIAN. ) );
#15 = PRESENTATION_LAYER_ASSIGNMENT (  '', '', ( #172 ) ) ;
#16 = CARTESIAN_POINT ( 'NONE',  ( 0.000000000000000000, 0.000000000000000000, 37.00000000000000711 ) ) ;
#17 = CARTESIAN_POINT ( 'NONE',  ( 0.000000000000000000, 0.000000000000000000, 8.000000000000000000 ) ) ;
#18 = CARTESIAN_POINT ( 'NONE',  ( 0.000000000000000000, 0.000000000000000000, 37.00000000000000711 ) ) ;
#19 = STYLED_ITEM ( 'NONE', ( #57 ), #68 ) ;
#20 = CARTESIAN_POINT ( 'NONE',  ( -16.75000000000000000, 0.000000000000000000, 8.000000000000000000 ) ) ;
#21 = ADVANCED_FACE ( 'NONE', ( #151 ), #103, .F. ) ;
#22 = PLANE ( 'NONE',  #185 ) ;
#23 = CYLINDRICAL_SURFACE ( 'NONE', #107, 5.000000000000000000 ) ;
#24 = CIRCLE ( 'NONE', #293, 16.75000000000000000 ) ;
#25 = CARTESIAN_POINT ( 'NONE',  ( -5.000000000000000000, 0.000000000000000000, 0.000000000000000000 ) ) ;
#26 = ORIENTED_EDGE ( 'NONE', *, *, #155, .T. ) ;
#27 = ORIENTED_EDGE ( 'NONE', *, *, #188, .T. ) ;
#28 = CIRCLE ( 'NONE', #96, 5.000000000000000000 ) ;
#29 = EDGE_CURVE ( 'NONE', #38, #277, #216, .T. ) ;
#30 = EDGE_LOOP ( 'NONE', ( #256, #40, #186, #267 ) ) ;
#31 = EDGE_CURVE ( 'NONE', #144, #268, #164, .T. ) ;
#32 = APPLICATION_PROTOCOL_DEFINITION ( 'draft international standard', 'automotive_design', 1998, #206 ) ;
#33 = ORIENTED_EDGE ( 'NONE', *, *, #253, .F. ) ;
#34 = PRESENTATION_STYLE_ASSIGNMENT (( #282 ) ) ;
#35 = VERTEX_POINT ( 'NONE', #123 ) ;
#36 = DIRECTION ( 'NONE',  ( 1.000000000000000000, 0.000000000000000000, -0.000000000000000000 ) ) ;
#37 = AXIS2_PLACEMENT_3D ( 'NONE', #199, #127, #39 ) ;
#38 = VERTEX_POINT ( 'NONE', #62 ) ;
#39 = DIRECTION ( 'NONE',  ( -1.000000000000000000, 0.000000000000000000, 0.000000000000000000 ) ) ;
#40 = ORIENTED_EDGE ( 'NONE', *, *, #246, .F. ) ;
#41 =( GEOMETRIC_REPRESENTATION_CONTEXT ( 3 ) GLOBAL_UNCERTAINTY_ASSIGNED_CONTEXT ( ( #240 ) ) GLOBAL_UNIT_ASSIGNED_CONTEXT ( ( #249, #14, #248 ) ) REPRESENTATION_CONTEXT ( 'NONE', 'WORKASPACE' ) );
#42 = DIRECTION ( 'NONE',  ( 1.000000000000000000, 0.000000000000000000, 0.000000000000000000 ) ) ;
#43 = DIRECTION ( 'NONE',  ( 0.000000000000000000, 0.000000000000000000, 1.000000000000000000 ) ) ;
#44 = CARTESIAN_POINT ( 'NONE',  ( 0.000000000000000000, 0.000000000000000000, 0.000000000000000000 ) ) ;
#45 = LINE ( 'NONE', #145, #13 ) ;
#46 = AXIS2_PLACEMENT_3D ( 'NONE', #184, #292, #1 ) ;
#47 = PRODUCT_DEFINITION_FORMATION_WITH_SPECIFIED_SOURCE ( 'ANY', '', #215, .NOT_KNOWN. ) ;
#48 = DIRECTION ( 'NONE',  ( 0.000000000000000000, 0.000000000000000000, -1.000000000000000000 ) ) ;
#49 = CARTESIAN_POINT ( 'NONE',  ( 0.000000000000000000, 0.000000000000000000, 8.000000000000000000 ) ) ;
#50 = FACE_OUTER_BOUND ( 'NONE', #280, .T. ) ;
#51 = ORIENTED_EDGE ( 'NONE', *, *, #29, .T. ) ;
#52 = ADVANCED_FACE ( 'NONE', ( #175 ), #174, .T. ) ;
#53 = ORIENTED_EDGE ( 'NONE', *, *, #162, .T. ) ;
#54 = VECTOR ( 'NONE', #74, 1000.000000000000000 ) ;
#55 = EDGE_LOOP ( 'NONE', ( #190, #262 ) ) ;
#56 =( NAMED_UNIT ( * ) PLANE_ANGLE_UNIT ( ) SI_UNIT ( $, .RADIAN. ) );
#57 = PRESENTATION_STYLE_ASSIGNMENT (( #104 ) ) ;
#58 = FILL_AREA_STYLE ('',( #118 ) ) ;
#59 = CARTESIAN_POINT ( 'NONE',  ( 0.000000000000000000, 0.000000000000000000, 8.000000000000000000 ) ) ;
#60 = DIRECTION ( 'NONE',  ( 0.000000000000000000, 0.000000000000000000, -1.000000000000000000 ) ) ;
#61 = DIRECTION ( 'NONE',  ( 0.000000000000000000, 0.000000000000000000, 1.000000000000000000 ) ) ;
#62 = CARTESIAN_POINT ( 'NONE',  ( -19.00000000000000000, 0.000000000000000000, 8.000000000000000000 ) ) ;
#63 = CARTESIAN_POINT ( 'NONE',  ( 0.000000000000000000, 0.000000000000000000, 37.00000000000000711 ) ) ;
#64 = DIRECTION ( 'NONE',  ( -1.000000000000000000, 0.000000000000000000, 0.000000000000000000 ) ) ;
#65 = AXIS2_PLACEMENT_3D ( 'NONE', #63, #223, #290 ) ;
#66 = CARTESIAN_POINT ( 'NONE',  ( 16.75000000000000000, 2.051283388571816493E-15, 37.00000000000000711 ) ) ;
#67 =( GEOMETRIC_REPRESENTATION_CONTEXT ( 3 ) GLOBAL_UNCERTAINTY_ASSIGNED_CONTEXT ( ( #235 ) ) GLOBAL_UNIT_ASSIGNED_CONTEXT ( ( #238, #56, #258 ) ) REPRESENTATION_CONTEXT ( 'NONE', 'WORKASPACE' ) );
#68 = MANIFOLD_SOLID_BREP ( 'Enlèv. mat.-Extru.1', #209 ) ;
#69 = DIRECTION ( 'NONE',  ( 0.000000000000000000, 0.000000000000000000, 1.000000000000000000 ) ) ;
#70 = DIRECTION ( 'NONE',  ( 1.000000000000000000, 0.000000000000000000, 0.000000000000000000 ) ) ;
#71 = EDGE_LOOP ( 'NONE', ( #105, #79, #27, #257 ) ) ;
#72 = EDGE_CURVE ( 'NONE', #140, #5, #24, .T. ) ;
#73 = EDGE_LOOP ( 'NONE', ( #213, #217 ) ) ;
#74 = DIRECTION ( 'NONE',  ( -0.000000000000000000, -0.000000000000000000, -1.000000000000000000 ) ) ;
#75 = EDGE_LOOP ( 'NONE', ( #237, #160, #26, #120 ) ) ;
#76 = CIRCLE ( 'NONE', #114, 16.75000000000000000 ) ;
#77 = MECHANICAL_DESIGN_GEOMETRIC_PRESENTATION_REPRESENTATION (  '', ( #172 ), #173 ) ;
#78 = DIRECTION ( 'NONE',  ( -0.000000000000000000, -0.000000000000000000, -1.000000000000000000 ) ) ;
#79 = ORIENTED_EDGE ( 'NONE', *, *, #92, .T. ) ;
#80 = DIRECTION ( 'NONE',  ( 1.000000000000000000, 0.000000000000000000, 0.000000000000000000 ) ) ;
#81 = DIRECTION ( 'NONE',  ( -0.000000000000000000, -0.000000000000000000, -1.000000000000000000 ) ) ;
#82 = AXIS2_PLACEMENT_3D ( 'NONE', #176, #43, #200 ) ;
#83 = ADVANCED_FACE ( 'NONE', ( #125, #218 ), #86, .F. ) ;
#84 = EDGE_CURVE ( 'NONE', #197, #35, #224, .T. ) ;
#85 = DIRECTION ( 'NONE',  ( -1.000000000000000000, 0.000000000000000000, 0.000000000000000000 ) ) ;
#86 = PLANE ( 'NONE',  #82 ) ;
#87 = MECHANICAL_DESIGN_GEOMETRIC_PRESENTATION_REPRESENTATION (  '', ( #19 ), #41 ) ;
#88 = DIRECTION ( 'NONE',  ( 0.000000000000000000, 0.000000000000000000, 1.000000000000000000 ) ) ;
#89 = CARTESIAN_POINT ( 'NONE',  ( 0.000000000000000000, 0.000000000000000000, 37.00000000000000711 ) ) ;
#90 = CARTESIAN_POINT ( 'NONE',  ( -19.00000000000000000, 0.000000000000000000, 0.000000000000000000 ) ) ;
#91 = LINE ( 'NONE', #275, #263 ) ;
#92 = EDGE_CURVE ( 'NONE', #277, #35, #170, .T. ) ;
#93 = DIRECTION ( 'NONE',  ( -0.000000000000000000, -0.000000000000000000, -1.000000000000000000 ) ) ;
#94 = LINE ( 'NONE', #66, #201 ) ;
#95 = ORIENTED_EDGE ( 'NONE', *, *, #141, .T. ) ;
#96 = AXIS2_PLACEMENT_3D ( 'NONE', #252, #48, #64 ) ;
#97 = EDGE_LOOP ( 'NONE', ( #95, #193 ) ) ;
#98 = AXIS2_PLACEMENT_3D ( 'NONE', #44, #294, #181 ) ;
#99 = ORIENTED_EDGE ( 'NONE', *, *, #180, .T. ) ;
#100 = DIRECTION ( 'NONE',  ( 0.000000000000000000, 0.000000000000000000, 1.000000000000000000 ) ) ;
#101 =( LENGTH_UNIT ( ) NAMED_UNIT ( * ) SI_UNIT ( .MILLI., .METRE. ) );
#102 = EDGE_CURVE ( 'NONE', #142, #161, #76, .T. ) ;
#103 = CYLINDRICAL_SURFACE ( 'NONE', #37, 5.000000000000000000 ) ;
#104 = SURFACE_STYLE_USAGE ( .BOTH. , #288 ) ;
#105 = ORIENTED_EDGE ( 'NONE', *, *, #232, .F. ) ;
#106 = CARTESIAN_POINT ( 'NONE',  ( 0.000000000000000000, 0.000000000000000000, 0.000000000000000000 ) ) ;
#107 = AXIS2_PLACEMENT_3D ( 'NONE', #202, #226, #255 ) ;
#108 = CARTESIAN_POINT ( 'NONE',  ( 16.75000000000000000, 2.051283388571816493E-15, 37.00000000000000711 ) ) ;
#109 = DIRECTION ( 'NONE',  ( -0.000000000000000000, -0.000000000000000000, -1.000000000000000000 ) ) ;
#110 = FACE_BOUND ( 'NONE', #97, .T. ) ;
#111 = PRODUCT_DEFINITION ( 'UNKNOWN', '', #47, #136 ) ;
#112 = DIRECTION ( 'NONE',  ( 1.000000000000000000, 0.000000000000000000, 0.000000000000000000 ) ) ;
#113 = FACE_OUTER_BOUND ( 'NONE', #75, .T. ) ;
#114 = AXIS2_PLACEMENT_3D ( 'NONE', #264, #148, #244 ) ;
#115 = EDGE_LOOP ( 'NONE', ( #117, #8 ) ) ;
#116 = AXIS2_PLACEMENT_3D ( 'NONE', #183, #157, #128 ) ;
#117 = ORIENTED_EDGE ( 'NONE', *, *, #72, .F. ) ;
#118 = FILL_AREA_STYLE_COLOUR ( '', #212 ) ;
#119 = ORIENTED_EDGE ( 'NONE', *, *, #246, .T. ) ;
#120 = ORIENTED_EDGE ( 'NONE', *, *, #31, .T. ) ;
#121 = ORIENTED_EDGE ( 'NONE', *, *, #265, .T. ) ;
#122 = ORIENTED_EDGE ( 'NONE', *, *, #92, .F. ) ;
#123 = CARTESIAN_POINT ( 'NONE',  ( 19.00000000000000000, 2.326828918379970970E-15, 0.000000000000000000 ) ) ;
#124 = AXIS2_PLACEMENT_3D ( 'NONE', #49, #227, #70 ) ;
#125 = FACE_BOUND ( 'NONE', #73, .T. ) ;
#126 = AXIS2_PLACEMENT_3D ( 'NONE', #189, #195, #80 ) ;
#127 = DIRECTION ( 'NONE',  ( -0.000000000000000000, -0.000000000000000000, -1.000000000000000000 ) ) ;
#128 = DIRECTION ( 'NONE',  ( -1.000000000000000000, 0.000000000000000000, 0.000000000000000000 ) ) ;
#129 = AXIS2_PLACEMENT_3D ( 'NONE', #17, #100, #219 ) ;
#130 = DIRECTION ( 'NONE',  ( -0.000000000000000000, -0.000000000000000000, -1.000000000000000000 ) ) ;
#131 = LINE ( 'NONE', #272, #159 ) ;
#132 = ADVANCED_FACE ( 'NONE', ( #271 ), #229, .T. ) ;
#133 = CARTESIAN_POINT ( 'NONE',  ( 5.000000000000000000, 6.123233995736766282E-16, 37.00000000000000711 ) ) ;
#134 = AXIS2_PLACEMENT_3D ( 'NONE', #289, #88, #194 ) ;
#135 = CYLINDRICAL_SURFACE ( 'NONE', #116, 19.00000000000000000 ) ;
#136 = PRODUCT_DEFINITION_CONTEXT ( 'detailed design', #206, 'design' ) ;
#137 = EDGE_LOOP ( 'NONE', ( #119, #234 ) ) ;
#138 = VERTEX_POINT ( 'NONE', #274 ) ;
#139 = AXIS2_PLACEMENT_3D ( 'NONE', #89, #154, #251 ) ;
#140 = VERTEX_POINT ( 'NONE', #20 ) ;
#141 = EDGE_CURVE ( 'NONE', #138, #165, #28, .T. ) ;
#142 = VERTEX_POINT ( 'NONE', #108 ) ;
#143 = PLANE ( 'NONE',  #221 ) ;
#144 = VERTEX_POINT ( 'NONE', #25 ) ;
#145 = CARTESIAN_POINT ( 'NONE',  ( -19.00000000000000000, 0.000000000000000000, 8.000000000000000000 ) ) ;
#146 = AXIS2_PLACEMENT_3D ( 'NONE', #16, #152, #222 ) ;
#147 = FACE_BOUND ( 'NONE', #115, .T. ) ;
#148 = DIRECTION ( 'NONE',  ( 0.000000000000000000, 0.000000000000000000, 1.000000000000000000 ) ) ;
#149 = PRODUCT_CONTEXT ( 'NONE', #261, 'mechanical' ) ;
#150 = LINE ( 'NONE', #171, #54 ) ;
#151 = FACE_OUTER_BOUND ( 'NONE', #259, .T. ) ;
#152 = DIRECTION ( 'NONE',  ( -0.000000000000000000, -0.000000000000000000, -1.000000000000000000 ) ) ;
#153 = CARTESIAN_POINT ( 'NONE',  ( -16.75000000000000000, 0.000000000000000000, 37.00000000000000711 ) ) ;
#154 = DIRECTION ( 'NONE',  ( 0.000000000000000000, 0.000000000000000000, -1.000000000000000000 ) ) ;
#155 = EDGE_CURVE ( 'NONE', #138, #144, #131, .T. ) ;
#156 = FACE_OUTER_BOUND ( 'NONE', #71, .T. ) ;
#157 = DIRECTION ( 'NONE',  ( -0.000000000000000000, -0.000000000000000000, -1.000000000000000000 ) ) ;
#158 = DIRECTION ( 'NONE',  ( 1.000000000000000000, 0.000000000000000000, 0.000000000000000000 ) ) ;
#159 = VECTOR ( 'NONE', #254, 1000.000000000000000 ) ;
#160 = ORIENTED_EDGE ( 'NONE', *, *, #141, .F. ) ;
#161 = VERTEX_POINT ( 'NONE', #153 ) ;
#162 = EDGE_CURVE ( 'NONE', #142, #5, #94, .T. ) ;
#163 = ADVANCED_FACE ( 'NONE', ( #113 ), #23, .F. ) ;
#164 = CIRCLE ( 'NONE', #243, 5.000000000000000000 ) ;
#165 = VERTEX_POINT ( 'NONE', #133 ) ;
#166 = ORIENTED_EDGE ( 'NONE', *, *, #232, .T. ) ;
#167 = CARTESIAN_POINT ( 'NONE',  ( 19.00000000000000000, 2.326828918379970970E-15, 8.000000000000000000 ) ) ;
#168 = ORIENTED_EDGE ( 'NONE', *, *, #155, .F. ) ;
#169 = SURFACE_STYLE_FILL_AREA ( #58 ) ;
#170 = LINE ( 'NONE', #11, #191 ) ;
#171 = CARTESIAN_POINT ( 'NONE',  ( -16.75000000000000000, 0.000000000000000000, 37.00000000000000711 ) ) ;
#172 = STYLED_ITEM ( 'NONE', ( #34 ), #230 ) ;
#173 =( GEOMETRIC_REPRESENTATION_CONTEXT ( 3 ) GLOBAL_UNCERTAINTY_ASSIGNED_CONTEXT ( ( #214 ) ) GLOBAL_UNIT_ASSIGNED_CONTEXT ( ( #101, #6, #220 ) ) REPRESENTATION_CONTEXT ( 'NONE', 'WORKASPACE' ) );
#174 = CYLINDRICAL_SURFACE ( 'NONE', #146, 16.75000000000000000 ) ;
#175 = FACE_OUTER_BOUND ( 'NONE', #30, .T. ) ;
#176 = CARTESIAN_POINT ( 'NONE',  ( 0.000000000000000000, 0.000000000000000000, 0.000000000000000000 ) ) ;
#177 = CIRCLE ( 'NONE', #286, 16.75000000000000000 ) ;
#178 = SURFACE_STYLE_FILL_AREA ( #9 ) ;
#179 = DIRECTION ( 'NONE',  ( -1.000000000000000000, 0.000000000000000000, 0.000000000000000000 ) ) ;
#180 = EDGE_CURVE ( 'NONE', #5, #140, #177, .T. ) ;
#181 = DIRECTION ( 'NONE',  ( -1.000000000000000000, 0.000000000000000000, 0.000000000000000000 ) ) ;
#182 = COLOUR_RGB ( '',0.7921568627450980005, 0.8196078431372548767, 0.9333333333333333481 ) ;
#183 = CARTESIAN_POINT ( 'NONE',  ( 0.000000000000000000, 0.000000000000000000, 8.000000000000000000 ) ) ;
#184 = CARTESIAN_POINT ( 'NONE',  ( 0.000000000000000000, 0.000000000000000000, 8.000000000000000000 ) ) ;
#185 = AXIS2_PLACEMENT_3D ( 'NONE', #270, #69, #203 ) ;
#186 = ORIENTED_EDGE ( 'NONE', *, *, #266, .T. ) ;
#187 = EDGE_CURVE ( 'NONE', #268, #144, #228, .T. ) ;
#188 = EDGE_CURVE ( 'NONE', #35, #197, #269, .T. ) ;
#189 = CARTESIAN_POINT ( 'NONE',  ( 0.000000000000000000, 0.000000000000000000, 0.000000000000000000 ) ) ;
#190 = ORIENTED_EDGE ( 'NONE', *, *, #84, .F. ) ;
#191 = VECTOR ( 'NONE', #81, 1000.000000000000000 ) ;
#192 = EDGE_LOOP ( 'NONE', ( #4, #53, #99, #239 ) ) ;
#193 = ORIENTED_EDGE ( 'NONE', *, *, #253, .T. ) ;
#194 = DIRECTION ( 'NONE',  ( 1.000000000000000000, 0.000000000000000000, 0.000000000000000000 ) ) ;
#195 = DIRECTION ( 'NONE',  ( 0.000000000000000000, 0.000000000000000000, 1.000000000000000000 ) ) ;
#196 = CIRCLE ( 'NONE', #65, 16.75000000000000000 ) ;
#197 = VERTEX_POINT ( 'NONE', #90 ) ;
#198 = ADVANCED_FACE ( 'NONE', ( #110, #207 ), #22, .T. ) ;
#199 = CARTESIAN_POINT ( 'NONE',  ( 0.000000000000000000, 0.000000000000000000, 37.00000000000000711 ) ) ;
#200 = DIRECTION ( 'NONE',  ( 1.000000000000000000, 0.000000000000000000, -0.000000000000000000 ) ) ;
#201 = VECTOR ( 'NONE', #109, 1000.000000000000000 ) ;
#202 = CARTESIAN_POINT ( 'NONE',  ( 0.000000000000000000, 0.000000000000000000, 37.00000000000000711 ) ) ;
#203 = DIRECTION ( 'NONE',  ( 1.000000000000000000, 0.000000000000000000, -0.000000000000000000 ) ) ;
#204 = DIRECTION ( 'NONE',  ( 0.000000000000000000, 0.000000000000000000, 1.000000000000000000 ) ) ;
#205 = CYLINDRICAL_SURFACE ( 'NONE', #46, 19.00000000000000000 ) ;
#206 = APPLICATION_CONTEXT ( 'automotive_design' ) ;
#207 = FACE_OUTER_BOUND ( 'NONE', #137, .T. ) ;
#208 = ORIENTED_EDGE ( 'NONE', *, *, #211, .T. ) ;
#209 = CLOSED_SHELL ( 'NONE', ( #21, #132, #210, #231, #283, #83, #52, #198, #163 ) ) ;
#210 = ADVANCED_FACE ( 'NONE', ( #156 ), #205, .T. ) ;
#211 = EDGE_CURVE ( 'NONE', #165, #268, #91, .T. ) ;
#212 = COLOUR_RGB ( '',0.7921568627450980005, 0.8196078431372548767, 0.9333333333333333481 ) ;
#213 = ORIENTED_EDGE ( 'NONE', *, *, #31, .F. ) ;
#214 = UNCERTAINTY_MEASURE_WITH_UNIT (LENGTH_MEASURE( 1.000000000000000082E-05 ), #101, 'distance_accuracy_value', 'NONE');
#215 = PRODUCT ( 'FIN COUPELLE BSA', 'FIN COUPELLE BSA', '', ( #149 ) ) ;
#216 = CIRCLE ( 'NONE', #129, 19.00000000000000000 ) ;
#217 = ORIENTED_EDGE ( 'NONE', *, *, #187, .F. ) ;
#218 = FACE_OUTER_BOUND ( 'NONE', #55, .T. ) ;
#219 = DIRECTION ( 'NONE',  ( 1.000000000000000000, 0.000000000000000000, 0.000000000000000000 ) ) ;
#220 =( NAMED_UNIT ( * ) SI_UNIT ( $, .STERADIAN. ) SOLID_ANGLE_UNIT ( ) );
#221 = AXIS2_PLACEMENT_3D ( 'NONE', #281, #12, #36 ) ;
#222 = DIRECTION ( 'NONE',  ( -1.000000000000000000, 0.000000000000000000, 0.000000000000000000 ) ) ;
#223 = DIRECTION ( 'NONE',  ( 0.000000000000000000, 0.000000000000000000, 1.000000000000000000 ) ) ;
#224 = CIRCLE ( 'NONE', #134, 19.00000000000000000 ) ;
#225 = CARTESIAN_POINT ( 'NONE',  ( 0.000000000000000000, 0.000000000000000000, 0.000000000000000000 ) ) ;
#226 = DIRECTION ( 'NONE',  ( -0.000000000000000000, -0.000000000000000000, -1.000000000000000000 ) ) ;
#227 = DIRECTION ( 'NONE',  ( 0.000000000000000000, 0.000000000000000000, 1.000000000000000000 ) ) ;
#228 = CIRCLE ( 'NONE', #98, 5.000000000000000000 ) ;
#229 = CYLINDRICAL_SURFACE ( 'NONE', #287, 16.75000000000000000 ) ;
#230 = ADVANCED_BREP_SHAPE_REPRESENTATION ( 'FIN COUPELLE BSA', ( #68, #126 ), #67 ) ;
#231 = ADVANCED_FACE ( 'NONE', ( #50 ), #135, .T. ) ;
#232 = EDGE_CURVE ( 'NONE', #277, #38, #273, .T. ) ;
#233 = CIRCLE ( 'NONE', #139, 5.000000000000000000 ) ;
#234 = ORIENTED_EDGE ( 'NONE', *, *, #102, .T. ) ;
#235 = UNCERTAINTY_MEASURE_WITH_UNIT (LENGTH_MEASURE( 1.000000000000000082E-05 ), #238, 'distance_accuracy_value', 'NONE');
#236 = SURFACE_SIDE_STYLE ('',( #169 ) ) ;
#237 = ORIENTED_EDGE ( 'NONE', *, *, #211, .F. ) ;
#238 =( LENGTH_UNIT ( ) NAMED_UNIT ( * ) SI_UNIT ( .MILLI., .METRE. ) );
#239 = ORIENTED_EDGE ( 'NONE', *, *, #266, .F. ) ;
#240 = UNCERTAINTY_MEASURE_WITH_UNIT (LENGTH_MEASURE( 1.000000000000000082E-05 ), #249, 'distance_accuracy_value', 'NONE');
#241 = PRODUCT_DEFINITION_SHAPE ( 'NONE', 'NONE',  #111 ) ;
#242 = CARTESIAN_POINT ( 'NONE',  ( 5.000000000000000000, 6.123233995736766282E-16, 0.000000000000000000 ) ) ;
#243 = AXIS2_PLACEMENT_3D ( 'NONE', #106, #60, #85 ) ;
#244 = DIRECTION ( 'NONE',  ( 1.000000000000000000, 0.000000000000000000, 0.000000000000000000 ) ) ;
#245 = SHAPE_DEFINITION_REPRESENTATION ( #241, #230 ) ;
#246 = EDGE_CURVE ( 'NONE', #161, #142, #196, .T. ) ;
#247 = FILL_AREA_STYLE_COLOUR ( '', #182 ) ;
#248 =( NAMED_UNIT ( * ) SI_UNIT ( $, .STERADIAN. ) SOLID_ANGLE_UNIT ( ) );
#249 =( LENGTH_UNIT ( ) NAMED_UNIT ( * ) SI_UNIT ( .MILLI., .METRE. ) );
#250 = CARTESIAN_POINT ( 'NONE',  ( 0.000000000000000000, 0.000000000000000000, 8.000000000000000000 ) ) ;
#251 = DIRECTION ( 'NONE',  ( -1.000000000000000000, 0.000000000000000000, 0.000000000000000000 ) ) ;
#252 = CARTESIAN_POINT ( 'NONE',  ( 0.000000000000000000, 0.000000000000000000, 37.00000000000000711 ) ) ;
#253 = EDGE_CURVE ( 'NONE', #165, #138, #233, .T. ) ;
#254 = DIRECTION ( 'NONE',  ( -0.000000000000000000, -0.000000000000000000, -1.000000000000000000 ) ) ;
#255 = DIRECTION ( 'NONE',  ( -1.000000000000000000, 0.000000000000000000, 0.000000000000000000 ) ) ;
#256 = ORIENTED_EDGE ( 'NONE', *, *, #162, .F. ) ;
#257 = ORIENTED_EDGE ( 'NONE', *, *, #265, .F. ) ;
#258 =( NAMED_UNIT ( * ) SI_UNIT ( $, .STERADIAN. ) SOLID_ANGLE_UNIT ( ) );
#259 = EDGE_LOOP ( 'NONE', ( #33, #208, #2, #168 ) ) ;
#260 = FACE_OUTER_BOUND ( 'NONE', #3, .T. ) ;
#261 = APPLICATION_CONTEXT ( 'automotive_design' ) ;
#262 = ORIENTED_EDGE ( 'NONE', *, *, #188, .F. ) ;
#263 = VECTOR ( 'NONE', #93, 1000.000000000000000 ) ;
#264 = CARTESIAN_POINT ( 'NONE',  ( 0.000000000000000000, 0.000000000000000000, 37.00000000000000711 ) ) ;
#265 = EDGE_CURVE ( 'NONE', #38, #197, #45, .T. ) ;
#266 = EDGE_CURVE ( 'NONE', #161, #140, #150, .T. ) ;
#267 = ORIENTED_EDGE ( 'NONE', *, *, #72, .T. ) ;
#268 = VERTEX_POINT ( 'NONE', #242 ) ;
#269 = CIRCLE ( 'NONE', #276, 19.00000000000000000 ) ;
#270 = CARTESIAN_POINT ( 'NONE',  ( 0.000000000000000000, 0.000000000000000000, 37.00000000000000711 ) ) ;
#271 = FACE_OUTER_BOUND ( 'NONE', #192, .T. ) ;
#272 = CARTESIAN_POINT ( 'NONE',  ( -5.000000000000000000, 0.000000000000000000, 37.00000000000000711 ) ) ;
#273 = CIRCLE ( 'NONE', #124, 19.00000000000000000 ) ;
#274 = CARTESIAN_POINT ( 'NONE',  ( -5.000000000000000000, 0.000000000000000000, 37.00000000000000711 ) ) ;
#275 = CARTESIAN_POINT ( 'NONE',  ( 5.000000000000000000, 6.123233995736766282E-16, 37.00000000000000711 ) ) ;
#276 = AXIS2_PLACEMENT_3D ( 'NONE', #225, #291, #112 ) ;
#277 = VERTEX_POINT ( 'NONE', #167 ) ;
#278 = ORIENTED_EDGE ( 'NONE', *, *, #84, .T. ) ;
#279 = ORIENTED_EDGE ( 'NONE', *, *, #29, .F. ) ;
#280 = EDGE_LOOP ( 'NONE', ( #122, #279, #121, #278 ) ) ;
#281 = CARTESIAN_POINT ( 'NONE',  ( 0.000000000000000000, 0.000000000000000000, 8.000000000000000000 ) ) ;
#282 = SURFACE_STYLE_USAGE ( .BOTH. , #236 ) ;
#283 = ADVANCED_FACE ( 'NONE', ( #147, #260 ), #143, .T. ) ;
#284 = CARTESIAN_POINT ( 'NONE',  ( 16.75000000000000000, 2.051283388571816493E-15, 8.000000000000000000 ) ) ;
#285 = PRODUCT_RELATED_PRODUCT_CATEGORY ( 'part', '', ( #215 ) ) ;
#286 = AXIS2_PLACEMENT_3D ( 'NONE', #250, #204, #158 ) ;
#287 = AXIS2_PLACEMENT_3D ( 'NONE', #18, #130, #179 ) ;
#288 = SURFACE_SIDE_STYLE ('',( #178 ) ) ;
#289 = CARTESIAN_POINT ( 'NONE',  ( 0.000000000000000000, 0.000000000000000000, 0.000000000000000000 ) ) ;
#290 = DIRECTION ( 'NONE',  ( 1.000000000000000000, 0.000000000000000000, 0.000000000000000000 ) ) ;
#291 = DIRECTION ( 'NONE',  ( 0.000000000000000000, 0.000000000000000000, 1.000000000000000000 ) ) ;
#292 = DIRECTION ( 'NONE',  ( -0.000000000000000000, -0.000000000000000000, -1.000000000000000000 ) ) ;
#293 = AXIS2_PLACEMENT_3D ( 'NONE', #59, #61, #42 ) ;
#294 = DIRECTION ( 'NONE',  ( 0.000000000000000000, 0.000000000000000000, -1.000000000000000000 ) ) ;
ENDSEC;
END-ISO-10303-21;
