ISO-10303-21;
HEADER;
FILE_DESCRIPTION (( 'STEP AP214' ),
    '1' );
FILE_NAME ('COUPELLE T47.STEP',
    '2022-06-29T06:02:16',
    ( '' ),
    ( '' ),
    'SwSTEP 2.0',
    'SolidWorks 2020',
    '' );
FILE_SCHEMA (( 'AUTOMOTIVE_DESIGN' ));
ENDSEC;

DATA;
#1 = DIRECTION ( 'NONE',  ( 1.000000000000000000, 0.000000000000000000, 0.000000000000000000 ) ) ;
#2 = PRODUCT_RELATED_PRODUCT_CATEGORY ( 'part', '', ( #170 ) ) ;
#3 = ORIENTED_EDGE ( 'NONE', *, *, #39, .T. ) ;
#4 = COLOUR_RGB ( '',0.7921568627450980005, 0.8196078431372548767, 0.9333333333333333481 ) ;
#5 = EDGE_CURVE ( 'NONE', #85, #200, #119, .T. ) ;
#6 = DIRECTION ( 'NONE',  ( 1.000000000000000000, 0.000000000000000000, 0.000000000000000000 ) ) ;
#7 = AXIS2_PLACEMENT_3D ( 'NONE', #280, #125, #10 ) ;
#8 = EDGE_LOOP ( 'NONE', ( #150, #195, #105, #266 ) ) ;
#9 = AXIS2_PLACEMENT_3D ( 'NONE', #135, #51, #74 ) ;
#10 = DIRECTION ( 'NONE',  ( 1.000000000000000000, 0.000000000000000000, 0.000000000000000000 ) ) ;
#11 = ORIENTED_EDGE ( 'NONE', *, *, #5, .T. ) ;
#12 =( GEOMETRIC_REPRESENTATION_CONTEXT ( 3 ) GLOBAL_UNCERTAINTY_ASSIGNED_CONTEXT ( ( #146 ) ) GLOBAL_UNIT_ASSIGNED_CONTEXT ( ( #169, #261, #262 ) ) REPRESENTATION_CONTEXT ( 'NONE', 'WORKASPACE' ) );
#13 = ORIENTED_EDGE ( 'NONE', *, *, #288, .F. ) ;
#14 = CARTESIAN_POINT ( 'NONE',  ( 25.99999999999999645, 3.184081677783117796E-15, 8.000000000000000000 ) ) ;
#15 = VERTEX_POINT ( 'NONE', #53 ) ;
#16 = DIRECTION ( 'NONE',  ( -0.000000000000000000, -0.000000000000000000, -1.000000000000000000 ) ) ;
#17 = EDGE_CURVE ( 'NONE', #197, #63, #199, .T. ) ;
#18 = PLANE ( 'NONE',  #173 ) ;
#19 = DIRECTION ( 'NONE',  ( 1.000000000000000000, 0.000000000000000000, 0.000000000000000000 ) ) ;
#20 = VECTOR ( 'NONE', #101, 1000.000000000000000 ) ;
#21 = DIRECTION ( 'NONE',  ( -0.000000000000000000, -0.000000000000000000, 1.000000000000000000 ) ) ;
#22 = CYLINDRICAL_SURFACE ( 'NONE', #122, 5.000000000000000000 ) ;
#23 = MECHANICAL_DESIGN_GEOMETRIC_PRESENTATION_REPRESENTATION (  '', ( #158 ), #60 ) ;
#24 = DIRECTION ( 'NONE',  ( 0.000000000000000000, 0.000000000000000000, 1.000000000000000000 ) ) ;
#25 =( LENGTH_UNIT ( ) NAMED_UNIT ( * ) SI_UNIT ( .MILLI., .METRE. ) );
#26 = AXIS2_PLACEMENT_3D ( 'NONE', #112, #207, #155 ) ;
#27 = DIRECTION ( 'NONE',  ( 0.000000000000000000, 0.000000000000000000, 1.000000000000000000 ) ) ;
#28 =( NAMED_UNIT ( * ) SI_UNIT ( $, .STERADIAN. ) SOLID_ANGLE_UNIT ( ) );
#29 = PLANE ( 'NONE',  #104 ) ;
#30 = CARTESIAN_POINT ( 'NONE',  ( 0.000000000000000000, 0.000000000000000000, 0.000000000000000000 ) ) ;
#31 = PRESENTATION_STYLE_ASSIGNMENT (( #32 ) ) ;
#32 = SURFACE_STYLE_USAGE ( .BOTH. , #236 ) ;
#33 = AXIS2_PLACEMENT_3D ( 'NONE', #43, #91, #182 ) ;
#34 = ORIENTED_EDGE ( 'NONE', *, *, #81, .F. ) ;
#35 = ORIENTED_EDGE ( 'NONE', *, *, #57, .F. ) ;
#36 = CARTESIAN_POINT ( 'NONE',  ( -25.99999999999999645, 0.000000000000000000, 8.000000000000000000 ) ) ;
#37 = ORIENTED_EDGE ( 'NONE', *, *, #149, .T. ) ;
#38 = EDGE_CURVE ( 'NONE', #63, #197, #87, .T. ) ;
#39 = EDGE_CURVE ( 'NONE', #172, #85, #257, .T. ) ;
#40 = DIRECTION ( 'NONE',  ( -1.000000000000000000, 0.000000000000000000, 0.000000000000000000 ) ) ;
#41 = CYLINDRICAL_SURFACE ( 'NONE', #203, 5.000000000000000000 ) ;
#42 = ORIENTED_EDGE ( 'NONE', *, *, #288, .T. ) ;
#43 = CARTESIAN_POINT ( 'NONE',  ( 0.000000000000000000, 0.000000000000000000, 8.000000000000000000 ) ) ;
#44 = FACE_OUTER_BOUND ( 'NONE', #132, .T. ) ;
#45 = VECTOR ( 'NONE', #265, 1000.000000000000000 ) ;
#46 = DIRECTION ( 'NONE',  ( -0.000000000000000000, -0.000000000000000000, 1.000000000000000000 ) ) ;
#47 = SURFACE_STYLE_FILL_AREA ( #188 ) ;
#48 = CARTESIAN_POINT ( 'NONE',  ( 0.000000000000000000, 0.000000000000000000, 0.000000000000000000 ) ) ;
#49 = SURFACE_SIDE_STYLE ('',( #47 ) ) ;
#50 = DIRECTION ( 'NONE',  ( 1.000000000000000000, 0.000000000000000000, 0.000000000000000000 ) ) ;
#51 = DIRECTION ( 'NONE',  ( 0.000000000000000000, 0.000000000000000000, 1.000000000000000000 ) ) ;
#52 = PRESENTATION_LAYER_ASSIGNMENT (  '', '', ( #70 ) ) ;
#53 = CARTESIAN_POINT ( 'NONE',  ( 5.000000000000000000, 0.000000000000000000, 8.000000000000000000 ) ) ;
#54 = CARTESIAN_POINT ( 'NONE',  ( 22.95000000000000284, 0.000000000000000000, -30.00000000000000000 ) ) ;
#55 = ADVANCED_FACE ( 'NONE', ( #293 ), #143, .T. ) ;
#56 = FACE_OUTER_BOUND ( 'NONE', #83, .T. ) ;
#57 = EDGE_CURVE ( 'NONE', #284, #95, #211, .T. ) ;
#58 = ORIENTED_EDGE ( 'NONE', *, *, #228, .T. ) ;
#59 = AXIS2_PLACEMENT_3D ( 'NONE', #292, #27, #186 ) ;
#60 =( GEOMETRIC_REPRESENTATION_CONTEXT ( 3 ) GLOBAL_UNCERTAINTY_ASSIGNED_CONTEXT ( ( #100 ) ) GLOBAL_UNIT_ASSIGNED_CONTEXT ( ( #25, #96, #233 ) ) REPRESENTATION_CONTEXT ( 'NONE', 'WORKASPACE' ) );
#61 = CARTESIAN_POINT ( 'NONE',  ( -22.95000000000000284, 2.810564404043175673E-15, 0.000000000000000000 ) ) ;
#62 = APPLICATION_CONTEXT ( 'automotive_design' ) ;
#63 = VERTEX_POINT ( 'NONE', #68 ) ;
#64 = DIRECTION ( 'NONE',  ( 1.000000000000000000, 0.000000000000000000, 0.000000000000000000 ) ) ;
#65 = COLOUR_RGB ( '',0.7921568627450980005, 0.8196078431372548767, 0.9333333333333333481 ) ;
#66 = ORIENTED_EDGE ( 'NONE', *, *, #102, .T. ) ;
#67 = CYLINDRICAL_SURFACE ( 'NONE', #285, 22.95000000000000284 ) ;
#68 = CARTESIAN_POINT ( 'NONE',  ( -25.99999999999999645, 0.000000000000000000, 8.000000000000000000 ) ) ;
#69 = FILL_AREA_STYLE_COLOUR ( '', #65 ) ;
#70 = STYLED_ITEM ( 'NONE', ( #31 ), #144 ) ;
#71 = DIRECTION ( 'NONE',  ( 0.000000000000000000, 0.000000000000000000, -1.000000000000000000 ) ) ;
#72 = ADVANCED_FACE ( 'NONE', ( #183, #213 ), #162, .F. ) ;
#73 = DIRECTION ( 'NONE',  ( 1.000000000000000000, 0.000000000000000000, 0.000000000000000000 ) ) ;
#74 = DIRECTION ( 'NONE',  ( 1.000000000000000000, 0.000000000000000000, 0.000000000000000000 ) ) ;
#75 = EDGE_LOOP ( 'NONE', ( #220, #246, #221, #42 ) ) ;
#76 = AXIS2_PLACEMENT_3D ( 'NONE', #89, #71, #115 ) ;
#77 = PRESENTATION_STYLE_ASSIGNMENT (( #259 ) ) ;
#78 = PRODUCT_DEFINITION_SHAPE ( 'NONE', 'NONE',  #267 ) ;
#79 = APPLICATION_CONTEXT ( 'automotive_design' ) ;
#80 = EDGE_LOOP ( 'NONE', ( #270, #268 ) ) ;
#81 = EDGE_CURVE ( 'NONE', #276, #174, #290, .T. ) ;
#82 = EDGE_LOOP ( 'NONE', ( #126, #190, #156, #218 ) ) ;
#83 = EDGE_LOOP ( 'NONE', ( #134, #130 ) ) ;
#84 = FACE_OUTER_BOUND ( 'NONE', #82, .T. ) ;
#85 = VERTEX_POINT ( 'NONE', #140 ) ;
#86 = CARTESIAN_POINT ( 'NONE',  ( 0.000000000000000000, 0.000000000000000000, 0.000000000000000000 ) ) ;
#87 = CIRCLE ( 'NONE', #243, 25.99999999999999645 ) ;
#88 = UNCERTAINTY_MEASURE_WITH_UNIT (LENGTH_MEASURE( 1.000000000000000082E-05 ), #116, 'distance_accuracy_value', 'NONE');
#89 = CARTESIAN_POINT ( 'NONE',  ( 0.000000000000000000, 0.000000000000000000, -30.00000000000000000 ) ) ;
#90 = ADVANCED_FACE ( 'NONE', ( #114 ), #22, .F. ) ;
#91 = DIRECTION ( 'NONE',  ( -0.000000000000000000, -0.000000000000000000, -1.000000000000000000 ) ) ;
#92 = CYLINDRICAL_SURFACE ( 'NONE', #279, 25.99999999999999645 ) ;
#93 = CIRCLE ( 'NONE', #9, 25.99999999999999645 ) ;
#94 = DIRECTION ( 'NONE',  ( 1.000000000000000000, 0.000000000000000000, 0.000000000000000000 ) ) ;
#95 = VERTEX_POINT ( 'NONE', #206 ) ;
#96 =( NAMED_UNIT ( * ) PLANE_ANGLE_UNIT ( ) SI_UNIT ( $, .RADIAN. ) );
#97 = DIRECTION ( 'NONE',  ( 0.000000000000000000, 0.000000000000000000, 1.000000000000000000 ) ) ;
#98 = CIRCLE ( 'NONE', #137, 22.95000000000000284 ) ;
#99 = EDGE_CURVE ( 'NONE', #95, #15, #113, .T. ) ;
#100 = UNCERTAINTY_MEASURE_WITH_UNIT (LENGTH_MEASURE( 1.000000000000000082E-05 ), #25, 'distance_accuracy_value', 'NONE');
#101 = DIRECTION ( 'NONE',  ( -0.000000000000000000, -0.000000000000000000, 1.000000000000000000 ) ) ;
#102 = EDGE_CURVE ( 'NONE', #284, #286, #278, .T. ) ;
#103 = CARTESIAN_POINT ( 'NONE',  ( 22.95000000000000284, 0.000000000000000000, -30.00000000000000000 ) ) ;
#104 = AXIS2_PLACEMENT_3D ( 'NONE', #120, #167, #258 ) ;
#105 = ORIENTED_EDGE ( 'NONE', *, *, #145, .T. ) ;
#106 = EDGE_LOOP ( 'NONE', ( #185, #107, #192, #110 ) ) ;
#107 = ORIENTED_EDGE ( 'NONE', *, *, #247, .T. ) ;
#108 = CIRCLE ( 'NONE', #152, 5.000000000000000000 ) ;
#109 = ADVANCED_FACE ( 'NONE', ( #277, #256 ), #18, .T. ) ;
#110 = ORIENTED_EDGE ( 'NONE', *, *, #202, .F. ) ;
#111 = CARTESIAN_POINT ( 'NONE',  ( 0.000000000000000000, 0.000000000000000000, -30.00000000000000000 ) ) ;
#112 = CARTESIAN_POINT ( 'NONE',  ( 0.000000000000000000, 0.000000000000000000, 0.000000000000000000 ) ) ;
#113 = CIRCLE ( 'NONE', #205, 5.000000000000000000 ) ;
#114 = FACE_OUTER_BOUND ( 'NONE', #223, .T. ) ;
#115 = DIRECTION ( 'NONE',  ( -1.000000000000000000, 0.000000000000000000, 0.000000000000000000 ) ) ;
#116 =( LENGTH_UNIT ( ) NAMED_UNIT ( * ) SI_UNIT ( .MILLI., .METRE. ) );
#117 = DIRECTION ( 'NONE',  ( 0.000000000000000000, 0.000000000000000000, 1.000000000000000000 ) ) ;
#118 =( NAMED_UNIT ( * ) PLANE_ANGLE_UNIT ( ) SI_UNIT ( $, .RADIAN. ) );
#119 = LINE ( 'NONE', #225, #281 ) ;
#120 = CARTESIAN_POINT ( 'NONE',  ( 0.000000000000000000, 0.000000000000000000, 8.000000000000000000 ) ) ;
#121 = ADVANCED_FACE ( 'NONE', ( #250 ), #272, .T. ) ;
#122 = AXIS2_PLACEMENT_3D ( 'NONE', #208, #141, #157 ) ;
#123 = SURFACE_STYLE_FILL_AREA ( #159 ) ;
#124 = PRODUCT_DEFINITION_FORMATION_WITH_SPECIFIED_SOURCE ( 'ANY', '', #170, .NOT_KNOWN. ) ;
#125 = DIRECTION ( 'NONE',  ( 0.000000000000000000, 0.000000000000000000, 1.000000000000000000 ) ) ;
#126 = ORIENTED_EDGE ( 'NONE', *, *, #102, .F. ) ;
#127 = AXIS2_PLACEMENT_3D ( 'NONE', #254, #164, #138 ) ;
#128 = ORIENTED_EDGE ( 'NONE', *, *, #154, .T. ) ;
#129 = LINE ( 'NONE', #14, #194 ) ;
#130 = ORIENTED_EDGE ( 'NONE', *, *, #17, .T. ) ;
#131 = DIRECTION ( 'NONE',  ( 1.000000000000000000, 0.000000000000000000, 0.000000000000000000 ) ) ;
#132 = EDGE_LOOP ( 'NONE', ( #153, #11, #240, #239 ) ) ;
#133 = FACE_OUTER_BOUND ( 'NONE', #75, .T. ) ;
#134 = ORIENTED_EDGE ( 'NONE', *, *, #38, .T. ) ;
#135 = CARTESIAN_POINT ( 'NONE',  ( 0.000000000000000000, 0.000000000000000000, 0.000000000000000000 ) ) ;
#136 = CARTESIAN_POINT ( 'NONE',  ( 5.000000000000000000, 0.000000000000000000, -30.00000000000000000 ) ) ;
#137 = AXIS2_PLACEMENT_3D ( 'NONE', #273, #191, #232 ) ;
#138 = DIRECTION ( 'NONE',  ( 1.000000000000000000, 0.000000000000000000, -0.000000000000000000 ) ) ;
#139 = PRODUCT_CONTEXT ( 'NONE', #62, 'mechanical' ) ;
#140 = CARTESIAN_POINT ( 'NONE',  ( -22.95000000000000284, 2.810564404043175673E-15, -30.00000000000000000 ) ) ;
#141 = DIRECTION ( 'NONE',  ( -0.000000000000000000, -0.000000000000000000, 1.000000000000000000 ) ) ;
#142 = CARTESIAN_POINT ( 'NONE',  ( 25.99999999999999645, 3.184081677783117796E-15, 0.000000000000000000 ) ) ;
#143 = CYLINDRICAL_SURFACE ( 'NONE', #238, 22.95000000000000284 ) ;
#144 = MANIFOLD_SOLID_BREP ( 'Enlèv. mat.-Extru.1', #214 ) ;
#145 = EDGE_CURVE ( 'NONE', #172, #198, #171, .T. ) ;
#146 = UNCERTAINTY_MEASURE_WITH_UNIT (LENGTH_MEASURE( 1.000000000000000082E-05 ), #169, 'distance_accuracy_value', 'NONE');
#147 = ORIENTED_EDGE ( 'NONE', *, *, #193, .T. ) ;
#148 = MECHANICAL_DESIGN_GEOMETRIC_PRESENTATION_REPRESENTATION (  '', ( #70 ), #12 ) ;
#149 = EDGE_CURVE ( 'NONE', #85, #172, #98, .T. ) ;
#150 = ORIENTED_EDGE ( 'NONE', *, *, #5, .F. ) ;
#151 = CARTESIAN_POINT ( 'NONE',  ( 25.99999999999999645, 3.184081677783117796E-15, 8.000000000000000000 ) ) ;
#152 = AXIS2_PLACEMENT_3D ( 'NONE', #269, #177, #64 ) ;
#153 = ORIENTED_EDGE ( 'NONE', *, *, #149, .F. ) ;
#154 = EDGE_CURVE ( 'NONE', #15, #95, #189, .T. ) ;
#155 = DIRECTION ( 'NONE',  ( -1.000000000000000000, 0.000000000000000000, 0.000000000000000000 ) ) ;
#156 = ORIENTED_EDGE ( 'NONE', *, *, #99, .T. ) ;
#157 = DIRECTION ( 'NONE',  ( 1.000000000000000000, 0.000000000000000000, 0.000000000000000000 ) ) ;
#158 = STYLED_ITEM ( 'NONE', ( #77 ), #178 ) ;
#159 = FILL_AREA_STYLE ('',( #69 ) ) ;
#160 = VECTOR ( 'NONE', #16, 1000.000000000000000 ) ;
#161 = CARTESIAN_POINT ( 'NONE',  ( 0.000000000000000000, 0.000000000000000000, 8.000000000000000000 ) ) ;
#162 = PLANE ( 'NONE',  #127 ) ;
#163 = CARTESIAN_POINT ( 'NONE',  ( 0.000000000000000000, 0.000000000000000000, 8.000000000000000000 ) ) ;
#164 = DIRECTION ( 'NONE',  ( 0.000000000000000000, 0.000000000000000000, 1.000000000000000000 ) ) ;
#165 = ADVANCED_FACE ( 'NONE', ( #263, #56 ), #29, .T. ) ;
#166 = VECTOR ( 'NONE', #46, 1000.000000000000000 ) ;
#167 = DIRECTION ( 'NONE',  ( 0.000000000000000000, 0.000000000000000000, 1.000000000000000000 ) ) ;
#168 = FILL_AREA_STYLE_COLOUR ( '', #4 ) ;
#169 =( LENGTH_UNIT ( ) NAMED_UNIT ( * ) SI_UNIT ( .MILLI., .METRE. ) );
#170 = PRODUCT ( 'COUPELLE T47', 'COUPELLE T47', '', ( #139 ) ) ;
#171 = LINE ( 'NONE', #103, #20 ) ;
#172 = VERTEX_POINT ( 'NONE', #54 ) ;
#173 = AXIS2_PLACEMENT_3D ( 'NONE', #111, #248, #181 ) ;
#174 = VERTEX_POINT ( 'NONE', #289 ) ;
#175 = CARTESIAN_POINT ( 'NONE',  ( 0.000000000000000000, 0.000000000000000000, -30.00000000000000000 ) ) ;
#176 = EDGE_LOOP ( 'NONE', ( #283, #237 ) ) ;
#177 = DIRECTION ( 'NONE',  ( 0.000000000000000000, 0.000000000000000000, 1.000000000000000000 ) ) ;
#178 = ADVANCED_BREP_SHAPE_REPRESENTATION ( 'COUPELLE T47', ( #144, #187 ), #219 ) ;
#179 = AXIS2_PLACEMENT_3D ( 'NONE', #48, #226, #94 ) ;
#180 = CARTESIAN_POINT ( 'NONE',  ( 22.95000000000000284, 0.000000000000000000, 0.000000000000000000 ) ) ;
#181 = DIRECTION ( 'NONE',  ( -1.000000000000000000, 0.000000000000000000, -0.000000000000000000 ) ) ;
#182 = DIRECTION ( 'NONE',  ( -1.000000000000000000, 0.000000000000000000, 0.000000000000000000 ) ) ;
#183 = FACE_BOUND ( 'NONE', #176, .T. ) ;
#184 = SHAPE_DEFINITION_REPRESENTATION ( #78, #178 ) ;
#185 = ORIENTED_EDGE ( 'NONE', *, *, #17, .F. ) ;
#186 = DIRECTION ( 'NONE',  ( 1.000000000000000000, 0.000000000000000000, 0.000000000000000000 ) ) ;
#187 = AXIS2_PLACEMENT_3D ( 'NONE', #30, #209, #6 ) ;
#188 = FILL_AREA_STYLE ('',( #168 ) ) ;
#189 = CIRCLE ( 'NONE', #7, 5.000000000000000000 ) ;
#190 = ORIENTED_EDGE ( 'NONE', *, *, #57, .T. ) ;
#191 = DIRECTION ( 'NONE',  ( 0.000000000000000000, 0.000000000000000000, -1.000000000000000000 ) ) ;
#192 = ORIENTED_EDGE ( 'NONE', *, *, #81, .T. ) ;
#193 = EDGE_CURVE ( 'NONE', #286, #15, #287, .T. ) ;
#194 = VECTOR ( 'NONE', #201, 1000.000000000000000 ) ;
#195 = ORIENTED_EDGE ( 'NONE', *, *, #39, .F. ) ;
#196 = ADVANCED_FACE ( 'NONE', ( #44 ), #67, .T. ) ;
#197 = VERTEX_POINT ( 'NONE', #151 ) ;
#198 = VERTEX_POINT ( 'NONE', #180 ) ;
#199 = CIRCLE ( 'NONE', #216, 25.99999999999999645 ) ;
#200 = VERTEX_POINT ( 'NONE', #61 ) ;
#201 = DIRECTION ( 'NONE',  ( -0.000000000000000000, -0.000000000000000000, -1.000000000000000000 ) ) ;
#202 = EDGE_CURVE ( 'NONE', #63, #174, #241, .T. ) ;
#203 = AXIS2_PLACEMENT_3D ( 'NONE', #175, #242, #131 ) ;
#204 = EDGE_LOOP ( 'NONE', ( #58, #66 ) ) ;
#205 = AXIS2_PLACEMENT_3D ( 'NONE', #227, #117, #1 ) ;
#206 = CARTESIAN_POINT ( 'NONE',  ( -5.000000000000000000, 6.123233995736766282E-16, 8.000000000000000000 ) ) ;
#207 = DIRECTION ( 'NONE',  ( 0.000000000000000000, 0.000000000000000000, -1.000000000000000000 ) ) ;
#208 = CARTESIAN_POINT ( 'NONE',  ( 0.000000000000000000, 0.000000000000000000, -30.00000000000000000 ) ) ;
#209 = DIRECTION ( 'NONE',  ( 0.000000000000000000, 0.000000000000000000, 1.000000000000000000 ) ) ;
#210 = DIRECTION ( 'NONE',  ( 1.000000000000000000, 0.000000000000000000, 0.000000000000000000 ) ) ;
#211 = LINE ( 'NONE', #230, #166 ) ;
#212 = DIRECTION ( 'NONE',  ( -0.000000000000000000, -0.000000000000000000, -1.000000000000000000 ) ) ;
#213 = FACE_OUTER_BOUND ( 'NONE', #222, .T. ) ;
#214 = CLOSED_SHELL ( 'NONE', ( #252, #196, #121, #260, #165, #72, #55, #109, #90 ) ) ;
#215 = PRESENTATION_LAYER_ASSIGNMENT (  '', '', ( #158 ) ) ;
#216 = AXIS2_PLACEMENT_3D ( 'NONE', #161, #24, #50 ) ;
#217 = EDGE_CURVE ( 'NONE', #198, #200, #249, .T. ) ;
#218 = ORIENTED_EDGE ( 'NONE', *, *, #193, .F. ) ;
#219 =( GEOMETRIC_REPRESENTATION_CONTEXT ( 3 ) GLOBAL_UNCERTAINTY_ASSIGNED_CONTEXT ( ( #88 ) ) GLOBAL_UNIT_ASSIGNED_CONTEXT ( ( #116, #118, #28 ) ) REPRESENTATION_CONTEXT ( 'NONE', 'WORKASPACE' ) );
#220 = ORIENTED_EDGE ( 'NONE', *, *, #247, .F. ) ;
#221 = ORIENTED_EDGE ( 'NONE', *, *, #202, .T. ) ;
#222 = EDGE_LOOP ( 'NONE', ( #13, #34 ) ) ;
#223 = EDGE_LOOP ( 'NONE', ( #35, #245, #147, #128 ) ) ;
#224 = CARTESIAN_POINT ( 'NONE',  ( 0.000000000000000000, 0.000000000000000000, -30.00000000000000000 ) ) ;
#225 = CARTESIAN_POINT ( 'NONE',  ( -22.95000000000000284, 2.810564404043175673E-15, -30.00000000000000000 ) ) ;
#226 = DIRECTION ( 'NONE',  ( 0.000000000000000000, 0.000000000000000000, 1.000000000000000000 ) ) ;
#227 = CARTESIAN_POINT ( 'NONE',  ( 0.000000000000000000, 0.000000000000000000, 8.000000000000000000 ) ) ;
#228 = EDGE_CURVE ( 'NONE', #286, #284, #108, .T. ) ;
#229 = CARTESIAN_POINT ( 'NONE',  ( -5.000000000000000000, 6.123233995736766282E-16, -30.00000000000000000 ) ) ;
#230 = CARTESIAN_POINT ( 'NONE',  ( -5.000000000000000000, 6.123233995736766282E-16, -30.00000000000000000 ) ) ;
#231 = APPLICATION_PROTOCOL_DEFINITION ( 'draft international standard', 'automotive_design', 1998, #79 ) ;
#232 = DIRECTION ( 'NONE',  ( -1.000000000000000000, 0.000000000000000000, 0.000000000000000000 ) ) ;
#233 =( NAMED_UNIT ( * ) SI_UNIT ( $, .STERADIAN. ) SOLID_ANGLE_UNIT ( ) );
#234 = PRODUCT_DEFINITION_CONTEXT ( 'detailed design', #79, 'design' ) ;
#235 = AXIS2_PLACEMENT_3D ( 'NONE', #86, #271, #40 ) ;
#236 = SURFACE_SIDE_STYLE ('',( #123 ) ) ;
#237 = ORIENTED_EDGE ( 'NONE', *, *, #244, .F. ) ;
#238 = AXIS2_PLACEMENT_3D ( 'NONE', #253, #275, #73 ) ;
#239 = ORIENTED_EDGE ( 'NONE', *, *, #145, .F. ) ;
#240 = ORIENTED_EDGE ( 'NONE', *, *, #244, .T. ) ;
#241 = LINE ( 'NONE', #36, #160 ) ;
#242 = DIRECTION ( 'NONE',  ( -0.000000000000000000, -0.000000000000000000, 1.000000000000000000 ) ) ;
#243 = AXIS2_PLACEMENT_3D ( 'NONE', #291, #97, #210 ) ;
#244 = EDGE_CURVE ( 'NONE', #200, #198, #274, .T. ) ;
#245 = ORIENTED_EDGE ( 'NONE', *, *, #228, .F. ) ;
#246 = ORIENTED_EDGE ( 'NONE', *, *, #38, .F. ) ;
#247 = EDGE_CURVE ( 'NONE', #197, #276, #129, .T. ) ;
#248 = DIRECTION ( 'NONE',  ( 0.000000000000000000, 0.000000000000000000, -1.000000000000000000 ) ) ;
#249 = CIRCLE ( 'NONE', #235, 22.95000000000000284 ) ;
#250 = FACE_OUTER_BOUND ( 'NONE', #106, .T. ) ;
#251 = APPLICATION_PROTOCOL_DEFINITION ( 'draft international standard', 'automotive_design', 1998, #62 ) ;
#252 = ADVANCED_FACE ( 'NONE', ( #84 ), #41, .F. ) ;
#253 = CARTESIAN_POINT ( 'NONE',  ( 0.000000000000000000, 0.000000000000000000, -30.00000000000000000 ) ) ;
#254 = CARTESIAN_POINT ( 'NONE',  ( 0.000000000000000000, 0.000000000000000000, 0.000000000000000000 ) ) ;
#255 = DIRECTION ( 'NONE',  ( -1.000000000000000000, 0.000000000000000000, 0.000000000000000000 ) ) ;
#256 = FACE_OUTER_BOUND ( 'NONE', #264, .T. ) ;
#257 = CIRCLE ( 'NONE', #76, 22.95000000000000284 ) ;
#258 = DIRECTION ( 'NONE',  ( 1.000000000000000000, 0.000000000000000000, -0.000000000000000000 ) ) ;
#259 = SURFACE_STYLE_USAGE ( .BOTH. , #49 ) ;
#260 = ADVANCED_FACE ( 'NONE', ( #133 ), #92, .T. ) ;
#261 =( NAMED_UNIT ( * ) PLANE_ANGLE_UNIT ( ) SI_UNIT ( $, .RADIAN. ) );
#262 =( NAMED_UNIT ( * ) SI_UNIT ( $, .STERADIAN. ) SOLID_ANGLE_UNIT ( ) );
#263 = FACE_BOUND ( 'NONE', #80, .T. ) ;
#264 = EDGE_LOOP ( 'NONE', ( #3, #37 ) ) ;
#265 = DIRECTION ( 'NONE',  ( -0.000000000000000000, -0.000000000000000000, 1.000000000000000000 ) ) ;
#266 = ORIENTED_EDGE ( 'NONE', *, *, #217, .T. ) ;
#267 = PRODUCT_DEFINITION ( 'UNKNOWN', '', #124, #234 ) ;
#268 = ORIENTED_EDGE ( 'NONE', *, *, #99, .F. ) ;
#269 = CARTESIAN_POINT ( 'NONE',  ( 0.000000000000000000, 0.000000000000000000, -30.00000000000000000 ) ) ;
#270 = ORIENTED_EDGE ( 'NONE', *, *, #154, .F. ) ;
#271 = DIRECTION ( 'NONE',  ( 0.000000000000000000, 0.000000000000000000, -1.000000000000000000 ) ) ;
#272 = CYLINDRICAL_SURFACE ( 'NONE', #33, 25.99999999999999645 ) ;
#273 = CARTESIAN_POINT ( 'NONE',  ( 0.000000000000000000, 0.000000000000000000, -30.00000000000000000 ) ) ;
#274 = CIRCLE ( 'NONE', #26, 22.95000000000000284 ) ;
#275 = DIRECTION ( 'NONE',  ( -0.000000000000000000, -0.000000000000000000, 1.000000000000000000 ) ) ;
#276 = VERTEX_POINT ( 'NONE', #142 ) ;
#277 = FACE_BOUND ( 'NONE', #204, .T. ) ;
#278 = CIRCLE ( 'NONE', #59, 5.000000000000000000 ) ;
#279 = AXIS2_PLACEMENT_3D ( 'NONE', #163, #212, #255 ) ;
#280 = CARTESIAN_POINT ( 'NONE',  ( 0.000000000000000000, 0.000000000000000000, 8.000000000000000000 ) ) ;
#281 = VECTOR ( 'NONE', #21, 1000.000000000000000 ) ;
#282 = DIRECTION ( 'NONE',  ( -0.000000000000000000, -0.000000000000000000, 1.000000000000000000 ) ) ;
#283 = ORIENTED_EDGE ( 'NONE', *, *, #217, .F. ) ;
#284 = VERTEX_POINT ( 'NONE', #229 ) ;
#285 = AXIS2_PLACEMENT_3D ( 'NONE', #224, #282, #19 ) ;
#286 = VERTEX_POINT ( 'NONE', #294 ) ;
#287 = LINE ( 'NONE', #136, #45 ) ;
#288 = EDGE_CURVE ( 'NONE', #174, #276, #93, .T. ) ;
#289 = CARTESIAN_POINT ( 'NONE',  ( -25.99999999999999645, 0.000000000000000000, 0.000000000000000000 ) ) ;
#290 = CIRCLE ( 'NONE', #179, 25.99999999999999645 ) ;
#291 = CARTESIAN_POINT ( 'NONE',  ( 0.000000000000000000, 0.000000000000000000, 8.000000000000000000 ) ) ;
#292 = CARTESIAN_POINT ( 'NONE',  ( 0.000000000000000000, 0.000000000000000000, -30.00000000000000000 ) ) ;
#293 = FACE_OUTER_BOUND ( 'NONE', #8, .T. ) ;
#294 = CARTESIAN_POINT ( 'NONE',  ( 5.000000000000000000, 0.000000000000000000, -30.00000000000000000 ) ) ;
ENDSEC;
END-ISO-10303-21;
