ISO-10303-21;
HEADER;
FILE_DESCRIPTION (( 'STEP AP214' ),
    '1' );
FILE_NAME ('leviers.STEP',
    '2022-06-03T14:52:43',
    ( '' ),
    ( '' ),
    'SwSTEP 2.0',
    'SolidWorks 2018',
    '' );
FILE_SCHEMA (( 'AUTOMOTIVE_DESIGN' ));
ENDSEC;

DATA;
#1 = CARTESIAN_POINT ( 'NONE',  ( -2.125667721683710543, 12.50000000000000178, 5.000000000000000000 ) ) ;
#2 = EDGE_LOOP ( 'NONE', ( #111, #411, #190, #308 ) ) ;
#3 = ORIENTED_EDGE ( 'NONE', *, *, #244, .F. ) ;
#4 = VECTOR ( 'NONE', #78, 1000.000000000000000 ) ;
#5 = CIRCLE ( 'NONE', #186, 4.000000000000003553 ) ;
#6 = ORIENTED_EDGE ( 'NONE', *, *, #228, .T. ) ;
#7 = CYLINDRICAL_SURFACE ( 'NONE', #25, 4.000000000000003553 ) ;
#8 = DIRECTION ( 'NONE',  ( 1.000000000000000000, 0.000000000000000000, 0.000000000000000000 ) ) ;
#9 = EDGE_CURVE ( 'NONE', #281, #299, #275, .T. ) ;
#10 = DIRECTION ( 'NONE',  ( 0.000000000000000000, 0.000000000000000000, 1.000000000000000000 ) ) ;
#11 = VERTEX_POINT ( 'NONE', #295 ) ;
#12 = CARTESIAN_POINT ( 'NONE',  ( -130.6568090387253562, 33.77505083971632871, 5.000000000000000000 ) ) ;
#13 = ORIENTED_EDGE ( 'NONE', *, *, #59, .F. ) ;
#14 = ADVANCED_FACE ( 'NONE', ( #365 ), #357, .F. ) ;
#15 = PLANE ( 'NONE',  #325 ) ;
#16 = FACE_BOUND ( 'NONE', #241, .T. ) ;
#17 = CARTESIAN_POINT ( 'NONE',  ( -135.7784834550135997, 48.94141003279687396, 0.000000000000000000 ) ) ;
#18 = DIRECTION ( 'NONE',  ( 0.000000000000000000, 0.000000000000000000, 1.000000000000000000 ) ) ;
#19 = DIRECTION ( 'NONE',  ( 0.9396926207859079838, -0.3420201433256698231, 0.000000000000000000 ) ) ;
#20 = LINE ( 'NONE', #314, #181 ) ;
#21 = ADVANCED_FACE ( 'NONE', ( #99, #192, #16 ), #392, .T. ) ;
#22 = EDGE_LOOP ( 'NONE', ( #271, #360, #243, #36 ) ) ;
#23 = EDGE_CURVE ( 'NONE', #384, #26, #44, .T. ) ;
#24 = CIRCLE ( 'NONE', #198, 8.000000000000007105 ) ;
#25 = AXIS2_PLACEMENT_3D ( 'NONE', #147, #193, #54 ) ;
#26 = VERTEX_POINT ( 'NONE', #363 ) ;
#27 = ORIENTED_EDGE ( 'NONE', *, *, #228, .F. ) ;
#28 = CARTESIAN_POINT ( 'NONE',  ( -72.12566772168371187, 12.50000000000000178, 0.000000000000000000 ) ) ;
#29 = ORIENTED_EDGE ( 'NONE', *, *, #305, .F. ) ;
#30 = DIRECTION ( 'NONE',  ( -0.3420201433256698231, -0.9396926207859079838, -0.000000000000000000 ) ) ;
#31 = CARTESIAN_POINT ( 'NONE',  ( -130.6568090387253562, 33.77505083971632871, 0.000000000000000000 ) ) ;
#32 = VECTOR ( 'NONE', #38, 1000.000000000000000 ) ;
#33 = ORIENTED_EDGE ( 'NONE', *, *, #178, .F. ) ;
#34 = AXIS2_PLACEMENT_3D ( 'NONE', #31, #148, #62 ) ;
#35 = ORIENTED_EDGE ( 'NONE', *, *, #231, .F. ) ;
#36 = ORIENTED_EDGE ( 'NONE', *, *, #294, .T. ) ;
#37 = ORIENTED_EDGE ( 'NONE', *, *, #188, .F. ) ;
#38 = DIRECTION ( 'NONE',  ( -0.000000000000000000, -0.000000000000000000, -1.000000000000000000 ) ) ;
#39 = AXIS2_PLACEMENT_3D ( 'NONE', #121, #87, #143 ) ;
#40 = ORIENTED_EDGE ( 'NONE', *, *, #9, .T. ) ;
#41 = VERTEX_POINT ( 'NONE', #166 ) ;
#42 = APPLICATION_PROTOCOL_DEFINITION ( 'draft international standard', 'automotive_design', 1998, #388 ) ;
#43 = DIRECTION ( 'NONE',  ( 1.000000000000000000, 1.303561933071576784E-16, -0.000000000000000000 ) ) ;
#44 = LINE ( 'NONE', #332, #141 ) ;
#45 = ADVANCED_FACE ( 'NONE', ( #260 ), #318, .T. ) ;
#46 = CARTESIAN_POINT ( 'NONE',  ( -135.7784834550135997, 48.94141003279687396, 5.000000000000000000 ) ) ;
#47 = CARTESIAN_POINT ( 'NONE',  ( -74.40817451771154367, -9.414323711924554395E-15, 5.000000000000000000 ) ) ;
#48 = CARTESIAN_POINT ( 'NONE',  ( -80.12566772168372609, 12.50000000000000178, 5.000000000000000000 ) ) ;
#49 = DIRECTION ( 'NONE',  ( -0.000000000000000000, -0.000000000000000000, -1.000000000000000000 ) ) ;
#50 = CARTESIAN_POINT ( 'NONE',  ( -70.00000000000000000, 25.00000000000000000, 0.000000000000000000 ) ) ;
#51 = VECTOR ( 'NONE', #30, 1000.000000000000114 ) ;
#52 = EDGE_CURVE ( 'NONE', #385, #174, #238, .T. ) ;
#53 = VERTEX_POINT ( 'NONE', #137 ) ;
#54 = DIRECTION ( 'NONE',  ( -1.000000000000000000, 0.000000000000000000, 0.000000000000000000 ) ) ;
#55 = SURFACE_STYLE_USAGE ( .BOTH. , #226 ) ;
#56 = CARTESIAN_POINT ( 'NONE',  ( -134.6568090387253847, 33.77505083971632871, 5.000000000000000000 ) ) ;
#57 = ORIENTED_EDGE ( 'NONE', *, *, #182, .F. ) ;
#58 = LINE ( 'NONE', #72, #307 ) ;
#59 = EDGE_CURVE ( 'NONE', #26, #136, #356, .T. ) ;
#60 = STYLED_ITEM ( 'NONE', ( #391 ), #249 ) ;
#61 = EDGE_LOOP ( 'NONE', ( #283, #109, #319, #124 ) ) ;
#62 = DIRECTION ( 'NONE',  ( 1.000000000000000000, 0.000000000000000000, 0.000000000000000000 ) ) ;
#63 = EDGE_LOOP ( 'NONE', ( #115, #120, #158, #343 ) ) ;
#64 = ORIENTED_EDGE ( 'NONE', *, *, #23, .F. ) ;
#65 = LINE ( 'NONE', #261, #246 ) ;
#66 =( NAMED_UNIT ( * ) PLANE_ANGLE_UNIT ( ) SI_UNIT ( $, .RADIAN. ) );
#67 = MECHANICAL_DESIGN_GEOMETRIC_PRESENTATION_REPRESENTATION (  '', ( #60 ), #80 ) ;
#68 = CARTESIAN_POINT ( 'NONE',  ( -2.125667721683710543, 12.50000000000000178, 5.000000000000000000 ) ) ;
#69 = ADVANCED_FACE ( 'NONE', ( #264 ), #336, .F. ) ;
#70 = VERTEX_POINT ( 'NONE', #173 ) ;
#71 = LINE ( 'NONE', #285, #252 ) ;
#72 = CARTESIAN_POINT ( 'NONE',  ( -126.6568090387253704, 33.77505083971632871, 5.000000000000000000 ) ) ;
#73 = FILL_AREA_STYLE_COLOUR ( '', #100 ) ;
#74 = DIRECTION ( 'NONE',  ( 0.9396926207859082059, -0.3420201433256692680, -0.000000000000000000 ) ) ;
#75 = CARTESIAN_POINT ( 'NONE',  ( -4.251335443367395328, -2.689452357301942880E-16, 5.000000000000000000 ) ) ;
#76 = DIRECTION ( 'NONE',  ( -0.000000000000000000, -0.000000000000000000, -1.000000000000000000 ) ) ;
#77 = EDGE_LOOP ( 'NONE', ( #209, #403, #210, #288 ) ) ;
#78 = DIRECTION ( 'NONE',  ( -0.000000000000000000, -0.000000000000000000, -1.000000000000000000 ) ) ;
#79 = LINE ( 'NONE', #250, #215 ) ;
#80 =( GEOMETRIC_REPRESENTATION_CONTEXT ( 3 ) GLOBAL_UNCERTAINTY_ASSIGNED_CONTEXT ( ( #259 ) ) GLOBAL_UNIT_ASSIGNED_CONTEXT ( ( #302, #330, #240 ) ) REPRESENTATION_CONTEXT ( 'NONE', 'WORKASPACE' ) );
#81 = CIRCLE ( 'NONE', #34, 4.000000000000003553 ) ;
#82 = DIRECTION ( 'NONE',  ( -1.000000000000000000, -0.000000000000000000, -0.000000000000000000 ) ) ;
#83 = ADVANCED_FACE ( 'NONE', ( #387 ), #139, .F. ) ;
#84 = EDGE_CURVE ( 'NONE', #53, #413, #315, .T. ) ;
#85 = STYLED_ITEM ( 'NONE', ( #232 ), #195 ) ;
#86 = PLANE ( 'NONE',  #223 ) ;
#87 = DIRECTION ( 'NONE',  ( 0.000000000000000000, 0.000000000000000000, 1.000000000000000000 ) ) ;
#88 = ORIENTED_EDGE ( 'NONE', *, *, #84, .T. ) ;
#89 = ORIENTED_EDGE ( 'NONE', *, *, #377, .F. ) ;
#90 = DIRECTION ( 'NONE',  ( 1.000000000000000000, 0.000000000000000000, 0.000000000000000000 ) ) ;
#91 = EDGE_CURVE ( 'NONE', #184, #136, #229, .T. ) ;
#92 = DIRECTION ( 'NONE',  ( 0.9396926207859082059, -0.3420201433256692680, -0.000000000000000000 ) ) ;
#93 = VECTOR ( 'NONE', #301, 1000.000000000000114 ) ;
#94 = VECTOR ( 'NONE', #82, 1000.000000000000000 ) ;
#95 = VERTEX_POINT ( 'NONE', #116 ) ;
#96 = FACE_OUTER_BOUND ( 'NONE', #2, .T. ) ;
#97 = FACE_OUTER_BOUND ( 'NONE', #119, .T. ) ;
#98 = ORIENTED_EDGE ( 'NONE', *, *, #91, .F. ) ;
#99 = FACE_BOUND ( 'NONE', #101, .T. ) ;
#100 = COLOUR_RGB ( '',0.7921568627450980005, 0.8196078431372548767, 0.9333333333333333481 ) ;
#101 = EDGE_LOOP ( 'NONE', ( #57, #331 ) ) ;
#102 = FACE_OUTER_BOUND ( 'NONE', #77, .T. ) ;
#103 = EDGE_CURVE ( 'NONE', #284, #385, #58, .T. ) ;
#104 = DIRECTION ( 'NONE',  ( 0.000000000000000000, 0.000000000000000000, 1.000000000000000000 ) ) ;
#105 = FACE_OUTER_BOUND ( 'NONE', #296, .T. ) ;
#106 = DIRECTION ( 'NONE',  ( 1.000000000000000000, 0.000000000000000000, 0.000000000000000000 ) ) ;
#107 = AXIS2_PLACEMENT_3D ( 'NONE', #175, #359, #8 ) ;
#108 = EDGE_LOOP ( 'NONE', ( #214, #401, #352, #6, #362, #40 ) ) ;
#109 = ORIENTED_EDGE ( 'NONE', *, *, #231, .T. ) ;
#110 = DIRECTION ( 'NONE',  ( -0.000000000000000000, -0.000000000000000000, -1.000000000000000000 ) ) ;
#111 = ORIENTED_EDGE ( 'NONE', *, *, #103, .F. ) ;
#112 = DIRECTION ( 'NONE',  ( -0.000000000000000000, -0.000000000000000000, -1.000000000000000000 ) ) ;
#113 = SURFACE_STYLE_FILL_AREA ( #414 ) ;
#114 = CARTESIAN_POINT ( 'NONE',  ( -135.7784834550135997, 48.94141003279687396, 5.000000000000000000 ) ) ;
#115 = ORIENTED_EDGE ( 'NONE', *, *, #287, .T. ) ;
#116 = CARTESIAN_POINT ( 'NONE',  ( -80.12566772168372609, 12.50000000000000178, 5.000000000000000000 ) ) ;
#117 =( GEOMETRIC_REPRESENTATION_CONTEXT ( 3 ) GLOBAL_UNCERTAINTY_ASSIGNED_CONTEXT ( ( #379 ) ) GLOBAL_UNIT_ASSIGNED_CONTEXT ( ( #395, #66, #213 ) ) REPRESENTATION_CONTEXT ( 'NONE', 'WORKASPACE' ) );
#118 = EDGE_CURVE ( 'NONE', #342, #375, #337, .T. ) ;
#119 = EDGE_LOOP ( 'NONE', ( #88, #346, #269, #154 ) ) ;
#120 = ORIENTED_EDGE ( 'NONE', *, *, #294, .F. ) ;
#121 = CARTESIAN_POINT ( 'NONE',  ( -2.125667721683710543, 12.50000000000000178, 0.000000000000000000 ) ) ;
#122 = ORIENTED_EDGE ( 'NONE', *, *, #386, .F. ) ;
#123 = EDGE_CURVE ( 'NONE', #284, #41, #382, .T. ) ;
#124 = ORIENTED_EDGE ( 'NONE', *, *, #118, .F. ) ;
#125 = CYLINDRICAL_SURFACE ( 'NONE', #381, 8.000000000000007105 ) ;
#126 = EDGE_CURVE ( 'NONE', #299, #70, #140, .T. ) ;
#127 = LINE ( 'NONE', #378, #51 ) ;
#128 = CARTESIAN_POINT ( 'NONE',  ( -4.251335443367395328, -2.689452357301942880E-16, 5.000000000000000000 ) ) ;
#129 = CARTESIAN_POINT ( 'NONE',  ( -144.3289870381553328, 25.44909451314917703, 0.000000000000000000 ) ) ;
#130 = ORIENTED_EDGE ( 'NONE', *, *, #386, .T. ) ;
#131 = EDGE_LOOP ( 'NONE', ( #351, #98, #27, #233 ) ) ;
#132 = CARTESIAN_POINT ( 'NONE',  ( -64.12566772168371187, 12.50000000000000355, 0.000000000000000000 ) ) ;
#133 = DIRECTION ( 'NONE',  ( -0.000000000000000000, -0.000000000000000000, -1.000000000000000000 ) ) ;
#134 = CARTESIAN_POINT ( 'NONE',  ( -144.3289870381553328, 25.44909451314917703, 5.000000000000000000 ) ) ;
#135 = CARTESIAN_POINT ( 'NONE',  ( -135.7784834550135997, 48.94141003279687396, 5.000000000000000000 ) ) ;
#136 = VERTEX_POINT ( 'NONE', #129 ) ;
#137 = CARTESIAN_POINT ( 'NONE',  ( -6.123233995736768255E-16, 25.00000000000000000, 0.000000000000000000 ) ) ;
#138 = MECHANICAL_DESIGN_GEOMETRIC_PRESENTATION_REPRESENTATION (  '', ( #85 ), #161 ) ;
#139 = PLANE ( 'NONE',  #329 ) ;
#140 = CIRCLE ( 'NONE', #152, 12.67945043221542889 ) ;
#141 = VECTOR ( 'NONE', #390, 1000.000000000000000 ) ;
#142 = DIRECTION ( 'NONE',  ( 1.000000000000000000, 8.701762263245910491E-17, 0.000000000000000000 ) ) ;
#143 = DIRECTION ( 'NONE',  ( 1.000000000000000000, 0.000000000000000000, 0.000000000000000000 ) ) ;
#144 = LINE ( 'NONE', #17, #282 ) ;
#145 = PRODUCT_DEFINITION ( 'UNKNOWN', '', #292, #405 ) ;
#146 = CARTESIAN_POINT ( 'NONE',  ( -1.170938346284344789E-14, 1.009958675647468375E-16, 5.000000000000000000 ) ) ;
#147 = CARTESIAN_POINT ( 'NONE',  ( -130.6568090387253562, 33.77505083971632871, 5.000000000000000000 ) ) ;
#148 = DIRECTION ( 'NONE',  ( 0.000000000000000000, 0.000000000000000000, 1.000000000000000000 ) ) ;
#149 = AXIS2_PLACEMENT_3D ( 'NONE', #208, #168, #335 ) ;
#150 = ORIENTED_EDGE ( 'NONE', *, *, #52, .T. ) ;
#151 = CARTESIAN_POINT ( 'NONE',  ( -64.12566772168371187, 12.50000000000000355, 5.000000000000000000 ) ) ;
#152 = AXIS2_PLACEMENT_3D ( 'NONE', #1, #274, #258 ) ;
#153 = COLOUR_RGB ( '',0.7921568627450980005, 0.8196078431372548767, 0.9333333333333333481 ) ;
#154 = ORIENTED_EDGE ( 'NONE', *, *, #155, .T. ) ;
#155 = EDGE_CURVE ( 'NONE', #70, #53, #65, .T. ) ;
#156 = DIRECTION ( 'NONE',  ( -0.9396926207859082059, 0.3420201433256693235, 0.000000000000000000 ) ) ;
#157 = CLOSED_SHELL ( 'NONE', ( #370, #266, #21, #326, #45, #398, #83, #69, #172, #14, #304, #406 ) ) ;
#158 = ORIENTED_EDGE ( 'NONE', *, *, #9, .F. ) ;
#159 = PRODUCT_DEFINITION_SHAPE ( 'NONE', 'NONE',  #145 ) ;
#160 = CYLINDRICAL_SURFACE ( 'NONE', #254, 4.000000000000003553 ) ;
#161 =( GEOMETRIC_REPRESENTATION_CONTEXT ( 3 ) GLOBAL_UNCERTAINTY_ASSIGNED_CONTEXT ( ( #394 ) ) GLOBAL_UNIT_ASSIGNED_CONTEXT ( ( #234, #323, #237 ) ) REPRESENTATION_CONTEXT ( 'NONE', 'WORKASPACE' ) );
#162 = LINE ( 'NONE', #183, #32 ) ;
#163 = VECTOR ( 'NONE', #142, 1000.000000000000000 ) ;
#164 = SURFACE_SIDE_STYLE ('',( #165 ) ) ;
#165 = SURFACE_STYLE_FILL_AREA ( #207 ) ;
#166 = CARTESIAN_POINT ( 'NONE',  ( -134.6568090387253847, 33.77505083971632871, 5.000000000000000000 ) ) ;
#167 = DIRECTION ( 'NONE',  ( 0.3420201433256693235, 0.9396926207859082059, -0.000000000000000000 ) ) ;
#168 = DIRECTION ( 'NONE',  ( -0.000000000000000000, -0.000000000000000000, -1.000000000000000000 ) ) ;
#169 = DIRECTION ( 'NONE',  ( -0.000000000000000000, -0.000000000000000000, -1.000000000000000000 ) ) ;
#170 = CARTESIAN_POINT ( 'NONE',  ( -70.00000000000000000, 25.00000000000000000, 5.000000000000000000 ) ) ;
#171 = DIRECTION ( 'NONE',  ( -1.000000000000000000, 0.000000000000000000, 0.000000000000000000 ) ) ;
#172 = ADVANCED_FACE ( 'NONE', ( #235 ), #15, .F. ) ;
#173 = CARTESIAN_POINT ( 'NONE',  ( -6.123233995736768255E-16, 25.00000000000000000, 5.000000000000000000 ) ) ;
#174 = VERTEX_POINT ( 'NONE', #291 ) ;
#175 = CARTESIAN_POINT ( 'NONE',  ( 0.000000000000000000, 0.000000000000000000, 0.000000000000000000 ) ) ;
#176 = DIRECTION ( 'NONE',  ( -0.000000000000000000, -0.000000000000000000, -1.000000000000000000 ) ) ;
#177 = CARTESIAN_POINT ( 'NONE',  ( -130.6568090387253562, 33.77505083971632871, 5.000000000000000000 ) ) ;
#178 = EDGE_CURVE ( 'NONE', #95, #11, #197, .T. ) ;
#179 = DIRECTION ( 'NONE',  ( 0.000000000000000000, 0.000000000000000000, 1.000000000000000000 ) ) ;
#180 = DIRECTION ( 'NONE',  ( 0.000000000000000000, 0.000000000000000000, 1.000000000000000000 ) ) ;
#181 = VECTOR ( 'NONE', #92, 1000.000000000000114 ) ;
#182 = EDGE_CURVE ( 'NONE', #41, #284, #5, .T. ) ;
#183 = CARTESIAN_POINT ( 'NONE',  ( -74.40817451771154367, -9.414323711924554395E-15, 5.000000000000000000 ) ) ;
#184 = VERTEX_POINT ( 'NONE', #134 ) ;
#185 = LINE ( 'NONE', #187, #338 ) ;
#186 = AXIS2_PLACEMENT_3D ( 'NONE', #177, #104, #389 ) ;
#187 = CARTESIAN_POINT ( 'NONE',  ( -1.170938346284344789E-14, 1.009958675647468375E-16, 5.000000000000000000 ) ) ;
#188 = EDGE_CURVE ( 'NONE', #221, #53, #349, .T. ) ;
#189 = EDGE_LOOP ( 'NONE', ( #409, #224, #3, #320 ) ) ;
#190 = ORIENTED_EDGE ( 'NONE', *, *, #200, .T. ) ;
#191 = PRODUCT ( 'leviers', 'leviers', '', ( #324 ) ) ;
#192 = FACE_OUTER_BOUND ( 'NONE', #108, .T. ) ;
#193 = DIRECTION ( 'NONE',  ( -0.000000000000000000, -0.000000000000000000, -1.000000000000000000 ) ) ;
#194 = LINE ( 'NONE', #46, #93 ) ;
#195 = ADVANCED_BREP_SHAPE_REPRESENTATION ( 'leviers', ( #249, #107 ), #117 ) ;
#196 = CARTESIAN_POINT ( 'NONE',  ( -72.12566772168371187, 12.50000000000000178, 5.000000000000000000 ) ) ;
#197 = CIRCLE ( 'NONE', #350, 8.000000000000007105 ) ;
#198 = AXIS2_PLACEMENT_3D ( 'NONE', #28, #396, #90 ) ;
#199 = ORIENTED_EDGE ( 'NONE', *, *, #316, .F. ) ;
#200 = EDGE_CURVE ( 'NONE', #41, #174, #219, .T. ) ;
#201 = ORIENTED_EDGE ( 'NONE', *, *, #236, .T. ) ;
#202 = ORIENTED_EDGE ( 'NONE', *, *, #211, .T. ) ;
#203 = ORIENTED_EDGE ( 'NONE', *, *, #84, .F. ) ;
#204 = AXIS2_PLACEMENT_3D ( 'NONE', #364, #297, #106 ) ;
#205 = VECTOR ( 'NONE', #380, 1000.000000000000000 ) ;
#206 = PRESENTATION_LAYER_ASSIGNMENT (  '', '', ( #85 ) ) ;
#207 = FILL_AREA_STYLE ('',( #73 ) ) ;
#208 = CARTESIAN_POINT ( 'NONE',  ( -2.125667721683710543, 12.50000000000000178, 5.000000000000000000 ) ) ;
#209 = ORIENTED_EDGE ( 'NONE', *, *, #182, .T. ) ;
#210 = ORIENTED_EDGE ( 'NONE', *, *, #211, .F. ) ;
#211 = EDGE_CURVE ( 'NONE', #174, #385, #81, .T. ) ;
#212 = CARTESIAN_POINT ( 'NONE',  ( -144.3289870381553328, 25.44909451314917703, 0.000000000000000000 ) ) ;
#213 =( NAMED_UNIT ( * ) SI_UNIT ( $, .STERADIAN. ) SOLID_ANGLE_UNIT ( ) );
#214 = ORIENTED_EDGE ( 'NONE', *, *, #126, .T. ) ;
#215 = VECTOR ( 'NONE', #112, 1000.000000000000000 ) ;
#216 = DIRECTION ( 'NONE',  ( -8.701762263245910491E-17, 1.000000000000000000, 0.000000000000000000 ) ) ;
#217 = DIRECTION ( 'NONE',  ( 0.000000000000000000, -1.000000000000000000, 0.000000000000000000 ) ) ;
#218 = CARTESIAN_POINT ( 'NONE',  ( -144.3289870381553328, 25.44909451314917703, 5.000000000000000000 ) ) ;
#219 = LINE ( 'NONE', #56, #253 ) ;
#220 = EDGE_CURVE ( 'NONE', #281, #371, #162, .T. ) ;
#221 = VERTEX_POINT ( 'NONE', #279 ) ;
#222 = DIRECTION ( 'NONE',  ( 1.000000000000000000, 0.000000000000000000, -0.000000000000000000 ) ) ;
#223 = AXIS2_PLACEMENT_3D ( 'NONE', #404, #179, #222 ) ;
#224 = ORIENTED_EDGE ( 'NONE', *, *, #220, .F. ) ;
#225 = CARTESIAN_POINT ( 'NONE',  ( -70.00000000000000000, 25.00000000000000000, 5.000000000000000000 ) ) ;
#226 = SURFACE_SIDE_STYLE ('',( #113 ) ) ;
#227 = DIRECTION ( 'NONE',  ( 0.000000000000000000, 0.000000000000000000, 1.000000000000000000 ) ) ;
#228 = EDGE_CURVE ( 'NONE', #384, #184, #127, .T. ) ;
#229 = LINE ( 'NONE', #372, #293 ) ;
#230 = ORIENTED_EDGE ( 'NONE', *, *, #305, .T. ) ;
#231 = EDGE_CURVE ( 'NONE', #11, #95, #278, .T. ) ;
#232 = PRESENTATION_STYLE_ASSIGNMENT (( #267 ) ) ;
#233 = ORIENTED_EDGE ( 'NONE', *, *, #23, .T. ) ;
#234 =( LENGTH_UNIT ( ) NAMED_UNIT ( * ) SI_UNIT ( .MILLI., .METRE. ) );
#235 = FACE_OUTER_BOUND ( 'NONE', #189, .T. ) ;
#236 = EDGE_CURVE ( 'NONE', #11, #342, #417, .T. ) ;
#237 =( NAMED_UNIT ( * ) SI_UNIT ( $, .STERADIAN. ) SOLID_ANGLE_UNIT ( ) );
#238 = CIRCLE ( 'NONE', #270, 4.000000000000003553 ) ;
#239 = CARTESIAN_POINT ( 'NONE',  ( -72.12566772168371187, 12.50000000000000178, 0.000000000000000000 ) ) ;
#240 =( NAMED_UNIT ( * ) SI_UNIT ( $, .STERADIAN. ) SOLID_ANGLE_UNIT ( ) );
#241 = EDGE_LOOP ( 'NONE', ( #33, #35 ) ) ;
#242 = DIRECTION ( 'NONE',  ( 0.000000000000000000, -0.000000000000000000, -1.000000000000000000 ) ) ;
#243 = ORIENTED_EDGE ( 'NONE', *, *, #126, .F. ) ;
#244 = EDGE_CURVE ( 'NONE', #184, #281, #20, .T. ) ;
#245 = DIRECTION ( 'NONE',  ( 0.9396926207859082059, -0.3420201433256695456, 0.000000000000000000 ) ) ;
#246 = VECTOR ( 'NONE', #76, 1000.000000000000000 ) ;
#247 = PLANE ( 'NONE',  #344 ) ;
#248 = AXIS2_PLACEMENT_3D ( 'NONE', #68, #180, #402 ) ;
#249 = MANIFOLD_SOLID_BREP ( 'Boss.-Extru.1', #157 ) ;
#250 = CARTESIAN_POINT ( 'NONE',  ( -70.00000000000000000, 25.00000000000000000, 5.000000000000000000 ) ) ;
#251 = EDGE_LOOP ( 'NONE', ( #317, #201, #122, #373 ) ) ;
#252 = VECTOR ( 'NONE', #74, 1000.000000000000114 ) ;
#253 = VECTOR ( 'NONE', #310, 1000.000000000000000 ) ;
#254 = AXIS2_PLACEMENT_3D ( 'NONE', #12, #133, #340 ) ;
#255 = LINE ( 'NONE', #300, #163 ) ;
#256 = FACE_OUTER_BOUND ( 'NONE', #251, .T. ) ;
#257 = ORIENTED_EDGE ( 'NONE', *, *, #118, .T. ) ;
#258 = DIRECTION ( 'NONE',  ( 1.000000000000000000, 0.000000000000000000, 0.000000000000000000 ) ) ;
#259 = UNCERTAINTY_MEASURE_WITH_UNIT (LENGTH_MEASURE( 1.000000000000000082E-05 ), #302, 'distance_accuracy_value', 'NONE');
#260 = FACE_OUTER_BOUND ( 'NONE', #22, .T. ) ;
#261 = CARTESIAN_POINT ( 'NONE',  ( -6.123233995736768255E-16, 25.00000000000000000, 5.000000000000000000 ) ) ;
#262 = PRESENTATION_LAYER_ASSIGNMENT (  '', '', ( #60 ) ) ;
#263 = CYLINDRICAL_SURFACE ( 'NONE', #321, 8.000000000000007105 ) ;
#264 = FACE_OUTER_BOUND ( 'NONE', #131, .T. ) ;
#265 = EDGE_LOOP ( 'NONE', ( #230, #64, #89, #313 ) ) ;
#266 = ADVANCED_FACE ( 'NONE', ( #102 ), #7, .F. ) ;
#267 = SURFACE_STYLE_USAGE ( .BOTH. , #164 ) ;
#268 = APPLICATION_CONTEXT ( 'automotive_design' ) ;
#269 = ORIENTED_EDGE ( 'NONE', *, *, #418, .F. ) ;
#270 = AXIS2_PLACEMENT_3D ( 'NONE', #368, #10, #273 ) ;
#271 = ORIENTED_EDGE ( 'NONE', *, *, #188, .T. ) ;
#272 = DIRECTION ( 'NONE',  ( -1.000000000000000000, -0.000000000000000000, -0.000000000000000000 ) ) ;
#273 = DIRECTION ( 'NONE',  ( 1.000000000000000000, 0.000000000000000000, 0.000000000000000000 ) ) ;
#274 = DIRECTION ( 'NONE',  ( 0.000000000000000000, 0.000000000000000000, 1.000000000000000000 ) ) ;
#275 = LINE ( 'NONE', #75, #289 ) ;
#276 = FACE_BOUND ( 'NONE', #374, .T. ) ;
#277 = CARTESIAN_POINT ( 'NONE',  ( -80.12566772168372609, 12.50000000000000178, 0.000000000000000000 ) ) ;
#278 = CIRCLE ( 'NONE', #280, 8.000000000000007105 ) ;
#279 = CARTESIAN_POINT ( 'NONE',  ( -1.170938346284344789E-14, 1.009958675647468375E-16, 0.000000000000000000 ) ) ;
#280 = AXIS2_PLACEMENT_3D ( 'NONE', #196, #227, #415 ) ;
#281 = VERTEX_POINT ( 'NONE', #341 ) ;
#282 = VECTOR ( 'NONE', #376, 1000.000000000000114 ) ;
#283 = ORIENTED_EDGE ( 'NONE', *, *, #236, .F. ) ;
#284 = VERTEX_POINT ( 'NONE', #410 ) ;
#285 = CARTESIAN_POINT ( 'NONE',  ( -74.40817451771154367, -9.414323711924554395E-15, 0.000000000000000000 ) ) ;
#286 = CARTESIAN_POINT ( 'NONE',  ( -74.40817451771154367, -9.414323711924554395E-15, 0.000000000000000000 ) ) ;
#287 = EDGE_CURVE ( 'NONE', #371, #221, #255, .T. ) ;
#288 = ORIENTED_EDGE ( 'NONE', *, *, #200, .F. ) ;
#289 = VECTOR ( 'NONE', #43, 1000.000000000000000 ) ;
#290 = VECTOR ( 'NONE', #272, 1000.000000000000000 ) ;
#291 = CARTESIAN_POINT ( 'NONE',  ( -134.6568090387253847, 33.77505083971632871, 0.000000000000000000 ) ) ;
#292 = PRODUCT_DEFINITION_FORMATION_WITH_SPECIFIED_SOURCE ( 'ANY', '', #191, .NOT_KNOWN. ) ;
#293 = VECTOR ( 'NONE', #49, 1000.000000000000000 ) ;
#294 = EDGE_CURVE ( 'NONE', #299, #221, #185, .T. ) ;
#295 = CARTESIAN_POINT ( 'NONE',  ( -64.12566772168371187, 12.50000000000000355, 5.000000000000000000 ) ) ;
#296 = EDGE_LOOP ( 'NONE', ( #37, #412, #199, #13, #29, #203 ) ) ;
#297 = DIRECTION ( 'NONE',  ( 0.000000000000000000, 0.000000000000000000, 1.000000000000000000 ) ) ;
#298 = APPLICATION_PROTOCOL_DEFINITION ( 'draft international standard', 'automotive_design', 1998, #268 ) ;
#299 = VERTEX_POINT ( 'NONE', #146 ) ;
#300 = CARTESIAN_POINT ( 'NONE',  ( -4.251335443367395328, -2.689452357301942880E-16, 0.000000000000000000 ) ) ;
#301 = DIRECTION ( 'NONE',  ( -0.9396926207859080948, 0.3420201433256694901, -0.000000000000000000 ) ) ;
#302 =( LENGTH_UNIT ( ) NAMED_UNIT ( * ) SI_UNIT ( .MILLI., .METRE. ) );
#303 = DIRECTION ( 'NONE',  ( 0.3420201433256698231, 0.9396926207859079838, 0.000000000000000000 ) ) ;
#304 = ADVANCED_FACE ( 'NONE', ( #96 ), #160, .F. ) ;
#305 = EDGE_CURVE ( 'NONE', #413, #26, #144, .T. ) ;
#306 = DIRECTION ( 'NONE',  ( -0.3420201433256695456, -0.9396926207859082059, 0.000000000000000000 ) ) ;
#307 = VECTOR ( 'NONE', #169, 1000.000000000000000 ) ;
#308 = ORIENTED_EDGE ( 'NONE', *, *, #52, .F. ) ;
#309 = CARTESIAN_POINT ( 'NONE',  ( -126.6568090387253704, 33.77505083971632871, 0.000000000000000000 ) ) ;
#310 = DIRECTION ( 'NONE',  ( -0.000000000000000000, -0.000000000000000000, -1.000000000000000000 ) ) ;
#311 = AXIS2_PLACEMENT_3D ( 'NONE', #218, #19, #303 ) ;
#312 = CARTESIAN_POINT ( 'NONE',  ( -72.12566772168371187, 12.50000000000000178, 5.000000000000000000 ) ) ;
#313 = ORIENTED_EDGE ( 'NONE', *, *, #397, .T. ) ;
#314 = CARTESIAN_POINT ( 'NONE',  ( -74.40817451771154367, -9.414323711924554395E-15, 5.000000000000000000 ) ) ;
#315 = LINE ( 'NONE', #50, #94 ) ;
#316 = EDGE_CURVE ( 'NONE', #136, #371, #71, .T. ) ;
#317 = ORIENTED_EDGE ( 'NONE', *, *, #178, .T. ) ;
#318 = CYLINDRICAL_SURFACE ( 'NONE', #149, 12.67945043221542889 ) ;
#319 = ORIENTED_EDGE ( 'NONE', *, *, #339, .T. ) ;
#320 = ORIENTED_EDGE ( 'NONE', *, *, #91, .T. ) ;
#321 = AXIS2_PLACEMENT_3D ( 'NONE', #312, #328, #399 ) ;
#322 = LINE ( 'NONE', #170, #290 ) ;
#323 =( NAMED_UNIT ( * ) PLANE_ANGLE_UNIT ( ) SI_UNIT ( $, .RADIAN. ) );
#324 = PRODUCT_CONTEXT ( 'NONE', #388, 'mechanical' ) ;
#325 = AXIS2_PLACEMENT_3D ( 'NONE', #47, #167, #156 ) ;
#326 = ADVANCED_FACE ( 'NONE', ( #105, #355, #276 ), #86, .F. ) ;
#327 = LINE ( 'NONE', #48, #4 ) ;
#328 = DIRECTION ( 'NONE',  ( -0.000000000000000000, -0.000000000000000000, -1.000000000000000000 ) ) ;
#329 = AXIS2_PLACEMENT_3D ( 'NONE', #114, #306, #245 ) ;
#330 =( NAMED_UNIT ( * ) PLANE_ANGLE_UNIT ( ) SI_UNIT ( $, .RADIAN. ) );
#331 = ORIENTED_EDGE ( 'NONE', *, *, #123, .F. ) ;
#332 = CARTESIAN_POINT ( 'NONE',  ( -135.7784834550135997, 48.94141003279687396, 5.000000000000000000 ) ) ;
#333 = CARTESIAN_POINT ( 'NONE',  ( -70.00000000000000000, 25.00000000000000000, 5.000000000000000000 ) ) ;
#334 = CARTESIAN_POINT ( 'NONE',  ( -72.12566772168371187, 12.50000000000000178, 5.000000000000000000 ) ) ;
#335 = DIRECTION ( 'NONE',  ( -1.000000000000000000, 0.000000000000000000, 0.000000000000000000 ) ) ;
#336 = PLANE ( 'NONE',  #311 ) ;
#337 = CIRCLE ( 'NONE', #353, 8.000000000000007105 ) ;
#338 = VECTOR ( 'NONE', #110, 1000.000000000000000 ) ;
#339 = EDGE_CURVE ( 'NONE', #95, #375, #327, .T. ) ;
#340 = DIRECTION ( 'NONE',  ( -1.000000000000000000, 0.000000000000000000, 0.000000000000000000 ) ) ;
#341 = CARTESIAN_POINT ( 'NONE',  ( -74.40817451771154367, -9.414323711924554395E-15, 5.000000000000000000 ) ) ;
#342 = VERTEX_POINT ( 'NONE', #132 ) ;
#343 = ORIENTED_EDGE ( 'NONE', *, *, #220, .T. ) ;
#344 = AXIS2_PLACEMENT_3D ( 'NONE', #225, #217, #242 ) ;
#345 = FILL_AREA_STYLE_COLOUR ( '', #153 ) ;
#346 = ORIENTED_EDGE ( 'NONE', *, *, #397, .F. ) ;
#347 = SHAPE_DEFINITION_REPRESENTATION ( #159, #195 ) ;
#348 = PRODUCT_RELATED_PRODUCT_CATEGORY ( 'part', '', ( #191 ) ) ;
#349 = CIRCLE ( 'NONE', #39, 12.67945043221542889 ) ;
#350 = AXIS2_PLACEMENT_3D ( 'NONE', #334, #18, #367 ) ;
#351 = ORIENTED_EDGE ( 'NONE', *, *, #59, .T. ) ;
#352 = ORIENTED_EDGE ( 'NONE', *, *, #377, .T. ) ;
#353 = AXIS2_PLACEMENT_3D ( 'NONE', #239, #393, #358 ) ;
#354 = EDGE_LOOP ( 'NONE', ( #202, #150 ) ) ;
#355 = FACE_BOUND ( 'NONE', #354, .T. ) ;
#356 = LINE ( 'NONE', #212, #408 ) ;
#357 = PLANE ( 'NONE',  #383 ) ;
#358 = DIRECTION ( 'NONE',  ( 1.000000000000000000, 0.000000000000000000, 0.000000000000000000 ) ) ;
#359 = DIRECTION ( 'NONE',  ( 0.000000000000000000, 0.000000000000000000, 1.000000000000000000 ) ) ;
#360 = ORIENTED_EDGE ( 'NONE', *, *, #155, .F. ) ;
#361 = DIRECTION ( 'NONE',  ( -1.000000000000000000, -8.701762263245910491E-17, 0.000000000000000000 ) ) ;
#362 = ORIENTED_EDGE ( 'NONE', *, *, #244, .T. ) ;
#363 = CARTESIAN_POINT ( 'NONE',  ( -135.7784834550135997, 48.94141003279687396, 0.000000000000000000 ) ) ;
#364 = CARTESIAN_POINT ( 'NONE',  ( -130.6568090387253562, 33.77505083971632871, 5.000000000000000000 ) ) ;
#365 = FACE_OUTER_BOUND ( 'NONE', #63, .T. ) ;
#366 = CARTESIAN_POINT ( 'NONE',  ( -72.12566772168371187, 12.50000000000000178, 5.000000000000000000 ) ) ;
#367 = DIRECTION ( 'NONE',  ( 1.000000000000000000, 0.000000000000000000, 0.000000000000000000 ) ) ;
#368 = CARTESIAN_POINT ( 'NONE',  ( -130.6568090387253562, 33.77505083971632871, 0.000000000000000000 ) ) ;
#369 = CARTESIAN_POINT ( 'NONE',  ( -70.00000000000000000, 25.00000000000000000, 0.000000000000000000 ) ) ;
#370 = ADVANCED_FACE ( 'NONE', ( #256 ), #125, .F. ) ;
#371 = VERTEX_POINT ( 'NONE', #286 ) ;
#372 = CARTESIAN_POINT ( 'NONE',  ( -144.3289870381553328, 25.44909451314917703, 5.000000000000000000 ) ) ;
#373 = ORIENTED_EDGE ( 'NONE', *, *, #339, .F. ) ;
#374 = EDGE_LOOP ( 'NONE', ( #130, #257 ) ) ;
#375 = VERTEX_POINT ( 'NONE', #277 ) ;
#376 = DIRECTION ( 'NONE',  ( -0.9396926207859080948, 0.3420201433256694901, -0.000000000000000000 ) ) ;
#377 = EDGE_CURVE ( 'NONE', #400, #384, #194, .T. ) ;
#378 = CARTESIAN_POINT ( 'NONE',  ( -144.3289870381553328, 25.44909451314917703, 5.000000000000000000 ) ) ;
#379 = UNCERTAINTY_MEASURE_WITH_UNIT (LENGTH_MEASURE( 1.000000000000000082E-05 ), #395, 'distance_accuracy_value', 'NONE');
#380 = DIRECTION ( 'NONE',  ( -0.000000000000000000, -0.000000000000000000, -1.000000000000000000 ) ) ;
#381 = AXIS2_PLACEMENT_3D ( 'NONE', #366, #176, #171 ) ;
#382 = CIRCLE ( 'NONE', #204, 4.000000000000003553 ) ;
#383 = AXIS2_PLACEMENT_3D ( 'NONE', #128, #216, #361 ) ;
#384 = VERTEX_POINT ( 'NONE', #135 ) ;
#385 = VERTEX_POINT ( 'NONE', #309 ) ;
#386 = EDGE_CURVE ( 'NONE', #375, #342, #24, .T. ) ;
#387 = FACE_OUTER_BOUND ( 'NONE', #265, .T. ) ;
#388 = APPLICATION_CONTEXT ( 'automotive_design' ) ;
#389 = DIRECTION ( 'NONE',  ( 1.000000000000000000, 0.000000000000000000, 0.000000000000000000 ) ) ;
#390 = DIRECTION ( 'NONE',  ( -0.000000000000000000, -0.000000000000000000, -1.000000000000000000 ) ) ;
#391 = PRESENTATION_STYLE_ASSIGNMENT (( #55 ) ) ;
#392 = PLANE ( 'NONE',  #248 ) ;
#393 = DIRECTION ( 'NONE',  ( 0.000000000000000000, 0.000000000000000000, 1.000000000000000000 ) ) ;
#394 = UNCERTAINTY_MEASURE_WITH_UNIT (LENGTH_MEASURE( 1.000000000000000082E-05 ), #234, 'distance_accuracy_value', 'NONE');
#395 =( LENGTH_UNIT ( ) NAMED_UNIT ( * ) SI_UNIT ( .MILLI., .METRE. ) );
#396 = DIRECTION ( 'NONE',  ( 0.000000000000000000, 0.000000000000000000, 1.000000000000000000 ) ) ;
#397 = EDGE_CURVE ( 'NONE', #400, #413, #79, .T. ) ;
#398 = ADVANCED_FACE ( 'NONE', ( #97 ), #247, .F. ) ;
#399 = DIRECTION ( 'NONE',  ( -1.000000000000000000, 0.000000000000000000, 0.000000000000000000 ) ) ;
#400 = VERTEX_POINT ( 'NONE', #333 ) ;
#401 = ORIENTED_EDGE ( 'NONE', *, *, #418, .T. ) ;
#402 = DIRECTION ( 'NONE',  ( 1.000000000000000000, 0.000000000000000000, -0.000000000000000000 ) ) ;
#403 = ORIENTED_EDGE ( 'NONE', *, *, #103, .T. ) ;
#404 = CARTESIAN_POINT ( 'NONE',  ( -2.125667721683710543, 12.50000000000000178, 0.000000000000000000 ) ) ;
#405 = PRODUCT_DEFINITION_CONTEXT ( 'detailed design', #268, 'design' ) ;
#406 = ADVANCED_FACE ( 'NONE', ( #416 ), #263, .F. ) ;
#407 = DIRECTION ( 'NONE',  ( -0.3420201433256698231, -0.9396926207859079838, -0.000000000000000000 ) ) ;
#408 = VECTOR ( 'NONE', #407, 1000.000000000000114 ) ;
#409 = ORIENTED_EDGE ( 'NONE', *, *, #316, .T. ) ;
#410 = CARTESIAN_POINT ( 'NONE',  ( -126.6568090387253704, 33.77505083971632871, 5.000000000000000000 ) ) ;
#411 = ORIENTED_EDGE ( 'NONE', *, *, #123, .T. ) ;
#412 = ORIENTED_EDGE ( 'NONE', *, *, #287, .F. ) ;
#413 = VERTEX_POINT ( 'NONE', #369 ) ;
#414 = FILL_AREA_STYLE ('',( #345 ) ) ;
#415 = DIRECTION ( 'NONE',  ( 1.000000000000000000, 0.000000000000000000, 0.000000000000000000 ) ) ;
#416 = FACE_OUTER_BOUND ( 'NONE', #61, .T. ) ;
#417 = LINE ( 'NONE', #151, #205 ) ;
#418 = EDGE_CURVE ( 'NONE', #70, #400, #322, .T. ) ;
ENDSEC;
END-ISO-10303-21;
