ISO-10303-21;
HEADER;
/* Generated by software containing ST-Developer
 * from STEP Tools, Inc. (www.steptools.com) 
 */

FILE_DESCRIPTION(
/* description */ (''),
/* implementation_level */ '2;1');

FILE_NAME(
/* name */ 
'/Users/Mathis/Desktop/Robotique/M\X\E9canique/Plans pour usinage/Arbr
e_Codeuse.step',
/* time_stamp */ '2022-06-18T23:11:40+02:00',
/* author */ (''),
/* organization */ (''),
/* preprocessor_version */ 'ST-DEVELOPER v19',
/* originating_system */ 'Autodesk Translation Framework v11.7.0.108',
/* authorisation */ '');

FILE_SCHEMA (('AUTOMOTIVE_DESIGN { 1 0 10303 214 3 1 1 }'));
ENDSEC;

DATA;
#10=MECHANICAL_DESIGN_GEOMETRIC_PRESENTATION_REPRESENTATION('',(#64,#65,
#66,#67,#68,#69),#141);
#11=SHAPE_REPRESENTATION_RELATIONSHIP('SRR','None',#148,#12);
#12=ADVANCED_BREP_SHAPE_REPRESENTATION('',(#13),#140);
#13=MANIFOLD_SOLID_BREP('Body1',#75);
#14=CYLINDRICAL_SURFACE('',#95,3.);
#15=LINE('',#128,#18);
#16=LINE('',#134,#19);
#17=LINE('',#137,#20);
#18=VECTOR('',#108,1000.00000000038);
#19=VECTOR('',#115,3.);
#20=VECTOR('',#120,1000.00000000038);
#21=CONICAL_SURFACE('',#91,1000.,0.785398163397572);
#22=CONICAL_SURFACE('',#97,1000.,0.785398163397572);
#23=FACE_OUTER_BOUND('',#28,.T.);
#24=FACE_OUTER_BOUND('',#29,.T.);
#25=FACE_OUTER_BOUND('',#30,.T.);
#26=FACE_OUTER_BOUND('',#31,.T.);
#27=FACE_OUTER_BOUND('',#32,.T.);
#28=EDGE_LOOP('',(#48));
#29=EDGE_LOOP('',(#49,#50,#51,#52));
#30=EDGE_LOOP('',(#53));
#31=EDGE_LOOP('',(#54,#55,#56,#57));
#32=EDGE_LOOP('',(#58,#59,#60,#61));
#33=CIRCLE('',#90,2.50000000000021);
#34=CIRCLE('',#92,3.);
#35=CIRCLE('',#94,2.50000000000021);
#36=CIRCLE('',#96,3.);
#37=VERTEX_POINT('',#123);
#38=VERTEX_POINT('',#126);
#39=VERTEX_POINT('',#130);
#40=VERTEX_POINT('',#133);
#41=EDGE_CURVE('',#37,#37,#33,.T.);
#42=EDGE_CURVE('',#38,#38,#34,.T.);
#43=EDGE_CURVE('',#38,#37,#15,.T.);
#44=EDGE_CURVE('',#39,#39,#35,.T.);
#45=EDGE_CURVE('',#38,#40,#16,.T.);
#46=EDGE_CURVE('',#40,#40,#36,.T.);
#47=EDGE_CURVE('',#40,#39,#17,.T.);
#48=ORIENTED_EDGE('',*,*,#41,.T.);
#49=ORIENTED_EDGE('',*,*,#42,.T.);
#50=ORIENTED_EDGE('',*,*,#43,.T.);
#51=ORIENTED_EDGE('',*,*,#41,.F.);
#52=ORIENTED_EDGE('',*,*,#43,.F.);
#53=ORIENTED_EDGE('',*,*,#44,.F.);
#54=ORIENTED_EDGE('',*,*,#42,.F.);
#55=ORIENTED_EDGE('',*,*,#45,.T.);
#56=ORIENTED_EDGE('',*,*,#46,.T.);
#57=ORIENTED_EDGE('',*,*,#45,.F.);
#58=ORIENTED_EDGE('',*,*,#46,.F.);
#59=ORIENTED_EDGE('',*,*,#47,.T.);
#60=ORIENTED_EDGE('',*,*,#44,.T.);
#61=ORIENTED_EDGE('',*,*,#47,.F.);
#62=PLANE('',#89);
#63=PLANE('',#93);
#64=STYLED_ITEM('',(#158),#70);
#65=STYLED_ITEM('',(#158),#71);
#66=STYLED_ITEM('',(#158),#72);
#67=STYLED_ITEM('',(#158),#73);
#68=STYLED_ITEM('',(#158),#74);
#69=STYLED_ITEM('',(#157),#13);
#70=ADVANCED_FACE('',(#23),#62,.T.);
#71=ADVANCED_FACE('',(#24),#21,.T.);
#72=ADVANCED_FACE('',(#25),#63,.F.);
#73=ADVANCED_FACE('',(#26),#14,.T.);
#74=ADVANCED_FACE('',(#27),#22,.T.);
#75=CLOSED_SHELL('',(#70,#71,#72,#73,#74));
#76=DERIVED_UNIT_ELEMENT(#78,1.);
#77=DERIVED_UNIT_ELEMENT(#143,-3.);
#78=(
MASS_UNIT()
NAMED_UNIT(*)
SI_UNIT(.KILO.,.GRAM.)
);
#79=DERIVED_UNIT((#76,#77));
#80=MEASURE_REPRESENTATION_ITEM('density measure',
POSITIVE_RATIO_MEASURE(7850.),#79);
#81=PROPERTY_DEFINITION_REPRESENTATION(#86,#83);
#82=PROPERTY_DEFINITION_REPRESENTATION(#87,#84);
#83=REPRESENTATION('material name',(#85),#140);
#84=REPRESENTATION('density',(#80),#140);
#85=DESCRIPTIVE_REPRESENTATION_ITEM('Steel','Steel');
#86=PROPERTY_DEFINITION('material property','material name',#150);
#87=PROPERTY_DEFINITION('material property','density of part',#150);
#88=AXIS2_PLACEMENT_3D('placement',#121,#98,#99);
#89=AXIS2_PLACEMENT_3D('',#122,#100,#101);
#90=AXIS2_PLACEMENT_3D('',#124,#102,#103);
#91=AXIS2_PLACEMENT_3D('',#125,#104,#105);
#92=AXIS2_PLACEMENT_3D('',#127,#106,#107);
#93=AXIS2_PLACEMENT_3D('',#129,#109,#110);
#94=AXIS2_PLACEMENT_3D('',#131,#111,#112);
#95=AXIS2_PLACEMENT_3D('',#132,#113,#114);
#96=AXIS2_PLACEMENT_3D('',#135,#116,#117);
#97=AXIS2_PLACEMENT_3D('',#136,#118,#119);
#98=DIRECTION('axis',(0.,0.,1.));
#99=DIRECTION('refdir',(1.,0.,0.));
#100=DIRECTION('center_axis',(0.,0.,1.));
#101=DIRECTION('ref_axis',(1.,0.,0.));
#102=DIRECTION('center_axis',(0.,0.,1.));
#103=DIRECTION('ref_axis',(1.,-1.23738519430826E-13,0.));
#104=DIRECTION('center_axis',(-7.62057084102707E-13,-6.04849503815785E-13,
-1.));
#105=DIRECTION('ref_axis',(1.,3.57289790924494E-16,0.));
#106=DIRECTION('center_axis',(-4.48774203859064E-29,7.62649203049174E-13,
1.));
#107=DIRECTION('ref_axis',(1.,4.60711597681716E-25,0.));
#108=DIRECTION('',(0.707106781186905,4.27859232173632E-13,0.70710678118619));
#109=DIRECTION('center_axis',(0.,0.,1.));
#110=DIRECTION('ref_axis',(1.,0.,0.));
#111=DIRECTION('center_axis',(0.,0.,1.));
#112=DIRECTION('ref_axis',(1.,-1.23738519430826E-13,0.));
#113=DIRECTION('center_axis',(0.,0.,1.));
#114=DIRECTION('ref_axis',(1.,0.,0.));
#115=DIRECTION('',(0.,0.,-1.));
#116=DIRECTION('center_axis',(0.,0.,1.));
#117=DIRECTION('ref_axis',(-1.,2.70494416531423E-16,0.));
#118=DIRECTION('center_axis',(-7.62057084102707E-13,-6.04849503815785E-13,
1.));
#119=DIRECTION('ref_axis',(1.,3.57289790924494E-16,0.));
#120=DIRECTION('',(0.707106781186905,4.28032423384879E-13,-0.70710678118619));
#121=CARTESIAN_POINT('',(0.,0.,0.));
#122=CARTESIAN_POINT('Origin',(0.,0.,45.));
#123=CARTESIAN_POINT('',(-2.49999999999999,-2.46992925916625E-7,45.));
#124=CARTESIAN_POINT('Origin',(2.08752697577795E-13,3.09530179265494E-13,
45.));
#125=CARTESIAN_POINT('Origin',(-7.59771134894814E-10,-6.03035843482607E-10,
-952.499999999751));
#126=CARTESIAN_POINT('',(-3.,3.67394039744206E-16,44.5));
#127=CARTESIAN_POINT('Origin',(1.83697019872103E-16,0.,44.5000000000023));
#128=CARTESIAN_POINT('',(-1000.00000000076,-6.03270668593617E-10,-952.499999999751));
#129=CARTESIAN_POINT('Origin',(0.,0.,0.));
#130=CARTESIAN_POINT('',(-2.49999999999999,-2.46992925916625E-7,0.));
#131=CARTESIAN_POINT('Origin',(2.08752697577795E-13,3.09530179265494E-13,
0.));
#132=CARTESIAN_POINT('Origin',(0.,0.,22.5));
#133=CARTESIAN_POINT('',(-3.,-3.67394039744206E-16,0.499999999999998));
#134=CARTESIAN_POINT('',(-3.,-3.67394039744206E-16,22.5));
#135=CARTESIAN_POINT('Origin',(-2.00205758006383E-16,-4.44089209850063E-16,
0.5));
#136=CARTESIAN_POINT('Origin',(-7.59771134894814E-10,-6.03035843482607E-10,
997.499999999751));
#137=CARTESIAN_POINT('',(-1000.00000000076,-6.03515597953446E-10,997.499999999751));
#138=UNCERTAINTY_MEASURE_WITH_UNIT(LENGTH_MEASURE(0.01),#142,
'DISTANCE_ACCURACY_VALUE',
'Maximum model space distance between geometric entities at asserted c
onnectivities');
#139=UNCERTAINTY_MEASURE_WITH_UNIT(LENGTH_MEASURE(0.01),#142,
'DISTANCE_ACCURACY_VALUE',
'Maximum model space distance between geometric entities at asserted c
onnectivities');
#140=(
GEOMETRIC_REPRESENTATION_CONTEXT(3)
GLOBAL_UNCERTAINTY_ASSIGNED_CONTEXT((#138))
GLOBAL_UNIT_ASSIGNED_CONTEXT((#142,#144,#145))
REPRESENTATION_CONTEXT('','3D')
);
#141=(
GEOMETRIC_REPRESENTATION_CONTEXT(3)
GLOBAL_UNCERTAINTY_ASSIGNED_CONTEXT((#139))
GLOBAL_UNIT_ASSIGNED_CONTEXT((#142,#144,#145))
REPRESENTATION_CONTEXT('','3D')
);
#142=(
LENGTH_UNIT()
NAMED_UNIT(*)
SI_UNIT(.MILLI.,.METRE.)
);
#143=(
LENGTH_UNIT()
NAMED_UNIT(*)
SI_UNIT($,.METRE.)
);
#144=(
NAMED_UNIT(*)
PLANE_ANGLE_UNIT()
SI_UNIT($,.RADIAN.)
);
#145=(
NAMED_UNIT(*)
SI_UNIT($,.STERADIAN.)
SOLID_ANGLE_UNIT()
);
#146=SHAPE_DEFINITION_REPRESENTATION(#147,#148);
#147=PRODUCT_DEFINITION_SHAPE('',$,#150);
#148=SHAPE_REPRESENTATION('',(#88),#140);
#149=PRODUCT_DEFINITION_CONTEXT('part definition',#154,'design');
#150=PRODUCT_DEFINITION('Arbre_Codeuse','Arbre_Codeuse v1',#151,#149);
#151=PRODUCT_DEFINITION_FORMATION('',$,#156);
#152=PRODUCT_RELATED_PRODUCT_CATEGORY('Arbre_Codeuse v1',
'Arbre_Codeuse v1',(#156));
#153=APPLICATION_PROTOCOL_DEFINITION('international standard',
'automotive_design',2009,#154);
#154=APPLICATION_CONTEXT(
'Core Data for Automotive Mechanical Design Process');
#155=PRODUCT_CONTEXT('part definition',#154,'mechanical');
#156=PRODUCT('Arbre_Codeuse','Arbre_Codeuse v1',$,(#155));
#157=PRESENTATION_STYLE_ASSIGNMENT((#159));
#158=PRESENTATION_STYLE_ASSIGNMENT((#160));
#159=SURFACE_STYLE_USAGE(.BOTH.,#161);
#160=SURFACE_STYLE_USAGE(.BOTH.,#162);
#161=SURFACE_SIDE_STYLE('',(#163));
#162=SURFACE_SIDE_STYLE('',(#164));
#163=SURFACE_STYLE_FILL_AREA(#165);
#164=SURFACE_STYLE_FILL_AREA(#166);
#165=FILL_AREA_STYLE('Steel - Satin',(#167));
#166=FILL_AREA_STYLE('Opaque(210,210,255)',(#168));
#167=FILL_AREA_STYLE_COLOUR('Steel - Satin',#169);
#168=FILL_AREA_STYLE_COLOUR('Opaque(210,210,255)',#170);
#169=COLOUR_RGB('Steel - Satin',0.627450980392157,0.627450980392157,0.627450980392157);
#170=COLOUR_RGB('Opaque(210,210,255)',0.823529411764706,0.823529411764706,
1.);
ENDSEC;
END-ISO-10303-21;
