ISO-10303-21;
HEADER;
/* Generated by software containing ST-Developer
 * from STEP Tools, Inc. (www.steptools.com) 
 */

FILE_DESCRIPTION(
/* description */ (''),
/* implementation_level */ '2;1');

FILE_NAME(
/* name */ 
'C:/Users/Philippe/Desktop/MOBICO/Client/Deegle/Devis/pivot v2.step',
/* time_stamp */ '2022-06-02T10:30:58+02:00',
/* author */ (''),
/* organization */ (''),
/* preprocessor_version */ 'ST-DEVELOPER v19',
/* originating_system */ 'Autodesk Translation Framework v11.7.0.108',
/* authorisation */ '');

FILE_SCHEMA (('AUTOMOTIVE_DESIGN { 1 0 10303 214 3 1 1 }'));
ENDSEC;

DATA;
#10=MECHANICAL_DESIGN_GEOMETRIC_PRESENTATION_REPRESENTATION('',(#13),#170);
#11=SHAPE_REPRESENTATION_RELATIONSHIP('SRR','None',#177,#12);
#12=ADVANCED_BREP_SHAPE_REPRESENTATION('',(#14),#169);
#13=STYLED_ITEM('',(#187),#14);
#14=MANIFOLD_SOLID_BREP('Corps1',#90);
#15=FACE_BOUND('',#29,.T.);
#16=FACE_BOUND('',#31,.T.);
#17=FACE_BOUND('',#35,.T.);
#18=PLANE('',#107);
#19=PLANE('',#109);
#20=PLANE('',#115);
#21=FACE_OUTER_BOUND('',#27,.T.);
#22=FACE_OUTER_BOUND('',#28,.T.);
#23=FACE_OUTER_BOUND('',#30,.T.);
#24=FACE_OUTER_BOUND('',#32,.T.);
#25=FACE_OUTER_BOUND('',#33,.T.);
#26=FACE_OUTER_BOUND('',#34,.T.);
#27=EDGE_LOOP('',(#63,#64,#65,#66));
#28=EDGE_LOOP('',(#67));
#29=EDGE_LOOP('',(#68));
#30=EDGE_LOOP('',(#69));
#31=EDGE_LOOP('',(#70));
#32=EDGE_LOOP('',(#71,#72,#73,#74));
#33=EDGE_LOOP('',(#75,#76,#77,#78));
#34=EDGE_LOOP('',(#79));
#35=EDGE_LOOP('',(#80));
#36=LINE('',#150,#39);
#37=LINE('',#161,#40);
#38=LINE('',#165,#41);
#39=VECTOR('',#122,12.5);
#40=VECTOR('',#137,12.7);
#41=VECTOR('',#142,14.3);
#42=CIRCLE('',#105,12.5);
#43=CIRCLE('',#106,12.5);
#44=CIRCLE('',#108,12.7);
#45=CIRCLE('',#110,14.3);
#46=CIRCLE('',#111,12.7);
#47=CIRCLE('',#114,14.3);
#48=VERTEX_POINT('',#147);
#49=VERTEX_POINT('',#149);
#50=VERTEX_POINT('',#153);
#51=VERTEX_POINT('',#156);
#52=VERTEX_POINT('',#158);
#53=VERTEX_POINT('',#163);
#54=EDGE_CURVE('',#48,#48,#42,.T.);
#55=EDGE_CURVE('',#48,#49,#36,.T.);
#56=EDGE_CURVE('',#49,#49,#43,.T.);
#57=EDGE_CURVE('',#50,#50,#44,.T.);
#58=EDGE_CURVE('',#51,#51,#45,.T.);
#59=EDGE_CURVE('',#52,#52,#46,.T.);
#60=EDGE_CURVE('',#50,#52,#37,.T.);
#61=EDGE_CURVE('',#53,#53,#47,.T.);
#62=EDGE_CURVE('',#53,#51,#38,.T.);
#63=ORIENTED_EDGE('',*,*,#54,.T.);
#64=ORIENTED_EDGE('',*,*,#55,.T.);
#65=ORIENTED_EDGE('',*,*,#56,.T.);
#66=ORIENTED_EDGE('',*,*,#55,.F.);
#67=ORIENTED_EDGE('',*,*,#57,.F.);
#68=ORIENTED_EDGE('',*,*,#56,.F.);
#69=ORIENTED_EDGE('',*,*,#58,.T.);
#70=ORIENTED_EDGE('',*,*,#59,.T.);
#71=ORIENTED_EDGE('',*,*,#57,.T.);
#72=ORIENTED_EDGE('',*,*,#60,.T.);
#73=ORIENTED_EDGE('',*,*,#59,.F.);
#74=ORIENTED_EDGE('',*,*,#60,.F.);
#75=ORIENTED_EDGE('',*,*,#61,.F.);
#76=ORIENTED_EDGE('',*,*,#62,.T.);
#77=ORIENTED_EDGE('',*,*,#58,.F.);
#78=ORIENTED_EDGE('',*,*,#62,.F.);
#79=ORIENTED_EDGE('',*,*,#61,.T.);
#80=ORIENTED_EDGE('',*,*,#54,.F.);
#81=CYLINDRICAL_SURFACE('',#104,12.5);
#82=CYLINDRICAL_SURFACE('',#112,12.7);
#83=CYLINDRICAL_SURFACE('',#113,14.3);
#84=ADVANCED_FACE('',(#21),#81,.F.);
#85=ADVANCED_FACE('',(#22,#15),#18,.F.);
#86=ADVANCED_FACE('',(#23,#16),#19,.F.);
#87=ADVANCED_FACE('',(#24),#82,.F.);
#88=ADVANCED_FACE('',(#25),#83,.T.);
#89=ADVANCED_FACE('',(#26,#17),#20,.T.);
#90=CLOSED_SHELL('',(#84,#85,#86,#87,#88,#89));
#91=DERIVED_UNIT_ELEMENT(#93,1.);
#92=DERIVED_UNIT_ELEMENT(#172,-3.);
#93=(
MASS_UNIT()
NAMED_UNIT(*)
SI_UNIT(.KILO.,.GRAM.)
);
#94=DERIVED_UNIT((#91,#92));
#95=MEASURE_REPRESENTATION_ITEM('density measure',
POSITIVE_RATIO_MEASURE(7850.),#94);
#96=PROPERTY_DEFINITION_REPRESENTATION(#101,#98);
#97=PROPERTY_DEFINITION_REPRESENTATION(#102,#99);
#98=REPRESENTATION('material name',(#100),#169);
#99=REPRESENTATION('density',(#95),#169);
#100=DESCRIPTIVE_REPRESENTATION_ITEM('Acier','Acier');
#101=PROPERTY_DEFINITION('material property','material name',#179);
#102=PROPERTY_DEFINITION('material property','density of part',#179);
#103=AXIS2_PLACEMENT_3D('placement',#145,#116,#117);
#104=AXIS2_PLACEMENT_3D('',#146,#118,#119);
#105=AXIS2_PLACEMENT_3D('',#148,#120,#121);
#106=AXIS2_PLACEMENT_3D('',#151,#123,#124);
#107=AXIS2_PLACEMENT_3D('',#152,#125,#126);
#108=AXIS2_PLACEMENT_3D('',#154,#127,#128);
#109=AXIS2_PLACEMENT_3D('',#155,#129,#130);
#110=AXIS2_PLACEMENT_3D('',#157,#131,#132);
#111=AXIS2_PLACEMENT_3D('',#159,#133,#134);
#112=AXIS2_PLACEMENT_3D('',#160,#135,#136);
#113=AXIS2_PLACEMENT_3D('',#162,#138,#139);
#114=AXIS2_PLACEMENT_3D('',#164,#140,#141);
#115=AXIS2_PLACEMENT_3D('',#166,#143,#144);
#116=DIRECTION('axis',(0.,0.,1.));
#117=DIRECTION('refdir',(1.,0.,0.));
#118=DIRECTION('center_axis',(0.,1.,0.));
#119=DIRECTION('ref_axis',(1.,0.,0.));
#120=DIRECTION('center_axis',(0.,1.,0.));
#121=DIRECTION('ref_axis',(1.,0.,0.));
#122=DIRECTION('',(0.,-1.,0.));
#123=DIRECTION('center_axis',(0.,-1.,0.));
#124=DIRECTION('ref_axis',(1.,0.,0.));
#125=DIRECTION('center_axis',(0.,1.,0.));
#126=DIRECTION('ref_axis',(1.,0.,0.));
#127=DIRECTION('center_axis',(0.,1.,0.));
#128=DIRECTION('ref_axis',(1.,0.,0.));
#129=DIRECTION('center_axis',(0.,1.,0.));
#130=DIRECTION('ref_axis',(1.,0.,0.));
#131=DIRECTION('center_axis',(0.,-1.,0.));
#132=DIRECTION('ref_axis',(1.,0.,0.));
#133=DIRECTION('center_axis',(0.,1.,0.));
#134=DIRECTION('ref_axis',(1.,0.,0.));
#135=DIRECTION('center_axis',(0.,1.,0.));
#136=DIRECTION('ref_axis',(1.,0.,0.));
#137=DIRECTION('',(0.,-1.,0.));
#138=DIRECTION('center_axis',(0.,1.,0.));
#139=DIRECTION('ref_axis',(1.,0.,0.));
#140=DIRECTION('center_axis',(0.,1.,0.));
#141=DIRECTION('ref_axis',(1.,0.,0.));
#142=DIRECTION('',(0.,-1.,0.));
#143=DIRECTION('center_axis',(0.,1.,0.));
#144=DIRECTION('ref_axis',(1.,0.,0.));
#145=CARTESIAN_POINT('',(0.,0.,0.));
#146=CARTESIAN_POINT('Origin',(0.,95.,0.));
#147=CARTESIAN_POINT('',(-12.5,922.,1.53080849893419E-15));
#148=CARTESIAN_POINT('Origin',(0.,922.,0.));
#149=CARTESIAN_POINT('',(-12.5,95.,1.53080849893419E-15));
#150=CARTESIAN_POINT('',(-12.5,95.,1.53080849893419E-15));
#151=CARTESIAN_POINT('Origin',(0.,95.,0.));
#152=CARTESIAN_POINT('Origin',(0.,95.,0.));
#153=CARTESIAN_POINT('',(-12.7,95.,1.55530143491714E-15));
#154=CARTESIAN_POINT('Origin',(0.,95.,0.));
#155=CARTESIAN_POINT('Origin',(0.,-5.,0.));
#156=CARTESIAN_POINT('',(-14.3,-5.,1.75124492278072E-15));
#157=CARTESIAN_POINT('Origin',(0.,-5.,0.));
#158=CARTESIAN_POINT('',(-12.7,-5.,1.55530143491714E-15));
#159=CARTESIAN_POINT('Origin',(0.,-5.,0.));
#160=CARTESIAN_POINT('Origin',(0.,0.,0.));
#161=CARTESIAN_POINT('',(-12.7,0.,1.55530143491714E-15));
#162=CARTESIAN_POINT('Origin',(0.,0.,0.));
#163=CARTESIAN_POINT('',(-14.3,922.,1.75124492278072E-15));
#164=CARTESIAN_POINT('Origin',(0.,922.,0.));
#165=CARTESIAN_POINT('',(-14.3,0.,1.75124492278072E-15));
#166=CARTESIAN_POINT('Origin',(0.,922.,0.));
#167=UNCERTAINTY_MEASURE_WITH_UNIT(LENGTH_MEASURE(0.01),#171,
'DISTANCE_ACCURACY_VALUE',
'Maximum model space distance between geometric entities at asserted c
onnectivities');
#168=UNCERTAINTY_MEASURE_WITH_UNIT(LENGTH_MEASURE(0.01),#171,
'DISTANCE_ACCURACY_VALUE',
'Maximum model space distance between geometric entities at asserted c
onnectivities');
#169=(
GEOMETRIC_REPRESENTATION_CONTEXT(3)
GLOBAL_UNCERTAINTY_ASSIGNED_CONTEXT((#167))
GLOBAL_UNIT_ASSIGNED_CONTEXT((#171,#173,#174))
REPRESENTATION_CONTEXT('','3D')
);
#170=(
GEOMETRIC_REPRESENTATION_CONTEXT(3)
GLOBAL_UNCERTAINTY_ASSIGNED_CONTEXT((#168))
GLOBAL_UNIT_ASSIGNED_CONTEXT((#171,#173,#174))
REPRESENTATION_CONTEXT('','3D')
);
#171=(
LENGTH_UNIT()
NAMED_UNIT(*)
SI_UNIT(.MILLI.,.METRE.)
);
#172=(
LENGTH_UNIT()
NAMED_UNIT(*)
SI_UNIT($,.METRE.)
);
#173=(
NAMED_UNIT(*)
PLANE_ANGLE_UNIT()
SI_UNIT($,.RADIAN.)
);
#174=(
NAMED_UNIT(*)
SI_UNIT($,.STERADIAN.)
SOLID_ANGLE_UNIT()
);
#175=SHAPE_DEFINITION_REPRESENTATION(#176,#177);
#176=PRODUCT_DEFINITION_SHAPE('',$,#179);
#177=SHAPE_REPRESENTATION('',(#103),#169);
#178=PRODUCT_DEFINITION_CONTEXT('part definition',#183,'design');
#179=PRODUCT_DEFINITION('pivot','pivot v2',#180,#178);
#180=PRODUCT_DEFINITION_FORMATION('',$,#185);
#181=PRODUCT_RELATED_PRODUCT_CATEGORY('pivot v2','pivot v2',(#185));
#182=APPLICATION_PROTOCOL_DEFINITION('international standard',
'automotive_design',2009,#183);
#183=APPLICATION_CONTEXT(
'Core Data for Automotive Mechanical Design Process');
#184=PRODUCT_CONTEXT('part definition',#183,'mechanical');
#185=PRODUCT('pivot','pivot v2',$,(#184));
#186=PRESENTATION_STYLE_ASSIGNMENT((#188));
#187=PRESENTATION_STYLE_ASSIGNMENT((#189));
#188=SURFACE_STYLE_USAGE(.BOTH.,#190);
#189=SURFACE_STYLE_USAGE(.BOTH.,#191);
#190=SURFACE_SIDE_STYLE('',(#192));
#191=SURFACE_SIDE_STYLE('',(#193));
#192=SURFACE_STYLE_FILL_AREA(#194);
#193=SURFACE_STYLE_FILL_AREA(#195);
#194=FILL_AREA_STYLE('Acier - Satin\X\E9',(#196));
#195=FILL_AREA_STYLE('Peinture - Brillant \X\E9maill\X\E9 (vert)',(#197));
#196=FILL_AREA_STYLE_COLOUR('Acier - Satin\X\E9',#198);
#197=FILL_AREA_STYLE_COLOUR('Peinture - Brillant \X\E9maill\X\E9 (vert
)',#199);
#198=COLOUR_RGB('Acier - Satin\X\E9',0.627450980392157,0.627450980392157,
0.627450980392157);
#199=COLOUR_RGB('Peinture - Brillant \X\E9maill\X\E9 (vert)',0.266666666666667,
0.588235294117647,0.282352941176471);
ENDSEC;
END-ISO-10303-21;
