ISO-10303-21;
HEADER;
/* Generated by software containing ST-Developer
 * from STEP Tools, Inc. (www.steptools.com) 
 */

FILE_DESCRIPTION(
/* description */ (''),
/* implementation_level */ '2;1');

FILE_NAME(
/* name */ 'C:/Users/schouwt/Downloads/Sonde rh\X\E9o v1.step',
/* time_stamp */ '2022-05-05T15:38:57+02:00',
/* author */ (''),
/* organization */ (''),
/* preprocessor_version */ 'ST-DEVELOPER v18.1',
/* originating_system */ 'Autodesk Translation Framework v10.14.0.1471',

/* authorisation */ '');

FILE_SCHEMA (('AUTOMOTIVE_DESIGN { 1 0 10303 214 3 1 1 }'));
ENDSEC;

DATA;
#10=MECHANICAL_DESIGN_GEOMETRIC_PRESENTATION_REPRESENTATION('',(#13),#266);
#11=SHAPE_REPRESENTATION_RELATIONSHIP('SRR','None',#273,#12);
#12=ADVANCED_BREP_SHAPE_REPRESENTATION('',(#14),#265);
#13=STYLED_ITEM('',(#282),#14);
#14=MANIFOLD_SOLID_BREP('Corps1',#142);
#15=FACE_BOUND('',#39,.T.);
#16=FACE_BOUND('',#42,.T.);
#17=FACE_BOUND('',#44,.T.);
#18=FACE_BOUND('',#49,.T.);
#19=PLANE('',#159);
#20=PLANE('',#160);
#21=PLANE('',#165);
#22=PLANE('',#166);
#23=PLANE('',#175);
#24=PLANE('',#176);
#25=FACE_OUTER_BOUND('',#36,.T.);
#26=FACE_OUTER_BOUND('',#37,.T.);
#27=FACE_OUTER_BOUND('',#38,.T.);
#28=FACE_OUTER_BOUND('',#40,.T.);
#29=FACE_OUTER_BOUND('',#41,.T.);
#30=FACE_OUTER_BOUND('',#43,.T.);
#31=FACE_OUTER_BOUND('',#45,.T.);
#32=FACE_OUTER_BOUND('',#46,.T.);
#33=FACE_OUTER_BOUND('',#47,.T.);
#34=FACE_OUTER_BOUND('',#48,.T.);
#35=FACE_OUTER_BOUND('',#50,.T.);
#36=EDGE_LOOP('',(#96,#97,#98,#99));
#37=EDGE_LOOP('',(#100));
#38=EDGE_LOOP('',(#101));
#39=EDGE_LOOP('',(#102));
#40=EDGE_LOOP('',(#103,#104,#105,#106));
#41=EDGE_LOOP('',(#107));
#42=EDGE_LOOP('',(#108));
#43=EDGE_LOOP('',(#109));
#44=EDGE_LOOP('',(#110));
#45=EDGE_LOOP('',(#111,#112,#113,#114));
#46=EDGE_LOOP('',(#115,#116,#117,#118));
#47=EDGE_LOOP('',(#119,#120,#121,#122));
#48=EDGE_LOOP('',(#123));
#49=EDGE_LOOP('',(#124));
#50=EDGE_LOOP('',(#125));
#51=LINE('',#231,#56);
#52=LINE('',#242,#57);
#53=LINE('',#250,#58);
#54=LINE('',#253,#59);
#55=LINE('',#259,#60);
#56=VECTOR('',#183,4.);
#57=VECTOR('',#198,6.);
#58=VECTOR('',#209,3.485);
#59=VECTOR('',#212,2.74);
#60=VECTOR('',#219,3.485);
#61=CIRCLE('',#157,4.);
#62=CIRCLE('',#158,4.);
#63=CIRCLE('',#161,6.);
#64=CIRCLE('',#162,3.485);
#65=CIRCLE('',#164,6.);
#66=CIRCLE('',#167,3.485);
#67=CIRCLE('',#168,2.74);
#68=CIRCLE('',#171,2.74);
#69=CIRCLE('',#173,3.485);
#70=CIRCLE('',#174,3.485);
#71=VERTEX_POINT('',#228);
#72=VERTEX_POINT('',#230);
#73=VERTEX_POINT('',#235);
#74=VERTEX_POINT('',#237);
#75=VERTEX_POINT('',#240);
#76=VERTEX_POINT('',#245);
#77=VERTEX_POINT('',#247);
#78=VERTEX_POINT('',#252);
#79=VERTEX_POINT('',#256);
#80=VERTEX_POINT('',#258);
#81=EDGE_CURVE('',#71,#71,#61,.T.);
#82=EDGE_CURVE('',#71,#72,#51,.T.);
#83=EDGE_CURVE('',#72,#72,#62,.T.);
#84=EDGE_CURVE('',#73,#73,#63,.T.);
#85=EDGE_CURVE('',#74,#74,#64,.T.);
#86=EDGE_CURVE('',#75,#75,#65,.T.);
#87=EDGE_CURVE('',#75,#73,#52,.T.);
#88=EDGE_CURVE('',#76,#76,#66,.T.);
#89=EDGE_CURVE('',#77,#77,#67,.T.);
#90=EDGE_CURVE('',#74,#76,#53,.T.);
#91=EDGE_CURVE('',#77,#78,#54,.T.);
#92=EDGE_CURVE('',#78,#78,#68,.T.);
#93=EDGE_CURVE('',#79,#79,#69,.T.);
#94=EDGE_CURVE('',#79,#80,#55,.T.);
#95=EDGE_CURVE('',#80,#80,#70,.T.);
#96=ORIENTED_EDGE('',*,*,#81,.F.);
#97=ORIENTED_EDGE('',*,*,#82,.T.);
#98=ORIENTED_EDGE('',*,*,#83,.F.);
#99=ORIENTED_EDGE('',*,*,#82,.F.);
#100=ORIENTED_EDGE('',*,*,#81,.T.);
#101=ORIENTED_EDGE('',*,*,#84,.F.);
#102=ORIENTED_EDGE('',*,*,#85,.T.);
#103=ORIENTED_EDGE('',*,*,#86,.F.);
#104=ORIENTED_EDGE('',*,*,#87,.T.);
#105=ORIENTED_EDGE('',*,*,#84,.T.);
#106=ORIENTED_EDGE('',*,*,#87,.F.);
#107=ORIENTED_EDGE('',*,*,#86,.T.);
#108=ORIENTED_EDGE('',*,*,#83,.T.);
#109=ORIENTED_EDGE('',*,*,#88,.F.);
#110=ORIENTED_EDGE('',*,*,#89,.T.);
#111=ORIENTED_EDGE('',*,*,#85,.F.);
#112=ORIENTED_EDGE('',*,*,#90,.T.);
#113=ORIENTED_EDGE('',*,*,#88,.T.);
#114=ORIENTED_EDGE('',*,*,#90,.F.);
#115=ORIENTED_EDGE('',*,*,#89,.F.);
#116=ORIENTED_EDGE('',*,*,#91,.T.);
#117=ORIENTED_EDGE('',*,*,#92,.F.);
#118=ORIENTED_EDGE('',*,*,#91,.F.);
#119=ORIENTED_EDGE('',*,*,#93,.F.);
#120=ORIENTED_EDGE('',*,*,#94,.T.);
#121=ORIENTED_EDGE('',*,*,#95,.T.);
#122=ORIENTED_EDGE('',*,*,#94,.F.);
#123=ORIENTED_EDGE('',*,*,#93,.T.);
#124=ORIENTED_EDGE('',*,*,#92,.T.);
#125=ORIENTED_EDGE('',*,*,#95,.F.);
#126=CYLINDRICAL_SURFACE('',#156,4.);
#127=CYLINDRICAL_SURFACE('',#163,6.);
#128=CYLINDRICAL_SURFACE('',#169,3.485);
#129=CYLINDRICAL_SURFACE('',#170,2.74);
#130=CYLINDRICAL_SURFACE('',#172,3.485);
#131=ADVANCED_FACE('',(#25),#126,.T.);
#132=ADVANCED_FACE('',(#26),#19,.T.);
#133=ADVANCED_FACE('',(#27,#15),#20,.F.);
#134=ADVANCED_FACE('',(#28),#127,.T.);
#135=ADVANCED_FACE('',(#29,#16),#21,.T.);
#136=ADVANCED_FACE('',(#30,#17),#22,.F.);
#137=ADVANCED_FACE('',(#31),#128,.T.);
#138=ADVANCED_FACE('',(#32),#129,.T.);
#139=ADVANCED_FACE('',(#33),#130,.T.);
#140=ADVANCED_FACE('',(#34,#18),#23,.T.);
#141=ADVANCED_FACE('',(#35),#24,.F.);
#142=CLOSED_SHELL('',(#131,#132,#133,#134,#135,#136,#137,#138,#139,#140,
#141));
#143=DERIVED_UNIT_ELEMENT(#145,1.);
#144=DERIVED_UNIT_ELEMENT(#268,-3.);
#145=(
MASS_UNIT()
NAMED_UNIT(*)
SI_UNIT(.KILO.,.GRAM.)
);
#146=DERIVED_UNIT((#143,#144));
#147=MEASURE_REPRESENTATION_ITEM('density measure',
POSITIVE_RATIO_MEASURE(7850.),#146);
#148=PROPERTY_DEFINITION_REPRESENTATION(#153,#150);
#149=PROPERTY_DEFINITION_REPRESENTATION(#154,#151);
#150=REPRESENTATION('material name',(#152),#265);
#151=REPRESENTATION('density',(#147),#265);
#152=DESCRIPTIVE_REPRESENTATION_ITEM('Acier','Acier');
#153=PROPERTY_DEFINITION('material property','material name',#275);
#154=PROPERTY_DEFINITION('material property','density of part',#275);
#155=AXIS2_PLACEMENT_3D('placement',#226,#177,#178);
#156=AXIS2_PLACEMENT_3D('',#227,#179,#180);
#157=AXIS2_PLACEMENT_3D('',#229,#181,#182);
#158=AXIS2_PLACEMENT_3D('',#232,#184,#185);
#159=AXIS2_PLACEMENT_3D('',#233,#186,#187);
#160=AXIS2_PLACEMENT_3D('',#234,#188,#189);
#161=AXIS2_PLACEMENT_3D('',#236,#190,#191);
#162=AXIS2_PLACEMENT_3D('',#238,#192,#193);
#163=AXIS2_PLACEMENT_3D('',#239,#194,#195);
#164=AXIS2_PLACEMENT_3D('',#241,#196,#197);
#165=AXIS2_PLACEMENT_3D('',#243,#199,#200);
#166=AXIS2_PLACEMENT_3D('',#244,#201,#202);
#167=AXIS2_PLACEMENT_3D('',#246,#203,#204);
#168=AXIS2_PLACEMENT_3D('',#248,#205,#206);
#169=AXIS2_PLACEMENT_3D('',#249,#207,#208);
#170=AXIS2_PLACEMENT_3D('',#251,#210,#211);
#171=AXIS2_PLACEMENT_3D('',#254,#213,#214);
#172=AXIS2_PLACEMENT_3D('',#255,#215,#216);
#173=AXIS2_PLACEMENT_3D('',#257,#217,#218);
#174=AXIS2_PLACEMENT_3D('',#260,#220,#221);
#175=AXIS2_PLACEMENT_3D('',#261,#222,#223);
#176=AXIS2_PLACEMENT_3D('',#262,#224,#225);
#177=DIRECTION('axis',(0.,0.,1.));
#178=DIRECTION('refdir',(1.,0.,0.));
#179=DIRECTION('center_axis',(0.,0.,1.));
#180=DIRECTION('ref_axis',(1.,0.,0.));
#181=DIRECTION('center_axis',(0.,0.,1.));
#182=DIRECTION('ref_axis',(1.,0.,0.));
#183=DIRECTION('',(0.,0.,-1.));
#184=DIRECTION('center_axis',(0.,0.,-1.));
#185=DIRECTION('ref_axis',(1.,0.,0.));
#186=DIRECTION('center_axis',(0.,0.,1.));
#187=DIRECTION('ref_axis',(1.,0.,0.));
#188=DIRECTION('center_axis',(0.,0.,1.));
#189=DIRECTION('ref_axis',(1.,0.,0.));
#190=DIRECTION('center_axis',(0.,0.,1.));
#191=DIRECTION('ref_axis',(1.,0.,0.));
#192=DIRECTION('center_axis',(0.,0.,1.));
#193=DIRECTION('ref_axis',(1.,0.,0.));
#194=DIRECTION('center_axis',(0.,0.,1.));
#195=DIRECTION('ref_axis',(1.,0.,0.));
#196=DIRECTION('center_axis',(0.,0.,1.));
#197=DIRECTION('ref_axis',(1.,0.,0.));
#198=DIRECTION('',(0.,0.,-1.));
#199=DIRECTION('center_axis',(0.,0.,1.));
#200=DIRECTION('ref_axis',(1.,0.,0.));
#201=DIRECTION('center_axis',(0.,0.,1.));
#202=DIRECTION('ref_axis',(1.,0.,0.));
#203=DIRECTION('center_axis',(0.,0.,1.));
#204=DIRECTION('ref_axis',(1.,0.,0.));
#205=DIRECTION('center_axis',(0.,0.,1.));
#206=DIRECTION('ref_axis',(1.,0.,0.));
#207=DIRECTION('center_axis',(0.,0.,1.));
#208=DIRECTION('ref_axis',(1.,0.,0.));
#209=DIRECTION('',(0.,0.,-1.));
#210=DIRECTION('center_axis',(0.,0.,1.));
#211=DIRECTION('ref_axis',(1.,0.,0.));
#212=DIRECTION('',(0.,0.,-1.));
#213=DIRECTION('center_axis',(0.,0.,-1.));
#214=DIRECTION('ref_axis',(1.,0.,0.));
#215=DIRECTION('center_axis',(0.,0.,1.));
#216=DIRECTION('ref_axis',(1.,0.,0.));
#217=DIRECTION('center_axis',(0.,0.,1.));
#218=DIRECTION('ref_axis',(1.,0.,0.));
#219=DIRECTION('',(0.,0.,-1.));
#220=DIRECTION('center_axis',(0.,0.,1.));
#221=DIRECTION('ref_axis',(1.,0.,0.));
#222=DIRECTION('center_axis',(0.,0.,1.));
#223=DIRECTION('ref_axis',(1.,0.,0.));
#224=DIRECTION('center_axis',(0.,0.,1.));
#225=DIRECTION('ref_axis',(1.,0.,0.));
#226=CARTESIAN_POINT('',(0.,0.,0.));
#227=CARTESIAN_POINT('Origin',(0.,0.,14.95));
#228=CARTESIAN_POINT('',(-4.,-4.89858719658941E-16,18.15));
#229=CARTESIAN_POINT('Origin',(0.,0.,18.15));
#230=CARTESIAN_POINT('',(-4.,-4.89858719658941E-16,14.95));
#231=CARTESIAN_POINT('',(-4.,-4.89858719658941E-16,14.95));
#232=CARTESIAN_POINT('Origin',(0.,0.,14.95));
#233=CARTESIAN_POINT('Origin',(0.,0.,18.15));
#234=CARTESIAN_POINT('Origin',(0.,0.,13.5));
#235=CARTESIAN_POINT('',(-6.,-7.34788079488412E-16,13.5));
#236=CARTESIAN_POINT('Origin',(0.,0.,13.5));
#237=CARTESIAN_POINT('',(-3.485,-4.26789409502853E-16,13.5));
#238=CARTESIAN_POINT('Origin',(0.,0.,13.5));
#239=CARTESIAN_POINT('Origin',(0.,0.,13.5));
#240=CARTESIAN_POINT('',(-6.,-7.34788079488412E-16,14.95));
#241=CARTESIAN_POINT('Origin',(0.,0.,14.95));
#242=CARTESIAN_POINT('',(-6.,-7.34788079488412E-16,13.5));
#243=CARTESIAN_POINT('Origin',(0.,0.,14.95));
#244=CARTESIAN_POINT('Origin',(0.,0.,11.5));
#245=CARTESIAN_POINT('',(-3.485,-4.26789409502853E-16,11.5));
#246=CARTESIAN_POINT('Origin',(0.,0.,11.5));
#247=CARTESIAN_POINT('',(-2.74,-3.35553222966375E-16,11.5));
#248=CARTESIAN_POINT('Origin',(0.,0.,11.5));
#249=CARTESIAN_POINT('Origin',(0.,0.,11.5));
#250=CARTESIAN_POINT('',(-3.485,-4.26789409502853E-16,11.5));
#251=CARTESIAN_POINT('Origin',(0.,0.,5.5));
#252=CARTESIAN_POINT('',(-2.74,-3.35553222966375E-16,5.5));
#253=CARTESIAN_POINT('',(-2.74,-3.35553222966375E-16,5.5));
#254=CARTESIAN_POINT('Origin',(0.,0.,5.5));
#255=CARTESIAN_POINT('Origin',(0.,0.,0.));
#256=CARTESIAN_POINT('',(-3.485,-4.26789409502853E-16,5.5));
#257=CARTESIAN_POINT('Origin',(0.,0.,5.5));
#258=CARTESIAN_POINT('',(-3.485,-4.26789409502853E-16,0.));
#259=CARTESIAN_POINT('',(-3.485,-4.26789409502853E-16,0.));
#260=CARTESIAN_POINT('Origin',(0.,0.,0.));
#261=CARTESIAN_POINT('Origin',(0.,0.,5.5));
#262=CARTESIAN_POINT('Origin',(0.,0.,0.));
#263=UNCERTAINTY_MEASURE_WITH_UNIT(LENGTH_MEASURE(0.01),#267,
'DISTANCE_ACCURACY_VALUE',
'Maximum model space distance between geometric entities at asserted c
onnectivities');
#264=UNCERTAINTY_MEASURE_WITH_UNIT(LENGTH_MEASURE(0.01),#267,
'DISTANCE_ACCURACY_VALUE',
'Maximum model space distance between geometric entities at asserted c
onnectivities');
#265=(
GEOMETRIC_REPRESENTATION_CONTEXT(3)
GLOBAL_UNCERTAINTY_ASSIGNED_CONTEXT((#263))
GLOBAL_UNIT_ASSIGNED_CONTEXT((#267,#269,#270))
REPRESENTATION_CONTEXT('','3D')
);
#266=(
GEOMETRIC_REPRESENTATION_CONTEXT(3)
GLOBAL_UNCERTAINTY_ASSIGNED_CONTEXT((#264))
GLOBAL_UNIT_ASSIGNED_CONTEXT((#267,#269,#270))
REPRESENTATION_CONTEXT('','3D')
);
#267=(
LENGTH_UNIT()
NAMED_UNIT(*)
SI_UNIT(.MILLI.,.METRE.)
);
#268=(
LENGTH_UNIT()
NAMED_UNIT(*)
SI_UNIT($,.METRE.)
);
#269=(
NAMED_UNIT(*)
PLANE_ANGLE_UNIT()
SI_UNIT($,.RADIAN.)
);
#270=(
NAMED_UNIT(*)
SI_UNIT($,.STERADIAN.)
SOLID_ANGLE_UNIT()
);
#271=SHAPE_DEFINITION_REPRESENTATION(#272,#273);
#272=PRODUCT_DEFINITION_SHAPE('',$,#275);
#273=SHAPE_REPRESENTATION('',(#155),#265);
#274=PRODUCT_DEFINITION_CONTEXT('part definition',#279,'design');
#275=PRODUCT_DEFINITION('Sonde rh\X\E9o','Sonde rh\X\E9o v1',#276,#274);
#276=PRODUCT_DEFINITION_FORMATION('',$,#281);
#277=PRODUCT_RELATED_PRODUCT_CATEGORY('Sonde rh\X\E9o v1',
'Sonde rh\X\E9o v1',(#281));
#278=APPLICATION_PROTOCOL_DEFINITION('international standard',
'automotive_design',2009,#279);
#279=APPLICATION_CONTEXT(
'Core Data for Automotive Mechanical Design Process');
#280=PRODUCT_CONTEXT('part definition',#279,'mechanical');
#281=PRODUCT('Sonde rh\X\E9o','Sonde rh\X\E9o v1',$,(#280));
#282=PRESENTATION_STYLE_ASSIGNMENT((#283));
#283=SURFACE_STYLE_USAGE(.BOTH.,#284);
#284=SURFACE_SIDE_STYLE('',(#285));
#285=SURFACE_STYLE_FILL_AREA(#286);
#286=FILL_AREA_STYLE('Acier - Satin\X\E9',(#287));
#287=FILL_AREA_STYLE_COLOUR('Acier - Satin\X\E9',#288);
#288=COLOUR_RGB('Acier - Satin\X\E9',0.627450980392157,0.627450980392157,
0.627450980392157);
ENDSEC;
END-ISO-10303-21;
