ISO-10303-21;
HEADER;
/* Generated by software containing ST-Developer
 * from STEP Tools, Inc. (www.steptools.com) 
 */

FILE_DESCRIPTION(
/* description */ ('Axe Truck Bofolia'),
/* implementation_level */ '2;1');

FILE_NAME(
/* name */ 'F:\\Bofolia\\Plans PDF & STEP\\109 Axe Truck Bofolia IndA.
stp',
/* time_stamp */ '2022-05-13T22:03:51+02:00',
/* author */ ('Feuille'),
/* organization */ (''),
/* preprocessor_version */ 'ST-DEVELOPER v17',
/* originating_system */ 'Autodesk Inventor 2019',
/* authorisation */ '');

FILE_SCHEMA (('AUTOMOTIVE_DESIGN { 1 0 10303 214 3 1 1 }'));
ENDSEC;

DATA;
#10=MECHANICAL_DESIGN_GEOMETRIC_PRESENTATION_REPRESENTATION('',(#13),#633);
#11=SHAPE_REPRESENTATION_RELATIONSHIP('SRR','None',#640,#12);
#12=ADVANCED_BREP_SHAPE_REPRESENTATION('',(#14),#632);
#13=STYLED_ITEM('',(#649),#14);
#14=MANIFOLD_SOLID_BREP('Solid1',#341);
#15=CONICAL_SURFACE('',#372,4.75,0.785398163397448);
#16=CONICAL_SURFACE('',#380,3.72,0.785398163397442);
#17=FACE_BOUND('',#86,.T.);
#18=FACE_BOUND('',#94,.T.);
#19=FACE_BOUND('',#97,.T.);
#20=FACE_BOUND('',#100,.T.);
#21=FACE_BOUND('',#103,.T.);
#22=FACE_BOUND('',#106,.T.);
#23=CIRCLE('',#364,9.);
#24=CIRCLE('',#365,9.);
#25=CIRCLE('',#367,9.);
#26=CIRCLE('',#368,9.);
#27=CIRCLE('',#370,7.49999999999999);
#28=CIRCLE('',#371,7.49999999999999);
#29=CIRCLE('',#373,4.5);
#30=CIRCLE('',#374,5.);
#31=CIRCLE('',#375,5.);
#32=CIRCLE('',#377,5.);
#33=CIRCLE('',#378,5.);
#34=CIRCLE('',#381,3.97);
#35=CIRCLE('',#382,3.97);
#36=CIRCLE('',#383,3.47);
#37=CIRCLE('',#386,3.97);
#38=CIRCLE('',#387,3.97);
#39=CIRCLE('',#389,4.);
#40=CIRCLE('',#390,4.);
#41=CIRCLE('',#392,4.);
#42=CIRCLE('',#393,4.);
#43=CIRCLE('',#395,5.99999999999999);
#44=CIRCLE('',#396,5.99999999999999);
#45=CIRCLE('',#398,6.);
#46=CIRCLE('',#399,6.);
#47=CIRCLE('',#401,7.49999999999998);
#48=CIRCLE('',#402,7.49999999999998);
#49=CIRCLE('',#405,5.75);
#50=CIRCLE('',#406,5.75);
#51=CIRCLE('',#408,5.75);
#52=CIRCLE('',#409,5.75);
#53=CYLINDRICAL_SURFACE('',#363,9.);
#54=CYLINDRICAL_SURFACE('',#366,9.);
#55=CYLINDRICAL_SURFACE('',#376,5.);
#56=CYLINDRICAL_SURFACE('',#385,3.97);
#57=CYLINDRICAL_SURFACE('',#391,4.);
#58=CYLINDRICAL_SURFACE('',#397,5.99999999999999);
#59=CYLINDRICAL_SURFACE('',#403,7.49999999999999);
#60=CYLINDRICAL_SURFACE('',#407,5.75);
#61=FACE_OUTER_BOUND('',#81,.T.);
#62=FACE_OUTER_BOUND('',#82,.T.);
#63=FACE_OUTER_BOUND('',#83,.T.);
#64=FACE_OUTER_BOUND('',#84,.T.);
#65=FACE_OUTER_BOUND('',#85,.T.);
#66=FACE_OUTER_BOUND('',#87,.T.);
#67=FACE_OUTER_BOUND('',#88,.T.);
#68=FACE_OUTER_BOUND('',#89,.T.);
#69=FACE_OUTER_BOUND('',#90,.T.);
#70=FACE_OUTER_BOUND('',#91,.T.);
#71=FACE_OUTER_BOUND('',#92,.T.);
#72=FACE_OUTER_BOUND('',#93,.T.);
#73=FACE_OUTER_BOUND('',#95,.T.);
#74=FACE_OUTER_BOUND('',#96,.T.);
#75=FACE_OUTER_BOUND('',#98,.T.);
#76=FACE_OUTER_BOUND('',#99,.T.);
#77=FACE_OUTER_BOUND('',#101,.T.);
#78=FACE_OUTER_BOUND('',#102,.T.);
#79=FACE_OUTER_BOUND('',#104,.T.);
#80=FACE_OUTER_BOUND('',#105,.T.);
#81=EDGE_LOOP('',(#219,#220,#221,#222));
#82=EDGE_LOOP('',(#223,#224,#225,#226));
#83=EDGE_LOOP('',(#227,#228,#229,#230));
#84=EDGE_LOOP('',(#231,#232,#233,#234));
#85=EDGE_LOOP('',(#235,#236,#237,#238));
#86=EDGE_LOOP('',(#239,#240));
#87=EDGE_LOOP('',(#241,#242,#243,#244,#245));
#88=EDGE_LOOP('',(#246,#247,#248,#249,#250,#251));
#89=EDGE_LOOP('',(#252));
#90=EDGE_LOOP('',(#253,#254,#255,#256,#257));
#91=EDGE_LOOP('',(#258));
#92=EDGE_LOOP('',(#259,#260,#261,#262,#263,#264));
#93=EDGE_LOOP('',(#265,#266));
#94=EDGE_LOOP('',(#267,#268));
#95=EDGE_LOOP('',(#269,#270,#271,#272,#273,#274));
#96=EDGE_LOOP('',(#275,#276));
#97=EDGE_LOOP('',(#277,#278));
#98=EDGE_LOOP('',(#279,#280,#281,#282,#283,#284));
#99=EDGE_LOOP('',(#285,#286));
#100=EDGE_LOOP('',(#287,#288));
#101=EDGE_LOOP('',(#289,#290,#291,#292,#293,#294));
#102=EDGE_LOOP('',(#295,#296,#297,#298));
#103=EDGE_LOOP('',(#299,#300));
#104=EDGE_LOOP('',(#301,#302,#303,#304,#305,#306));
#105=EDGE_LOOP('',(#307,#308));
#106=EDGE_LOOP('',(#309,#310));
#107=LINE('',#533,#123);
#108=LINE('',#535,#124);
#109=LINE('',#537,#125);
#110=LINE('',#538,#126);
#111=LINE('',#542,#127);
#112=LINE('',#544,#128);
#113=LINE('',#546,#129);
#114=LINE('',#547,#130);
#115=LINE('',#563,#131);
#116=LINE('',#569,#132);
#117=LINE('',#580,#133);
#118=LINE('',#588,#134);
#119=LINE('',#599,#135);
#120=LINE('',#610,#136);
#121=LINE('',#617,#137);
#122=LINE('',#628,#138);
#123=VECTOR('',#415,10.);
#124=VECTOR('',#416,10.);
#125=VECTOR('',#417,10.);
#126=VECTOR('',#418,10.);
#127=VECTOR('',#421,10.);
#128=VECTOR('',#422,10.);
#129=VECTOR('',#423,10.);
#130=VECTOR('',#424,10.);
#131=VECTOR('',#447,4.75);
#132=VECTOR('',#454,5.);
#133=VECTOR('',#467,3.72);
#134=VECTOR('',#478,3.97);
#135=VECTOR('',#491,4.);
#136=VECTOR('',#504,5.99999999999999);
#137=VECTOR('',#513,7.49999999999999);
#138=VECTOR('',#526,5.75);
#139=VERTEX_POINT('',#531);
#140=VERTEX_POINT('',#532);
#141=VERTEX_POINT('',#534);
#142=VERTEX_POINT('',#536);
#143=VERTEX_POINT('',#540);
#144=VERTEX_POINT('',#541);
#145=VERTEX_POINT('',#543);
#146=VERTEX_POINT('',#545);
#147=VERTEX_POINT('',#555);
#148=VERTEX_POINT('',#556);
#149=VERTEX_POINT('',#560);
#150=VERTEX_POINT('',#562);
#151=VERTEX_POINT('',#564);
#152=VERTEX_POINT('',#568);
#153=VERTEX_POINT('',#570);
#154=VERTEX_POINT('',#575);
#155=VERTEX_POINT('',#576);
#156=VERTEX_POINT('',#579);
#157=VERTEX_POINT('',#584);
#158=VERTEX_POINT('',#585);
#159=VERTEX_POINT('',#590);
#160=VERTEX_POINT('',#591);
#161=VERTEX_POINT('',#595);
#162=VERTEX_POINT('',#596);
#163=VERTEX_POINT('',#601);
#164=VERTEX_POINT('',#602);
#165=VERTEX_POINT('',#606);
#166=VERTEX_POINT('',#607);
#167=VERTEX_POINT('',#612);
#168=VERTEX_POINT('',#613);
#169=VERTEX_POINT('',#619);
#170=VERTEX_POINT('',#620);
#171=VERTEX_POINT('',#624);
#172=VERTEX_POINT('',#625);
#173=EDGE_CURVE('',#139,#140,#107,.T.);
#174=EDGE_CURVE('',#141,#139,#108,.T.);
#175=EDGE_CURVE('',#142,#141,#109,.T.);
#176=EDGE_CURVE('',#140,#142,#110,.T.);
#177=EDGE_CURVE('',#143,#144,#111,.T.);
#178=EDGE_CURVE('',#145,#143,#112,.T.);
#179=EDGE_CURVE('',#146,#145,#113,.T.);
#180=EDGE_CURVE('',#144,#146,#114,.T.);
#181=EDGE_CURVE('',#141,#146,#23,.T.);
#182=EDGE_CURVE('',#142,#145,#24,.T.);
#183=EDGE_CURVE('',#143,#140,#25,.T.);
#184=EDGE_CURVE('',#144,#139,#26,.T.);
#185=EDGE_CURVE('',#147,#148,#27,.T.);
#186=EDGE_CURVE('',#148,#147,#28,.T.);
#187=EDGE_CURVE('',#149,#149,#29,.T.);
#188=EDGE_CURVE('',#149,#150,#115,.T.);
#189=EDGE_CURVE('',#150,#151,#30,.T.);
#190=EDGE_CURVE('',#151,#150,#31,.T.);
#191=EDGE_CURVE('',#151,#152,#116,.T.);
#192=EDGE_CURVE('',#152,#153,#32,.T.);
#193=EDGE_CURVE('',#153,#152,#33,.T.);
#194=EDGE_CURVE('',#154,#155,#34,.T.);
#195=EDGE_CURVE('',#155,#154,#35,.T.);
#196=EDGE_CURVE('',#154,#156,#117,.T.);
#197=EDGE_CURVE('',#156,#156,#36,.T.);
#198=EDGE_CURVE('',#157,#158,#37,.T.);
#199=EDGE_CURVE('',#158,#157,#38,.T.);
#200=EDGE_CURVE('',#158,#155,#118,.T.);
#201=EDGE_CURVE('',#159,#160,#39,.T.);
#202=EDGE_CURVE('',#160,#159,#40,.T.);
#203=EDGE_CURVE('',#161,#162,#41,.T.);
#204=EDGE_CURVE('',#162,#161,#42,.T.);
#205=EDGE_CURVE('',#162,#160,#119,.T.);
#206=EDGE_CURVE('',#163,#164,#43,.T.);
#207=EDGE_CURVE('',#164,#163,#44,.T.);
#208=EDGE_CURVE('',#165,#166,#45,.T.);
#209=EDGE_CURVE('',#166,#165,#46,.T.);
#210=EDGE_CURVE('',#166,#164,#120,.T.);
#211=EDGE_CURVE('',#167,#168,#47,.T.);
#212=EDGE_CURVE('',#168,#167,#48,.T.);
#213=EDGE_CURVE('',#148,#168,#121,.T.);
#214=EDGE_CURVE('',#169,#170,#49,.T.);
#215=EDGE_CURVE('',#170,#169,#50,.T.);
#216=EDGE_CURVE('',#171,#172,#51,.T.);
#217=EDGE_CURVE('',#172,#171,#52,.T.);
#218=EDGE_CURVE('',#172,#170,#122,.T.);
#219=ORIENTED_EDGE('',*,*,#173,.F.);
#220=ORIENTED_EDGE('',*,*,#174,.F.);
#221=ORIENTED_EDGE('',*,*,#175,.F.);
#222=ORIENTED_EDGE('',*,*,#176,.F.);
#223=ORIENTED_EDGE('',*,*,#177,.F.);
#224=ORIENTED_EDGE('',*,*,#178,.F.);
#225=ORIENTED_EDGE('',*,*,#179,.F.);
#226=ORIENTED_EDGE('',*,*,#180,.F.);
#227=ORIENTED_EDGE('',*,*,#175,.T.);
#228=ORIENTED_EDGE('',*,*,#181,.T.);
#229=ORIENTED_EDGE('',*,*,#179,.T.);
#230=ORIENTED_EDGE('',*,*,#182,.F.);
#231=ORIENTED_EDGE('',*,*,#173,.T.);
#232=ORIENTED_EDGE('',*,*,#183,.F.);
#233=ORIENTED_EDGE('',*,*,#177,.T.);
#234=ORIENTED_EDGE('',*,*,#184,.T.);
#235=ORIENTED_EDGE('',*,*,#176,.T.);
#236=ORIENTED_EDGE('',*,*,#182,.T.);
#237=ORIENTED_EDGE('',*,*,#178,.T.);
#238=ORIENTED_EDGE('',*,*,#183,.T.);
#239=ORIENTED_EDGE('',*,*,#185,.F.);
#240=ORIENTED_EDGE('',*,*,#186,.F.);
#241=ORIENTED_EDGE('',*,*,#187,.T.);
#242=ORIENTED_EDGE('',*,*,#188,.T.);
#243=ORIENTED_EDGE('',*,*,#189,.T.);
#244=ORIENTED_EDGE('',*,*,#190,.T.);
#245=ORIENTED_EDGE('',*,*,#188,.F.);
#246=ORIENTED_EDGE('',*,*,#189,.F.);
#247=ORIENTED_EDGE('',*,*,#190,.F.);
#248=ORIENTED_EDGE('',*,*,#191,.T.);
#249=ORIENTED_EDGE('',*,*,#192,.T.);
#250=ORIENTED_EDGE('',*,*,#193,.T.);
#251=ORIENTED_EDGE('',*,*,#191,.F.);
#252=ORIENTED_EDGE('',*,*,#187,.F.);
#253=ORIENTED_EDGE('',*,*,#194,.T.);
#254=ORIENTED_EDGE('',*,*,#195,.T.);
#255=ORIENTED_EDGE('',*,*,#196,.T.);
#256=ORIENTED_EDGE('',*,*,#197,.T.);
#257=ORIENTED_EDGE('',*,*,#196,.F.);
#258=ORIENTED_EDGE('',*,*,#197,.F.);
#259=ORIENTED_EDGE('',*,*,#198,.F.);
#260=ORIENTED_EDGE('',*,*,#199,.F.);
#261=ORIENTED_EDGE('',*,*,#200,.T.);
#262=ORIENTED_EDGE('',*,*,#194,.F.);
#263=ORIENTED_EDGE('',*,*,#195,.F.);
#264=ORIENTED_EDGE('',*,*,#200,.F.);
#265=ORIENTED_EDGE('',*,*,#201,.F.);
#266=ORIENTED_EDGE('',*,*,#202,.F.);
#267=ORIENTED_EDGE('',*,*,#198,.T.);
#268=ORIENTED_EDGE('',*,*,#199,.T.);
#269=ORIENTED_EDGE('',*,*,#203,.F.);
#270=ORIENTED_EDGE('',*,*,#204,.F.);
#271=ORIENTED_EDGE('',*,*,#205,.T.);
#272=ORIENTED_EDGE('',*,*,#202,.T.);
#273=ORIENTED_EDGE('',*,*,#201,.T.);
#274=ORIENTED_EDGE('',*,*,#205,.F.);
#275=ORIENTED_EDGE('',*,*,#206,.F.);
#276=ORIENTED_EDGE('',*,*,#207,.F.);
#277=ORIENTED_EDGE('',*,*,#203,.T.);
#278=ORIENTED_EDGE('',*,*,#204,.T.);
#279=ORIENTED_EDGE('',*,*,#208,.F.);
#280=ORIENTED_EDGE('',*,*,#209,.F.);
#281=ORIENTED_EDGE('',*,*,#210,.T.);
#282=ORIENTED_EDGE('',*,*,#207,.T.);
#283=ORIENTED_EDGE('',*,*,#206,.T.);
#284=ORIENTED_EDGE('',*,*,#210,.F.);
#285=ORIENTED_EDGE('',*,*,#211,.F.);
#286=ORIENTED_EDGE('',*,*,#212,.F.);
#287=ORIENTED_EDGE('',*,*,#208,.T.);
#288=ORIENTED_EDGE('',*,*,#209,.T.);
#289=ORIENTED_EDGE('',*,*,#185,.T.);
#290=ORIENTED_EDGE('',*,*,#213,.T.);
#291=ORIENTED_EDGE('',*,*,#212,.T.);
#292=ORIENTED_EDGE('',*,*,#211,.T.);
#293=ORIENTED_EDGE('',*,*,#213,.F.);
#294=ORIENTED_EDGE('',*,*,#186,.T.);
#295=ORIENTED_EDGE('',*,*,#174,.T.);
#296=ORIENTED_EDGE('',*,*,#184,.F.);
#297=ORIENTED_EDGE('',*,*,#180,.T.);
#298=ORIENTED_EDGE('',*,*,#181,.F.);
#299=ORIENTED_EDGE('',*,*,#214,.F.);
#300=ORIENTED_EDGE('',*,*,#215,.F.);
#301=ORIENTED_EDGE('',*,*,#216,.F.);
#302=ORIENTED_EDGE('',*,*,#217,.F.);
#303=ORIENTED_EDGE('',*,*,#218,.T.);
#304=ORIENTED_EDGE('',*,*,#215,.T.);
#305=ORIENTED_EDGE('',*,*,#214,.T.);
#306=ORIENTED_EDGE('',*,*,#218,.F.);
#307=ORIENTED_EDGE('',*,*,#216,.T.);
#308=ORIENTED_EDGE('',*,*,#217,.T.);
#309=ORIENTED_EDGE('',*,*,#193,.F.);
#310=ORIENTED_EDGE('',*,*,#192,.F.);
#311=PLANE('',#361);
#312=PLANE('',#362);
#313=PLANE('',#369);
#314=PLANE('',#379);
#315=PLANE('',#384);
#316=PLANE('',#388);
#317=PLANE('',#394);
#318=PLANE('',#400);
#319=PLANE('',#404);
#320=PLANE('',#410);
#321=ADVANCED_FACE('',(#61),#311,.F.);
#322=ADVANCED_FACE('',(#62),#312,.F.);
#323=ADVANCED_FACE('',(#63),#53,.T.);
#324=ADVANCED_FACE('',(#64),#54,.T.);
#325=ADVANCED_FACE('',(#65,#17),#313,.F.);
#326=ADVANCED_FACE('',(#66),#15,.T.);
#327=ADVANCED_FACE('',(#67),#55,.T.);
#328=ADVANCED_FACE('',(#68),#314,.T.);
#329=ADVANCED_FACE('',(#69),#16,.T.);
#330=ADVANCED_FACE('',(#70),#315,.T.);
#331=ADVANCED_FACE('',(#71),#56,.T.);
#332=ADVANCED_FACE('',(#72,#18),#316,.T.);
#333=ADVANCED_FACE('',(#73),#57,.T.);
#334=ADVANCED_FACE('',(#74,#19),#317,.T.);
#335=ADVANCED_FACE('',(#75),#58,.T.);
#336=ADVANCED_FACE('',(#76,#20),#318,.T.);
#337=ADVANCED_FACE('',(#77),#59,.T.);
#338=ADVANCED_FACE('',(#78,#21),#319,.T.);
#339=ADVANCED_FACE('',(#79),#60,.T.);
#340=ADVANCED_FACE('',(#80,#22),#320,.T.);
#341=CLOSED_SHELL('',(#321,#322,#323,#324,#325,#326,#327,#328,#329,#330,
#331,#332,#333,#334,#335,#336,#337,#338,#339,#340));
#342=DERIVED_UNIT_ELEMENT(#344,1.);
#343=DERIVED_UNIT_ELEMENT(#635,3.);
#344=(
MASS_UNIT()
NAMED_UNIT(*)
SI_UNIT($,.GRAM.)
);
#345=DERIVED_UNIT((#342,#343));
#346=MEASURE_REPRESENTATION_ITEM('density measure',
POSITIVE_RATIO_MEASURE(1.),#345);
#347=PROPERTY_DEFINITION_REPRESENTATION(#352,#349);
#348=PROPERTY_DEFINITION_REPRESENTATION(#353,#350);
#349=REPRESENTATION('material name',(#351),#632);
#350=REPRESENTATION('density',(#346),#632);
#351=DESCRIPTIVE_REPRESENTATION_ITEM('Acier Inox APX (X17CrNi16-2)',
'Acier Inox APX (X17CrNi16-2)');
#352=PROPERTY_DEFINITION('material property','material name',#642);
#353=PROPERTY_DEFINITION('material property','density of part',#642);
#354=DATE_TIME_ROLE('creation_date');
#355=APPLIED_DATE_AND_TIME_ASSIGNMENT(#356,#354,(#642));
#356=DATE_AND_TIME(#357,#358);
#357=CALENDAR_DATE(2021,28,12);
#358=LOCAL_TIME(20,34,57.,#359);
#359=COORDINATED_UNIVERSAL_TIME_OFFSET(0,0,.BEHIND.);
#360=AXIS2_PLACEMENT_3D('placement',#529,#411,#412);
#361=AXIS2_PLACEMENT_3D('',#530,#413,#414);
#362=AXIS2_PLACEMENT_3D('',#539,#419,#420);
#363=AXIS2_PLACEMENT_3D('',#548,#425,#426);
#364=AXIS2_PLACEMENT_3D('',#549,#427,#428);
#365=AXIS2_PLACEMENT_3D('',#550,#429,#430);
#366=AXIS2_PLACEMENT_3D('',#551,#431,#432);
#367=AXIS2_PLACEMENT_3D('',#552,#433,#434);
#368=AXIS2_PLACEMENT_3D('',#553,#435,#436);
#369=AXIS2_PLACEMENT_3D('',#554,#437,#438);
#370=AXIS2_PLACEMENT_3D('',#557,#439,#440);
#371=AXIS2_PLACEMENT_3D('',#558,#441,#442);
#372=AXIS2_PLACEMENT_3D('',#559,#443,#444);
#373=AXIS2_PLACEMENT_3D('',#561,#445,#446);
#374=AXIS2_PLACEMENT_3D('',#565,#448,#449);
#375=AXIS2_PLACEMENT_3D('',#566,#450,#451);
#376=AXIS2_PLACEMENT_3D('',#567,#452,#453);
#377=AXIS2_PLACEMENT_3D('',#571,#455,#456);
#378=AXIS2_PLACEMENT_3D('',#572,#457,#458);
#379=AXIS2_PLACEMENT_3D('',#573,#459,#460);
#380=AXIS2_PLACEMENT_3D('',#574,#461,#462);
#381=AXIS2_PLACEMENT_3D('',#577,#463,#464);
#382=AXIS2_PLACEMENT_3D('',#578,#465,#466);
#383=AXIS2_PLACEMENT_3D('',#581,#468,#469);
#384=AXIS2_PLACEMENT_3D('',#582,#470,#471);
#385=AXIS2_PLACEMENT_3D('',#583,#472,#473);
#386=AXIS2_PLACEMENT_3D('',#586,#474,#475);
#387=AXIS2_PLACEMENT_3D('',#587,#476,#477);
#388=AXIS2_PLACEMENT_3D('',#589,#479,#480);
#389=AXIS2_PLACEMENT_3D('',#592,#481,#482);
#390=AXIS2_PLACEMENT_3D('',#593,#483,#484);
#391=AXIS2_PLACEMENT_3D('',#594,#485,#486);
#392=AXIS2_PLACEMENT_3D('',#597,#487,#488);
#393=AXIS2_PLACEMENT_3D('',#598,#489,#490);
#394=AXIS2_PLACEMENT_3D('',#600,#492,#493);
#395=AXIS2_PLACEMENT_3D('',#603,#494,#495);
#396=AXIS2_PLACEMENT_3D('',#604,#496,#497);
#397=AXIS2_PLACEMENT_3D('',#605,#498,#499);
#398=AXIS2_PLACEMENT_3D('',#608,#500,#501);
#399=AXIS2_PLACEMENT_3D('',#609,#502,#503);
#400=AXIS2_PLACEMENT_3D('',#611,#505,#506);
#401=AXIS2_PLACEMENT_3D('',#614,#507,#508);
#402=AXIS2_PLACEMENT_3D('',#615,#509,#510);
#403=AXIS2_PLACEMENT_3D('',#616,#511,#512);
#404=AXIS2_PLACEMENT_3D('',#618,#514,#515);
#405=AXIS2_PLACEMENT_3D('',#621,#516,#517);
#406=AXIS2_PLACEMENT_3D('',#622,#518,#519);
#407=AXIS2_PLACEMENT_3D('',#623,#520,#521);
#408=AXIS2_PLACEMENT_3D('',#626,#522,#523);
#409=AXIS2_PLACEMENT_3D('',#627,#524,#525);
#410=AXIS2_PLACEMENT_3D('',#629,#527,#528);
#411=DIRECTION('axis',(0.,0.,1.));
#412=DIRECTION('refdir',(1.,0.,0.));
#413=DIRECTION('center_axis',(0.,0.,-1.));
#414=DIRECTION('ref_axis',(0.,1.,0.));
#415=DIRECTION('',(-1.58603289232165E-16,1.,0.));
#416=DIRECTION('',(-1.,-1.22812281485084E-16,0.));
#417=DIRECTION('',(1.58603289232165E-16,-1.,0.));
#418=DIRECTION('',(1.,1.22812281485084E-16,0.));
#419=DIRECTION('center_axis',(0.,0.,1.));
#420=DIRECTION('ref_axis',(0.,-1.,0.));
#421=DIRECTION('',(1.58603289232165E-16,-1.,0.));
#422=DIRECTION('',(-1.,-1.22812281485084E-16,0.));
#423=DIRECTION('',(-1.58603289232165E-16,1.,0.));
#424=DIRECTION('',(1.,1.22812281485084E-16,0.));
#425=DIRECTION('center_axis',(-1.58603289232165E-16,1.,0.));
#426=DIRECTION('ref_axis',(1.,1.58603289232165E-16,1.22464679914735E-16));
#427=DIRECTION('center_axis',(-1.22812281485084E-16,1.,0.));
#428=DIRECTION('ref_axis',(-1.,-1.22812281485084E-16,0.));
#429=DIRECTION('center_axis',(-1.22812281485084E-16,1.,0.));
#430=DIRECTION('ref_axis',(-1.,-1.22812281485084E-16,0.));
#431=DIRECTION('center_axis',(-1.58603289232165E-16,1.,0.));
#432=DIRECTION('ref_axis',(-1.,-1.58603289232165E-16,0.));
#433=DIRECTION('center_axis',(-1.22812281485084E-16,1.,0.));
#434=DIRECTION('ref_axis',(-1.,-1.22812281485084E-16,0.));
#435=DIRECTION('center_axis',(-1.22812281485084E-16,1.,0.));
#436=DIRECTION('ref_axis',(-1.,-1.22812281485084E-16,0.));
#437=DIRECTION('center_axis',(1.22812281485084E-16,-1.,0.));
#438=DIRECTION('ref_axis',(0.,0.,-1.));
#439=DIRECTION('center_axis',(-1.22812281485084E-16,1.,0.));
#440=DIRECTION('ref_axis',(1.,0.,0.));
#441=DIRECTION('center_axis',(-1.22812281485084E-16,1.,0.));
#442=DIRECTION('ref_axis',(1.,0.,0.));
#443=DIRECTION('center_axis',(-1.22812281485084E-16,1.,0.));
#444=DIRECTION('ref_axis',(-1.,-5.81742385981975E-17,0.));
#445=DIRECTION('center_axis',(-1.22812281485084E-16,1.,0.));
#446=DIRECTION('ref_axis',(-1.,-1.22812281485084E-16,0.));
#447=DIRECTION('',(0.707106781186547,0.707106781186548,8.65956056235493E-17));
#448=DIRECTION('center_axis',(1.22812281485084E-16,-1.,0.));
#449=DIRECTION('ref_axis',(-1.,0.,0.));
#450=DIRECTION('center_axis',(1.22812281485084E-16,-1.,0.));
#451=DIRECTION('ref_axis',(-1.,0.,0.));
#452=DIRECTION('center_axis',(1.22812281485084E-16,-1.,0.));
#453=DIRECTION('ref_axis',(1.,0.,0.));
#454=DIRECTION('',(-1.22812281485084E-16,1.,0.));
#455=DIRECTION('center_axis',(1.22812281485084E-16,-1.,0.));
#456=DIRECTION('ref_axis',(1.,1.22812281485084E-16,0.));
#457=DIRECTION('center_axis',(1.22812281485084E-16,-1.,0.));
#458=DIRECTION('ref_axis',(1.,1.22812281485084E-16,0.));
#459=DIRECTION('center_axis',(1.22812281485084E-16,-1.,0.));
#460=DIRECTION('ref_axis',(0.,0.,-1.));
#461=DIRECTION('center_axis',(1.22812281485082E-16,-1.,0.));
#462=DIRECTION('ref_axis',(-1.,-5.72793839722097E-17,0.));
#463=DIRECTION('center_axis',(-1.22812281485084E-16,1.,0.));
#464=DIRECTION('ref_axis',(-1.,0.,0.));
#465=DIRECTION('center_axis',(-1.22812281485084E-16,1.,0.));
#466=DIRECTION('ref_axis',(-1.,0.,0.));
#467=DIRECTION('',(-0.707106781186543,0.707106781186552,-8.65956056235488E-17));
#468=DIRECTION('center_axis',(1.22812281485084E-16,-1.,0.));
#469=DIRECTION('ref_axis',(-1.,-1.22812281485084E-16,0.));
#470=DIRECTION('center_axis',(-1.22812281485084E-16,1.,0.));
#471=DIRECTION('ref_axis',(0.,0.,1.));
#472=DIRECTION('center_axis',(1.22812281485084E-16,-1.,0.));
#473=DIRECTION('ref_axis',(1.,0.,0.));
#474=DIRECTION('center_axis',(1.22812281485084E-16,-1.,0.));
#475=DIRECTION('ref_axis',(1.,1.22812281485084E-16,0.));
#476=DIRECTION('center_axis',(1.22812281485084E-16,-1.,0.));
#477=DIRECTION('ref_axis',(1.,1.22812281485084E-16,0.));
#478=DIRECTION('',(-1.22812281485084E-16,1.,0.));
#479=DIRECTION('center_axis',(-1.22812281485084E-16,1.,0.));
#480=DIRECTION('ref_axis',(0.,0.,1.));
#481=DIRECTION('center_axis',(1.22812281485084E-16,-1.,0.));
#482=DIRECTION('ref_axis',(1.,1.22812281485084E-16,0.));
#483=DIRECTION('center_axis',(1.22812281485084E-16,-1.,0.));
#484=DIRECTION('ref_axis',(1.,1.22812281485084E-16,0.));
#485=DIRECTION('center_axis',(1.22812281485084E-16,-1.,0.));
#486=DIRECTION('ref_axis',(1.,0.,0.));
#487=DIRECTION('center_axis',(1.22812281485084E-16,-1.,0.));
#488=DIRECTION('ref_axis',(1.,1.22812281485084E-16,0.));
#489=DIRECTION('center_axis',(1.22812281485084E-16,-1.,0.));
#490=DIRECTION('ref_axis',(1.,1.22812281485084E-16,0.));
#491=DIRECTION('',(-1.22812281485084E-16,1.,0.));
#492=DIRECTION('center_axis',(-1.22812281485084E-16,1.,0.));
#493=DIRECTION('ref_axis',(0.,0.,1.));
#494=DIRECTION('center_axis',(1.22812281485084E-16,-1.,0.));
#495=DIRECTION('ref_axis',(1.,1.22812281485084E-16,0.));
#496=DIRECTION('center_axis',(1.22812281485084E-16,-1.,0.));
#497=DIRECTION('ref_axis',(1.,1.22812281485084E-16,0.));
#498=DIRECTION('center_axis',(1.22812281485084E-16,-1.,0.));
#499=DIRECTION('ref_axis',(1.,0.,0.));
#500=DIRECTION('center_axis',(1.22812281485084E-16,-1.,0.));
#501=DIRECTION('ref_axis',(1.,1.22812281485084E-16,0.));
#502=DIRECTION('center_axis',(1.22812281485084E-16,-1.,0.));
#503=DIRECTION('ref_axis',(1.,1.22812281485084E-16,0.));
#504=DIRECTION('',(-1.22812281485084E-16,1.,0.));
#505=DIRECTION('center_axis',(-1.22812281485084E-16,1.,0.));
#506=DIRECTION('ref_axis',(0.,0.,1.));
#507=DIRECTION('center_axis',(1.22812281485084E-16,-1.,0.));
#508=DIRECTION('ref_axis',(1.,1.22812281485084E-16,0.));
#509=DIRECTION('center_axis',(1.22812281485084E-16,-1.,0.));
#510=DIRECTION('ref_axis',(1.,1.22812281485084E-16,0.));
#511=DIRECTION('center_axis',(1.22812281485084E-16,-1.,0.));
#512=DIRECTION('ref_axis',(1.,0.,0.));
#513=DIRECTION('',(-1.22812281485084E-16,1.,0.));
#514=DIRECTION('center_axis',(1.22812281485084E-16,-1.,0.));
#515=DIRECTION('ref_axis',(0.,0.,-1.));
#516=DIRECTION('center_axis',(1.22812281485084E-16,-1.,0.));
#517=DIRECTION('ref_axis',(1.,1.22812281485084E-16,0.));
#518=DIRECTION('center_axis',(1.22812281485084E-16,-1.,0.));
#519=DIRECTION('ref_axis',(1.,1.22812281485084E-16,0.));
#520=DIRECTION('center_axis',(1.22812281485084E-16,-1.,0.));
#521=DIRECTION('ref_axis',(1.,0.,0.));
#522=DIRECTION('center_axis',(1.22812281485084E-16,-1.,0.));
#523=DIRECTION('ref_axis',(1.,1.22812281485084E-16,0.));
#524=DIRECTION('center_axis',(1.22812281485084E-16,-1.,0.));
#525=DIRECTION('ref_axis',(1.,1.22812281485084E-16,0.));
#526=DIRECTION('',(-1.22812281485084E-16,1.,0.));
#527=DIRECTION('center_axis',(1.22812281485084E-16,-1.,0.));
#528=DIRECTION('ref_axis',(0.,0.,-1.));
#529=CARTESIAN_POINT('',(0.,0.,0.));
#530=CARTESIAN_POINT('Origin',(0.,26.,8.));
#531=CARTESIAN_POINT('',(-4.12310562561767,26.,8.));
#532=CARTESIAN_POINT('',(-4.12310562561767,33.,8.));
#533=CARTESIAN_POINT('',(-4.12310562561767,26.,8.));
#534=CARTESIAN_POINT('',(4.12310562561766,26.,8.));
#535=CARTESIAN_POINT('',(2.875,26.,8.));
#536=CARTESIAN_POINT('',(4.12310562561766,33.,8.));
#537=CARTESIAN_POINT('',(4.12310562561766,26.,8.));
#538=CARTESIAN_POINT('',(-2.99792407177095E-15,33.,8.));
#539=CARTESIAN_POINT('Origin',(0.,33.,-8.));
#540=CARTESIAN_POINT('',(-4.12310562561767,33.,-8.));
#541=CARTESIAN_POINT('',(-4.12310562561767,26.,-8.));
#542=CARTESIAN_POINT('',(-4.12310562561767,26.,-8.));
#543=CARTESIAN_POINT('',(4.12310562561766,33.,-8.));
#544=CARTESIAN_POINT('',(-2.56808108657316E-15,33.,-8.));
#545=CARTESIAN_POINT('',(4.12310562561766,26.,-8.));
#546=CARTESIAN_POINT('',(4.12310562561766,26.,-8.));
#547=CARTESIAN_POINT('',(2.875,26.,-8.));
#548=CARTESIAN_POINT('Origin',(-3.19311931861217E-15,26.,0.));
#549=CARTESIAN_POINT('Origin',(-3.19311931861217E-15,26.,0.));
#550=CARTESIAN_POINT('Origin',(-4.30334234323733E-15,33.,0.));
#551=CARTESIAN_POINT('Origin',(-3.19311931861217E-15,26.,0.));
#552=CARTESIAN_POINT('Origin',(-4.30334234323733E-15,33.,0.));
#553=CARTESIAN_POINT('Origin',(-3.19311931861217E-15,26.,0.));
#554=CARTESIAN_POINT('Origin',(-5.13616217314632E-15,33.,2.05596856412066E-16));
#555=CARTESIAN_POINT('',(7.49999999999999,33.,9.18485099360514E-16));
#556=CARTESIAN_POINT('',(-7.49999999999999,33.,-9.18485099360513E-16));
#557=CARTESIAN_POINT('Origin',(-4.05280528900776E-15,33.,0.));
#558=CARTESIAN_POINT('Origin',(-4.05280528900776E-15,33.,0.));
#559=CARTESIAN_POINT('Origin',(-3.0703070371269E-17,0.25,0.));
#560=CARTESIAN_POINT('',(4.5,5.52655266682876E-16,-5.51091059616309E-16));
#561=CARTESIAN_POINT('Origin',(1.97985598283008E-30,0.,0.));
#562=CARTESIAN_POINT('',(5.,0.5,6.12323399573677E-16));
#563=CARTESIAN_POINT('',(4.75,0.25,5.81707229594993E-16));
#564=CARTESIAN_POINT('',(-5.,0.499999999999999,-6.12323399573677E-16));
#565=CARTESIAN_POINT('Origin',(-6.14061407425399E-17,0.5,0.));
#566=CARTESIAN_POINT('Origin',(-6.14061407425399E-17,0.5,0.));
#567=CARTESIAN_POINT('Origin',(-9.21092111138125E-16,7.5,0.));
#568=CARTESIAN_POINT('',(-5.,15.,-6.12323399573677E-16));
#569=CARTESIAN_POINT('',(-5.,7.5,-6.12323399573677E-16));
#570=CARTESIAN_POINT('',(5.,15.,0.));
#571=CARTESIAN_POINT('Origin',(-1.84218422227625E-15,15.,0.));
#572=CARTESIAN_POINT('Origin',(-1.84218422227625E-15,15.,0.));
#573=CARTESIAN_POINT('Origin',(0.,0.,0.));
#574=CARTESIAN_POINT('Origin',(-1.38470847374432E-14,112.75,0.));
#575=CARTESIAN_POINT('',(3.96999999999999,112.5,-4.86184779261499E-16));
#576=CARTESIAN_POINT('',(-3.97000000000002,112.5,-4.86184779261499E-16));
#577=CARTESIAN_POINT('Origin',(-1.38163816670719E-14,112.5,0.));
#578=CARTESIAN_POINT('Origin',(-1.38163816670719E-14,112.5,0.));
#579=CARTESIAN_POINT('',(3.46999999999999,113.,4.24952439304132E-16));
#580=CARTESIAN_POINT('',(3.71999999999999,112.75,4.55568609282816E-16));
#581=CARTESIAN_POINT('Origin',(-1.38777878078145E-14,113.,0.));
#582=CARTESIAN_POINT('Origin',(3.96999999999999,113.,0.));
#583=CARTESIAN_POINT('Origin',(-1.3263726400389E-14,108.,0.));
#584=CARTESIAN_POINT('',(3.96999999999999,103.,0.));
#585=CARTESIAN_POINT('',(-3.97000000000001,103.,-4.86184779261499E-16));
#586=CARTESIAN_POINT('Origin',(-1.26496649929636E-14,103.,0.));
#587=CARTESIAN_POINT('Origin',(-1.26496649929636E-14,103.,0.));
#588=CARTESIAN_POINT('',(-3.97000000000001,108.,-4.86184779261499E-16));
#589=CARTESIAN_POINT('Origin',(3.99999999999999,103.,0.));
#590=CARTESIAN_POINT('',(3.99999999999999,103.,0.));
#591=CARTESIAN_POINT('',(-4.00000000000001,103.,-4.89858719658941E-16));
#592=CARTESIAN_POINT('Origin',(-1.26496649929636E-14,103.,0.));
#593=CARTESIAN_POINT('Origin',(-1.26496649929636E-14,103.,0.));
#594=CARTESIAN_POINT('Origin',(-1.11759176151426E-14,91.,0.));
#595=CARTESIAN_POINT('',(3.99999999999999,79.,0.));
#596=CARTESIAN_POINT('',(-4.00000000000001,79.,-4.89858719658941E-16));
#597=CARTESIAN_POINT('Origin',(-9.70217023732161E-15,79.,0.));
#598=CARTESIAN_POINT('Origin',(-9.70217023732161E-15,79.,0.));
#599=CARTESIAN_POINT('',(-4.00000000000001,91.,-4.89858719658941E-16));
#600=CARTESIAN_POINT('Origin',(5.99999999999998,79.,0.));
#601=CARTESIAN_POINT('',(5.99999999999998,79.,0.));
#602=CARTESIAN_POINT('',(-6.,79.,-7.34788079488411E-16));
#603=CARTESIAN_POINT('Origin',(-9.70217023732161E-15,79.,0.));
#604=CARTESIAN_POINT('Origin',(-9.70217023732161E-15,79.,0.));
#605=CARTESIAN_POINT('Origin',(-9.08810882989619E-15,74.,0.));
#606=CARTESIAN_POINT('',(5.99999999999999,69.,0.));
#607=CARTESIAN_POINT('',(-6.,69.,-7.34788079488411E-16));
#608=CARTESIAN_POINT('Origin',(-8.47404742247077E-15,69.,0.));
#609=CARTESIAN_POINT('Origin',(-8.47404742247077E-15,69.,0.));
#610=CARTESIAN_POINT('',(-6.,74.,-7.34788079488411E-16));
#611=CARTESIAN_POINT('Origin',(7.49999999999997,69.,0.));
#612=CARTESIAN_POINT('',(7.49999999999997,69.,0.));
#613=CARTESIAN_POINT('',(-7.49999999999999,69.,-9.18485099360513E-16));
#614=CARTESIAN_POINT('Origin',(-8.47404742247077E-15,69.,0.));
#615=CARTESIAN_POINT('Origin',(-8.47404742247077E-15,69.,0.));
#616=CARTESIAN_POINT('Origin',(-5.83358337054147E-15,47.5,0.));
#617=CARTESIAN_POINT('',(-7.49999999999999,47.5,-9.18485099360513E-16));
#618=CARTESIAN_POINT('Origin',(5.75,26.,0.));
#619=CARTESIAN_POINT('',(5.75,26.,0.));
#620=CARTESIAN_POINT('',(-5.75,26.,-7.04171909509728E-16));
#621=CARTESIAN_POINT('Origin',(-3.19311931861217E-15,26.,0.));
#622=CARTESIAN_POINT('Origin',(-3.19311931861217E-15,26.,0.));
#623=CARTESIAN_POINT('Origin',(-2.51765177044421E-15,20.5,0.));
#624=CARTESIAN_POINT('',(5.75,15.,0.));
#625=CARTESIAN_POINT('',(-5.75,15.,-7.04171909509728E-16));
#626=CARTESIAN_POINT('Origin',(-1.84218422227625E-15,15.,0.));
#627=CARTESIAN_POINT('Origin',(-1.84218422227625E-15,15.,0.));
#628=CARTESIAN_POINT('',(-5.75,20.5,-7.04171909509728E-16));
#629=CARTESIAN_POINT('Origin',(5.,15.,0.));
#630=UNCERTAINTY_MEASURE_WITH_UNIT(LENGTH_MEASURE(0.01),#634,
'DISTANCE_ACCURACY_VALUE',
'Maximum model space distance between geometric entities at asserted c
onnectivities');
#631=UNCERTAINTY_MEASURE_WITH_UNIT(LENGTH_MEASURE(0.01),#634,
'DISTANCE_ACCURACY_VALUE',
'Maximum model space distance between geometric entities at asserted c
onnectivities');
#632=(
GEOMETRIC_REPRESENTATION_CONTEXT(3)
GLOBAL_UNCERTAINTY_ASSIGNED_CONTEXT((#630))
GLOBAL_UNIT_ASSIGNED_CONTEXT((#634,#637,#636))
REPRESENTATION_CONTEXT('','3D')
);
#633=(
GEOMETRIC_REPRESENTATION_CONTEXT(3)
GLOBAL_UNCERTAINTY_ASSIGNED_CONTEXT((#631))
GLOBAL_UNIT_ASSIGNED_CONTEXT((#634,#637,#636))
REPRESENTATION_CONTEXT('','3D')
);
#634=(
LENGTH_UNIT()
NAMED_UNIT(*)
SI_UNIT(.MILLI.,.METRE.)
);
#635=(
LENGTH_UNIT()
NAMED_UNIT(*)
SI_UNIT(.CENTI.,.METRE.)
);
#636=(
NAMED_UNIT(*)
SI_UNIT($,.STERADIAN.)
SOLID_ANGLE_UNIT()
);
#637=(
NAMED_UNIT(*)
PLANE_ANGLE_UNIT()
SI_UNIT($,.RADIAN.)
);
#638=SHAPE_DEFINITION_REPRESENTATION(#639,#640);
#639=PRODUCT_DEFINITION_SHAPE('',$,#642);
#640=SHAPE_REPRESENTATION('',(#360),#632);
#641=PRODUCT_DEFINITION_CONTEXT('part definition',#646,'design');
#642=PRODUCT_DEFINITION('109 ','109 Axe Truck Bofolia',#643,#641);
#643=PRODUCT_DEFINITION_FORMATION('',$,#648);
#644=PRODUCT_RELATED_PRODUCT_CATEGORY('109 Axe Truck Bofolia',
'109 Axe Truck Bofolia',(#648));
#645=APPLICATION_PROTOCOL_DEFINITION('international standard',
'automotive_design',2009,#646);
#646=APPLICATION_CONTEXT(
'Core Data for Automotive Mechanical Design Process');
#647=PRODUCT_CONTEXT('part definition',#646,'mechanical');
#648=PRODUCT('109 ','109 Axe Truck Bofolia','Axe Truck Bofolia',(#647));
#649=PRESENTATION_STYLE_ASSIGNMENT((#650));
#650=SURFACE_STYLE_USAGE(.BOTH.,#651);
#651=SURFACE_SIDE_STYLE('',(#652));
#652=SURFACE_STYLE_FILL_AREA(#653);
#653=FILL_AREA_STYLE('',(#654));
#654=FILL_AREA_STYLE_COLOUR('',#655);
#655=COLOUR_RGB('',0.752941176470588,0.752941176470588,0.752941176470588);
ENDSEC;
END-ISO-10303-21;
