ISO-10303-21;
HEADER;
/* Generated by software containing ST-Developer
 * from STEP Tools, Inc. (www.steptools.com) 
 */

FILE_DESCRIPTION(
/* description */ (''),
/* implementation_level */ '2;1');

FILE_NAME(
/* name */ 
'//192.168.0.6/homes/Benoit DAMBROSIO/Redirected Folders/Desktop/ronde
lle web mb ek v8.step',
/* time_stamp */ '2022-06-09T10:16:24+02:00',
/* author */ (''),
/* organization */ (''),
/* preprocessor_version */ 'ST-DEVELOPER v19',
/* originating_system */ 'Autodesk Translation Framework v11.7.0.108',
/* authorisation */ '');

FILE_SCHEMA (('AUTOMOTIVE_DESIGN { 1 0 10303 214 3 1 1 }'));
ENDSEC;

DATA;
#10=MECHANICAL_DESIGN_GEOMETRIC_PRESENTATION_REPRESENTATION('',(#13),#525);
#11=SHAPE_REPRESENTATION_RELATIONSHIP('SRR','None',#532,#12);
#12=ADVANCED_BREP_SHAPE_REPRESENTATION('',(#14),#524);
#13=STYLED_ITEM('',(#541),#14);
#14=MANIFOLD_SOLID_BREP('Corps1',#294);
#15=FACE_BOUND('',#101,.T.);
#16=FACE_BOUND('',#103,.T.);
#17=PLANE('',#317);
#18=PLANE('',#320);
#19=PLANE('',#323);
#20=PLANE('',#324);
#21=PLANE('',#325);
#22=PLANE('',#326);
#23=PLANE('',#328);
#24=PLANE('',#330);
#25=PLANE('',#339);
#26=PLANE('',#340);
#27=LINE('',#447,#47);
#28=LINE('',#451,#48);
#29=LINE('',#455,#49);
#30=LINE('',#458,#50);
#31=LINE('',#460,#51);
#32=LINE('',#464,#52);
#33=LINE('',#466,#53);
#34=LINE('',#467,#54);
#35=LINE('',#480,#55);
#36=LINE('',#485,#56);
#37=LINE('',#488,#57);
#38=LINE('',#489,#58);
#39=LINE('',#492,#59);
#40=LINE('',#493,#60);
#41=LINE('',#496,#61);
#42=LINE('',#498,#62);
#43=LINE('',#499,#63);
#44=LINE('',#509,#64);
#45=LINE('',#514,#65);
#46=LINE('',#518,#66);
#47=VECTOR('',#353,10.);
#48=VECTOR('',#356,10.);
#49=VECTOR('',#359,10.);
#50=VECTOR('',#362,10.);
#51=VECTOR('',#363,4.75);
#52=VECTOR('',#368,10.);
#53=VECTOR('',#369,10.);
#54=VECTOR('',#370,10.);
#55=VECTOR('',#377,10.);
#56=VECTOR('',#382,10.);
#57=VECTOR('',#385,10.);
#58=VECTOR('',#386,10.);
#59=VECTOR('',#389,10.);
#60=VECTOR('',#390,10.);
#61=VECTOR('',#393,10.);
#62=VECTOR('',#394,10.);
#63=VECTOR('',#395,10.);
#64=VECTOR('',#412,1.2645);
#65=VECTOR('',#417,2.3);
#66=VECTOR('',#422,3.);
#67=CYLINDRICAL_SURFACE('',#312,4.75);
#68=CYLINDRICAL_SURFACE('',#332,1.2645);
#69=CYLINDRICAL_SURFACE('',#337,3.);
#70=FACE_OUTER_BOUND('',#86,.T.);
#71=FACE_OUTER_BOUND('',#87,.T.);
#72=FACE_OUTER_BOUND('',#88,.T.);
#73=FACE_OUTER_BOUND('',#89,.T.);
#74=FACE_OUTER_BOUND('',#90,.T.);
#75=FACE_OUTER_BOUND('',#91,.T.);
#76=FACE_OUTER_BOUND('',#92,.T.);
#77=FACE_OUTER_BOUND('',#93,.T.);
#78=FACE_OUTER_BOUND('',#94,.T.);
#79=FACE_OUTER_BOUND('',#95,.T.);
#80=FACE_OUTER_BOUND('',#96,.T.);
#81=FACE_OUTER_BOUND('',#97,.T.);
#82=FACE_OUTER_BOUND('',#98,.T.);
#83=FACE_OUTER_BOUND('',#99,.T.);
#84=FACE_OUTER_BOUND('',#100,.T.);
#85=FACE_OUTER_BOUND('',#102,.T.);
#86=EDGE_LOOP('',(#193,#194,#195,#196,#197));
#87=EDGE_LOOP('',(#198,#199,#200,#201,#202,#203,#204,#205,#206,#207,#208,
#209));
#88=EDGE_LOOP('',(#210,#211,#212,#213,#214));
#89=EDGE_LOOP('',(#215,#216,#217,#218));
#90=EDGE_LOOP('',(#219,#220,#221,#222,#223));
#91=EDGE_LOOP('',(#224,#225,#226,#227,#228));
#92=EDGE_LOOP('',(#229,#230,#231,#232,#233));
#93=EDGE_LOOP('',(#234,#235,#236,#237,#238));
#94=EDGE_LOOP('',(#239,#240,#241,#242));
#95=EDGE_LOOP('',(#243,#244,#245,#246));
#96=EDGE_LOOP('',(#247,#248,#249,#250));
#97=EDGE_LOOP('',(#251,#252,#253,#254,#255,#256,#257,#258,#259,#260,#261,
#262));
#98=EDGE_LOOP('',(#263,#264,#265,#266));
#99=EDGE_LOOP('',(#267,#268,#269,#270));
#100=EDGE_LOOP('',(#271));
#101=EDGE_LOOP('',(#272));
#102=EDGE_LOOP('',(#273));
#103=EDGE_LOOP('',(#274));
#104=CIRCLE('',#309,4.5);
#105=CIRCLE('',#310,4.75);
#106=CIRCLE('',#311,4.75);
#107=CIRCLE('',#313,4.75);
#108=CIRCLE('',#314,4.75);
#109=CIRCLE('',#315,4.75);
#110=CIRCLE('',#316,4.75);
#111=CIRCLE('',#319,4.5);
#112=CIRCLE('',#321,1.2645);
#113=CIRCLE('',#322,1.2645);
#114=CIRCLE('',#327,1.2645);
#115=CIRCLE('',#329,1.2645);
#116=CIRCLE('',#331,1.2645);
#117=CIRCLE('',#333,1.2645);
#118=CIRCLE('',#335,1.6);
#119=CIRCLE('',#336,3.);
#120=CIRCLE('',#338,3.);
#121=(
BOUNDED_CURVE()
B_SPLINE_CURVE(2,(#433,#434,#435),.UNSPECIFIED.,.F.,.F.)
B_SPLINE_CURVE_WITH_KNOTS((3,3),(0.0345121612549748,0.0709131744830898),
 .UNSPECIFIED.)
CURVE()
GEOMETRIC_REPRESENTATION_ITEM()
RATIONAL_B_SPLINE_CURVE((1.00070144229352,1.00072063727598,1.))
REPRESENTATION_ITEM('')
);
#122=(
BOUNDED_CURVE()
B_SPLINE_CURVE(2,(#439,#440,#441),.UNSPECIFIED.,.F.,.F.)
B_SPLINE_CURVE_WITH_KNOTS((3,3),(0.,0.0364010132281151),.UNSPECIFIED.)
CURVE()
GEOMETRIC_REPRESENTATION_ITEM()
RATIONAL_B_SPLINE_CURVE((1.,1.00072063727598,1.00070144229352))
REPRESENTATION_ITEM('')
);
#123=(
BOUNDED_CURVE()
B_SPLINE_CURVE(2,(#470,#471,#472),.UNSPECIFIED.,.F.,.F.)
B_SPLINE_CURVE_WITH_KNOTS((3,3),(0.0345085873815337,0.0709049344780715),
 .UNSPECIFIED.)
CURVE()
GEOMETRIC_REPRESENTATION_ITEM()
RATIONAL_B_SPLINE_CURVE((1.00070111790864,1.0007202949055,1.))
REPRESENTATION_ITEM('')
);
#124=(
BOUNDED_CURVE()
B_SPLINE_CURVE(2,(#475,#476,#477),.UNSPECIFIED.,.F.,.F.)
B_SPLINE_CURVE_WITH_KNOTS((3,3),(0.,0.0363963470965378),.UNSPECIFIED.)
CURVE()
GEOMETRIC_REPRESENTATION_ITEM()
RATIONAL_B_SPLINE_CURVE((1.,1.0007202949055,1.00070111790864))
REPRESENTATION_ITEM('')
);
#125=VERTEX_POINT('',#431);
#126=VERTEX_POINT('',#432);
#127=VERTEX_POINT('',#436);
#128=VERTEX_POINT('',#438);
#129=VERTEX_POINT('',#442);
#130=VERTEX_POINT('',#446);
#131=VERTEX_POINT('',#448);
#132=VERTEX_POINT('',#450);
#133=VERTEX_POINT('',#452);
#134=VERTEX_POINT('',#454);
#135=VERTEX_POINT('',#456);
#136=VERTEX_POINT('',#459);
#137=VERTEX_POINT('',#463);
#138=VERTEX_POINT('',#465);
#139=VERTEX_POINT('',#469);
#140=VERTEX_POINT('',#473);
#141=VERTEX_POINT('',#479);
#142=VERTEX_POINT('',#481);
#143=VERTEX_POINT('',#483);
#144=VERTEX_POINT('',#487);
#145=VERTEX_POINT('',#491);
#146=VERTEX_POINT('',#495);
#147=VERTEX_POINT('',#497);
#148=VERTEX_POINT('',#507);
#149=VERTEX_POINT('',#511);
#150=VERTEX_POINT('',#513);
#151=VERTEX_POINT('',#517);
#152=EDGE_CURVE('',#125,#126,#121,.T.);
#153=EDGE_CURVE('',#126,#127,#104,.T.);
#154=EDGE_CURVE('',#127,#128,#122,.T.);
#155=EDGE_CURVE('',#128,#129,#105,.T.);
#156=EDGE_CURVE('',#129,#125,#106,.T.);
#157=EDGE_CURVE('',#128,#130,#27,.T.);
#158=EDGE_CURVE('',#130,#131,#107,.T.);
#159=EDGE_CURVE('',#131,#132,#28,.T.);
#160=EDGE_CURVE('',#133,#132,#108,.T.);
#161=EDGE_CURVE('',#133,#134,#29,.T.);
#162=EDGE_CURVE('',#134,#135,#109,.T.);
#163=EDGE_CURVE('',#135,#125,#30,.T.);
#164=EDGE_CURVE('',#129,#136,#31,.T.);
#165=EDGE_CURVE('',#136,#136,#110,.T.);
#166=EDGE_CURVE('',#137,#127,#32,.T.);
#167=EDGE_CURVE('',#138,#137,#33,.T.);
#168=EDGE_CURVE('',#138,#130,#34,.T.);
#169=EDGE_CURVE('',#132,#139,#123,.T.);
#170=EDGE_CURVE('',#139,#140,#111,.T.);
#171=EDGE_CURVE('',#140,#133,#124,.T.);
#172=EDGE_CURVE('',#139,#141,#35,.T.);
#173=EDGE_CURVE('',#141,#142,#112,.T.);
#174=EDGE_CURVE('',#142,#143,#113,.T.);
#175=EDGE_CURVE('',#143,#140,#36,.T.);
#176=EDGE_CURVE('',#131,#144,#37,.T.);
#177=EDGE_CURVE('',#141,#144,#38,.T.);
#178=EDGE_CURVE('',#145,#143,#39,.T.);
#179=EDGE_CURVE('',#145,#134,#40,.T.);
#180=EDGE_CURVE('',#135,#146,#41,.T.);
#181=EDGE_CURVE('',#147,#146,#42,.T.);
#182=EDGE_CURVE('',#126,#147,#43,.T.);
#183=EDGE_CURVE('',#146,#145,#114,.T.);
#184=EDGE_CURVE('',#144,#138,#115,.T.);
#185=EDGE_CURVE('',#147,#137,#116,.T.);
#186=EDGE_CURVE('',#148,#148,#117,.T.);
#187=EDGE_CURVE('',#148,#142,#44,.T.);
#188=EDGE_CURVE('',#149,#149,#118,.T.);
#189=EDGE_CURVE('',#149,#150,#45,.T.);
#190=EDGE_CURVE('',#150,#150,#119,.T.);
#191=EDGE_CURVE('',#150,#151,#46,.T.);
#192=EDGE_CURVE('',#151,#151,#120,.T.);
#193=ORIENTED_EDGE('',*,*,#152,.T.);
#194=ORIENTED_EDGE('',*,*,#153,.T.);
#195=ORIENTED_EDGE('',*,*,#154,.T.);
#196=ORIENTED_EDGE('',*,*,#155,.T.);
#197=ORIENTED_EDGE('',*,*,#156,.T.);
#198=ORIENTED_EDGE('',*,*,#155,.F.);
#199=ORIENTED_EDGE('',*,*,#157,.T.);
#200=ORIENTED_EDGE('',*,*,#158,.T.);
#201=ORIENTED_EDGE('',*,*,#159,.T.);
#202=ORIENTED_EDGE('',*,*,#160,.F.);
#203=ORIENTED_EDGE('',*,*,#161,.T.);
#204=ORIENTED_EDGE('',*,*,#162,.T.);
#205=ORIENTED_EDGE('',*,*,#163,.T.);
#206=ORIENTED_EDGE('',*,*,#156,.F.);
#207=ORIENTED_EDGE('',*,*,#164,.T.);
#208=ORIENTED_EDGE('',*,*,#165,.T.);
#209=ORIENTED_EDGE('',*,*,#164,.F.);
#210=ORIENTED_EDGE('',*,*,#154,.F.);
#211=ORIENTED_EDGE('',*,*,#166,.F.);
#212=ORIENTED_EDGE('',*,*,#167,.F.);
#213=ORIENTED_EDGE('',*,*,#168,.T.);
#214=ORIENTED_EDGE('',*,*,#157,.F.);
#215=ORIENTED_EDGE('',*,*,#169,.T.);
#216=ORIENTED_EDGE('',*,*,#170,.T.);
#217=ORIENTED_EDGE('',*,*,#171,.T.);
#218=ORIENTED_EDGE('',*,*,#160,.T.);
#219=ORIENTED_EDGE('',*,*,#170,.F.);
#220=ORIENTED_EDGE('',*,*,#172,.T.);
#221=ORIENTED_EDGE('',*,*,#173,.T.);
#222=ORIENTED_EDGE('',*,*,#174,.T.);
#223=ORIENTED_EDGE('',*,*,#175,.T.);
#224=ORIENTED_EDGE('',*,*,#169,.F.);
#225=ORIENTED_EDGE('',*,*,#159,.F.);
#226=ORIENTED_EDGE('',*,*,#176,.T.);
#227=ORIENTED_EDGE('',*,*,#177,.F.);
#228=ORIENTED_EDGE('',*,*,#172,.F.);
#229=ORIENTED_EDGE('',*,*,#171,.F.);
#230=ORIENTED_EDGE('',*,*,#175,.F.);
#231=ORIENTED_EDGE('',*,*,#178,.F.);
#232=ORIENTED_EDGE('',*,*,#179,.T.);
#233=ORIENTED_EDGE('',*,*,#161,.F.);
#234=ORIENTED_EDGE('',*,*,#152,.F.);
#235=ORIENTED_EDGE('',*,*,#163,.F.);
#236=ORIENTED_EDGE('',*,*,#180,.T.);
#237=ORIENTED_EDGE('',*,*,#181,.F.);
#238=ORIENTED_EDGE('',*,*,#182,.F.);
#239=ORIENTED_EDGE('',*,*,#180,.F.);
#240=ORIENTED_EDGE('',*,*,#162,.F.);
#241=ORIENTED_EDGE('',*,*,#179,.F.);
#242=ORIENTED_EDGE('',*,*,#183,.F.);
#243=ORIENTED_EDGE('',*,*,#176,.F.);
#244=ORIENTED_EDGE('',*,*,#158,.F.);
#245=ORIENTED_EDGE('',*,*,#168,.F.);
#246=ORIENTED_EDGE('',*,*,#184,.F.);
#247=ORIENTED_EDGE('',*,*,#153,.F.);
#248=ORIENTED_EDGE('',*,*,#182,.T.);
#249=ORIENTED_EDGE('',*,*,#185,.T.);
#250=ORIENTED_EDGE('',*,*,#166,.T.);
#251=ORIENTED_EDGE('',*,*,#186,.F.);
#252=ORIENTED_EDGE('',*,*,#187,.T.);
#253=ORIENTED_EDGE('',*,*,#173,.F.);
#254=ORIENTED_EDGE('',*,*,#177,.T.);
#255=ORIENTED_EDGE('',*,*,#184,.T.);
#256=ORIENTED_EDGE('',*,*,#167,.T.);
#257=ORIENTED_EDGE('',*,*,#185,.F.);
#258=ORIENTED_EDGE('',*,*,#181,.T.);
#259=ORIENTED_EDGE('',*,*,#183,.T.);
#260=ORIENTED_EDGE('',*,*,#178,.T.);
#261=ORIENTED_EDGE('',*,*,#174,.F.);
#262=ORIENTED_EDGE('',*,*,#187,.F.);
#263=ORIENTED_EDGE('',*,*,#188,.T.);
#264=ORIENTED_EDGE('',*,*,#189,.T.);
#265=ORIENTED_EDGE('',*,*,#190,.T.);
#266=ORIENTED_EDGE('',*,*,#189,.F.);
#267=ORIENTED_EDGE('',*,*,#190,.F.);
#268=ORIENTED_EDGE('',*,*,#191,.T.);
#269=ORIENTED_EDGE('',*,*,#192,.F.);
#270=ORIENTED_EDGE('',*,*,#191,.F.);
#271=ORIENTED_EDGE('',*,*,#188,.F.);
#272=ORIENTED_EDGE('',*,*,#186,.T.);
#273=ORIENTED_EDGE('',*,*,#165,.F.);
#274=ORIENTED_EDGE('',*,*,#192,.T.);
#275=CONICAL_SURFACE('',#308,4.625,0.785398163397447);
#276=CONICAL_SURFACE('',#318,4.625,0.785398163397447);
#277=CONICAL_SURFACE('',#334,2.3,0.785398163397449);
#278=ADVANCED_FACE('',(#70),#275,.T.);
#279=ADVANCED_FACE('',(#71),#67,.T.);
#280=ADVANCED_FACE('',(#72),#17,.F.);
#281=ADVANCED_FACE('',(#73),#276,.T.);
#282=ADVANCED_FACE('',(#74),#18,.T.);
#283=ADVANCED_FACE('',(#75),#19,.F.);
#284=ADVANCED_FACE('',(#76),#20,.F.);
#285=ADVANCED_FACE('',(#77),#21,.F.);
#286=ADVANCED_FACE('',(#78),#22,.T.);
#287=ADVANCED_FACE('',(#79),#23,.T.);
#288=ADVANCED_FACE('',(#80),#24,.T.);
#289=ADVANCED_FACE('',(#81),#68,.F.);
#290=ADVANCED_FACE('',(#82),#277,.T.);
#291=ADVANCED_FACE('',(#83),#69,.T.);
#292=ADVANCED_FACE('',(#84,#15),#25,.T.);
#293=ADVANCED_FACE('',(#85,#16),#26,.F.);
#294=CLOSED_SHELL('',(#278,#279,#280,#281,#282,#283,#284,#285,#286,#287,
#288,#289,#290,#291,#292,#293));
#295=DERIVED_UNIT_ELEMENT(#297,1.);
#296=DERIVED_UNIT_ELEMENT(#527,-3.);
#297=(
MASS_UNIT()
NAMED_UNIT(*)
SI_UNIT(.KILO.,.GRAM.)
);
#298=DERIVED_UNIT((#295,#296));
#299=MEASURE_REPRESENTATION_ITEM('density measure',
POSITIVE_RATIO_MEASURE(7850.),#298);
#300=PROPERTY_DEFINITION_REPRESENTATION(#305,#302);
#301=PROPERTY_DEFINITION_REPRESENTATION(#306,#303);
#302=REPRESENTATION('material name',(#304),#524);
#303=REPRESENTATION('density',(#299),#524);
#304=DESCRIPTIVE_REPRESENTATION_ITEM('Acier','Acier');
#305=PROPERTY_DEFINITION('material property','material name',#534);
#306=PROPERTY_DEFINITION('material property','density of part',#534);
#307=AXIS2_PLACEMENT_3D('placement',#429,#341,#342);
#308=AXIS2_PLACEMENT_3D('',#430,#343,#344);
#309=AXIS2_PLACEMENT_3D('',#437,#345,#346);
#310=AXIS2_PLACEMENT_3D('',#443,#347,#348);
#311=AXIS2_PLACEMENT_3D('',#444,#349,#350);
#312=AXIS2_PLACEMENT_3D('',#445,#351,#352);
#313=AXIS2_PLACEMENT_3D('',#449,#354,#355);
#314=AXIS2_PLACEMENT_3D('',#453,#357,#358);
#315=AXIS2_PLACEMENT_3D('',#457,#360,#361);
#316=AXIS2_PLACEMENT_3D('',#461,#364,#365);
#317=AXIS2_PLACEMENT_3D('',#462,#366,#367);
#318=AXIS2_PLACEMENT_3D('',#468,#371,#372);
#319=AXIS2_PLACEMENT_3D('',#474,#373,#374);
#320=AXIS2_PLACEMENT_3D('',#478,#375,#376);
#321=AXIS2_PLACEMENT_3D('',#482,#378,#379);
#322=AXIS2_PLACEMENT_3D('',#484,#380,#381);
#323=AXIS2_PLACEMENT_3D('',#486,#383,#384);
#324=AXIS2_PLACEMENT_3D('',#490,#387,#388);
#325=AXIS2_PLACEMENT_3D('',#494,#391,#392);
#326=AXIS2_PLACEMENT_3D('',#500,#396,#397);
#327=AXIS2_PLACEMENT_3D('',#501,#398,#399);
#328=AXIS2_PLACEMENT_3D('',#502,#400,#401);
#329=AXIS2_PLACEMENT_3D('',#503,#402,#403);
#330=AXIS2_PLACEMENT_3D('',#504,#404,#405);
#331=AXIS2_PLACEMENT_3D('',#505,#406,#407);
#332=AXIS2_PLACEMENT_3D('',#506,#408,#409);
#333=AXIS2_PLACEMENT_3D('',#508,#410,#411);
#334=AXIS2_PLACEMENT_3D('',#510,#413,#414);
#335=AXIS2_PLACEMENT_3D('',#512,#415,#416);
#336=AXIS2_PLACEMENT_3D('',#515,#418,#419);
#337=AXIS2_PLACEMENT_3D('',#516,#420,#421);
#338=AXIS2_PLACEMENT_3D('',#519,#423,#424);
#339=AXIS2_PLACEMENT_3D('',#520,#425,#426);
#340=AXIS2_PLACEMENT_3D('',#521,#427,#428);
#341=DIRECTION('axis',(0.,0.,1.));
#342=DIRECTION('refdir',(1.,0.,0.));
#343=DIRECTION('center_axis',(-1.,0.,0.));
#344=DIRECTION('ref_axis',(0.,-1.,0.));
#345=DIRECTION('center_axis',(-1.,0.,0.));
#346=DIRECTION('ref_axis',(0.,-1.,0.));
#347=DIRECTION('center_axis',(1.,0.,0.));
#348=DIRECTION('ref_axis',(0.,-1.,0.));
#349=DIRECTION('center_axis',(1.,0.,0.));
#350=DIRECTION('ref_axis',(0.,-1.,0.));
#351=DIRECTION('center_axis',(1.,0.,0.));
#352=DIRECTION('ref_axis',(0.,1.,0.));
#353=DIRECTION('',(-1.,0.,0.));
#354=DIRECTION('center_axis',(-1.,0.,0.));
#355=DIRECTION('ref_axis',(0.,1.,0.));
#356=DIRECTION('',(1.,0.,0.));
#357=DIRECTION('center_axis',(1.,0.,0.));
#358=DIRECTION('ref_axis',(0.,1.,0.));
#359=DIRECTION('',(-1.,0.,0.));
#360=DIRECTION('center_axis',(-1.,0.,0.));
#361=DIRECTION('ref_axis',(0.,1.,0.));
#362=DIRECTION('',(1.,0.,0.));
#363=DIRECTION('',(-1.,0.,0.));
#364=DIRECTION('center_axis',(1.,0.,0.));
#365=DIRECTION('ref_axis',(0.,1.,0.));
#366=DIRECTION('center_axis',(0.,-1.,0.));
#367=DIRECTION('ref_axis',(0.,0.,1.));
#368=DIRECTION('',(0.,0.,1.));
#369=DIRECTION('',(1.,0.,0.));
#370=DIRECTION('',(0.,0.,1.));
#371=DIRECTION('center_axis',(-1.,0.,0.));
#372=DIRECTION('ref_axis',(0.,1.,0.));
#373=DIRECTION('center_axis',(-1.,0.,0.));
#374=DIRECTION('ref_axis',(0.,1.,0.));
#375=DIRECTION('center_axis',(1.,0.,0.));
#376=DIRECTION('ref_axis',(0.,1.,0.));
#377=DIRECTION('',(0.,0.,-1.));
#378=DIRECTION('center_axis',(-1.,0.,0.));
#379=DIRECTION('ref_axis',(0.,-1.,0.));
#380=DIRECTION('center_axis',(-1.,0.,0.));
#381=DIRECTION('ref_axis',(0.,-1.,0.));
#382=DIRECTION('',(0.,0.,-1.));
#383=DIRECTION('center_axis',(0.,1.,0.));
#384=DIRECTION('ref_axis',(0.,0.,-1.));
#385=DIRECTION('',(0.,0.,-1.));
#386=DIRECTION('',(-1.,0.,0.));
#387=DIRECTION('center_axis',(0.,1.,0.));
#388=DIRECTION('ref_axis',(0.,0.,-1.));
#389=DIRECTION('',(1.,0.,0.));
#390=DIRECTION('',(0.,0.,-1.));
#391=DIRECTION('center_axis',(0.,-1.,0.));
#392=DIRECTION('ref_axis',(0.,0.,1.));
#393=DIRECTION('',(0.,0.,1.));
#394=DIRECTION('',(-1.,0.,0.));
#395=DIRECTION('',(0.,0.,1.));
#396=DIRECTION('center_axis',(1.,0.,0.));
#397=DIRECTION('ref_axis',(0.,1.,0.));
#398=DIRECTION('center_axis',(1.,0.,0.));
#399=DIRECTION('ref_axis',(0.,-1.,0.));
#400=DIRECTION('center_axis',(1.,0.,0.));
#401=DIRECTION('ref_axis',(0.,1.,0.));
#402=DIRECTION('center_axis',(1.,0.,0.));
#403=DIRECTION('ref_axis',(0.,-1.,0.));
#404=DIRECTION('center_axis',(1.,0.,0.));
#405=DIRECTION('ref_axis',(0.,1.,0.));
#406=DIRECTION('center_axis',(-1.,0.,0.));
#407=DIRECTION('ref_axis',(0.,-1.,0.));
#408=DIRECTION('center_axis',(1.,0.,0.));
#409=DIRECTION('ref_axis',(0.,-1.,0.));
#410=DIRECTION('center_axis',(1.,0.,0.));
#411=DIRECTION('ref_axis',(0.,-1.,0.));
#412=DIRECTION('',(1.,0.,0.));
#413=DIRECTION('center_axis',(1.,0.,0.));
#414=DIRECTION('ref_axis',(0.,-1.,0.));
#415=DIRECTION('center_axis',(1.,0.,0.));
#416=DIRECTION('ref_axis',(0.,-1.,0.));
#417=DIRECTION('',(0.707106781186547,0.707106781186548,-8.65956056235494E-17));
#418=DIRECTION('center_axis',(-1.,0.,0.));
#419=DIRECTION('ref_axis',(0.,-1.,0.));
#420=DIRECTION('center_axis',(-1.,0.,0.));
#421=DIRECTION('ref_axis',(0.,-1.,0.));
#422=DIRECTION('',(1.,0.,0.));
#423=DIRECTION('center_axis',(1.,0.,0.));
#424=DIRECTION('ref_axis',(0.,-1.,0.));
#425=DIRECTION('center_axis',(-1.,0.,0.));
#426=DIRECTION('ref_axis',(0.,-1.,0.));
#427=DIRECTION('center_axis',(1.,0.,0.));
#428=DIRECTION('ref_axis',(0.,1.,0.));
#429=CARTESIAN_POINT('',(0.,0.,0.));
#430=CARTESIAN_POINT('Origin',(2.175,-25.,15.));
#431=CARTESIAN_POINT('',(2.05,-25.5051420303122,10.2769362137261));
#432=CARTESIAN_POINT('',(2.3,-25.5051420303122,10.528441934939));
#433=CARTESIAN_POINT('Ctrl Pts',(2.05,-25.5051420303122,10.2769362137261));
#434=CARTESIAN_POINT('Ctrl Pts',(2.17841919610537,-25.5051420303122,10.4060878003028));
#435=CARTESIAN_POINT('Ctrl Pts',(2.3,-25.5051420303122,10.528441934939));
#436=CARTESIAN_POINT('',(2.3,-25.5051420303122,19.471558065061));
#437=CARTESIAN_POINT('Origin',(2.3,-25.,15.));
#438=CARTESIAN_POINT('',(2.05,-25.5051420303122,19.7230637862739));
#439=CARTESIAN_POINT('Ctrl Pts',(2.3,-25.5051420303122,19.471558065061));
#440=CARTESIAN_POINT('Ctrl Pts',(2.17841919610537,-25.5051420303122,19.5939121996972));
#441=CARTESIAN_POINT('Ctrl Pts',(2.05,-25.5051420303122,19.7230637862739));
#442=CARTESIAN_POINT('',(2.05,-29.75,15.));
#443=CARTESIAN_POINT('Origin',(2.05,-25.,15.));
#444=CARTESIAN_POINT('Origin',(2.05,-25.,15.));
#445=CARTESIAN_POINT('Origin',(0.,-25.,15.));
#446=CARTESIAN_POINT('',(1.8,-25.5051420303122,19.7230637862739));
#447=CARTESIAN_POINT('',(0.,-25.5051420303122,19.7230637862739));
#448=CARTESIAN_POINT('',(1.8,-24.5051420303122,19.7241523673392));
#449=CARTESIAN_POINT('Origin',(1.8,-25.,15.));
#450=CARTESIAN_POINT('',(2.05,-24.5051420303122,19.7241523673392));
#451=CARTESIAN_POINT('',(0.,-24.5051420303122,19.7241523673392));
#452=CARTESIAN_POINT('',(2.05,-24.5051420303122,10.2758476326608));
#453=CARTESIAN_POINT('Origin',(2.05,-25.,15.));
#454=CARTESIAN_POINT('',(1.8,-24.5051420303122,10.2758476326608));
#455=CARTESIAN_POINT('',(0.,-24.5051420303122,10.2758476326608));
#456=CARTESIAN_POINT('',(1.8,-25.5051420303122,10.2769362137261));
#457=CARTESIAN_POINT('Origin',(1.8,-25.,15.));
#458=CARTESIAN_POINT('',(0.,-25.5051420303122,10.2769362137261));
#459=CARTESIAN_POINT('',(0.,-29.75,15.));
#460=CARTESIAN_POINT('',(0.,-29.75,15.));
#461=CARTESIAN_POINT('Origin',(0.,-25.,15.));
#462=CARTESIAN_POINT('Origin',(2.3,-25.5051420303122,16.1592203324701));
#463=CARTESIAN_POINT('',(2.3,-25.5051420303122,16.1592203324701));
#464=CARTESIAN_POINT('',(2.3,-25.5051420303122,15.5796101662351));
#465=CARTESIAN_POINT('',(1.8,-25.5051420303122,16.1592203324701));
#466=CARTESIAN_POINT('',(1.,-25.5051420303122,16.1592203324701));
#467=CARTESIAN_POINT('',(1.8,-25.5051420303122,9.2999997921288));
#468=CARTESIAN_POINT('Origin',(2.175,-25.,15.));
#469=CARTESIAN_POINT('',(2.3,-24.5051420303122,19.4727078587626));
#470=CARTESIAN_POINT('Ctrl Pts',(2.05,-24.5051420303122,19.7241523673392));
#471=CARTESIAN_POINT('Ctrl Pts',(2.17841753194995,-24.5051420303122,19.5950322142765));
#472=CARTESIAN_POINT('Ctrl Pts',(2.3,-24.5051420303122,19.4727078587626));
#473=CARTESIAN_POINT('',(2.3,-24.5051420303122,10.5272921412374));
#474=CARTESIAN_POINT('Origin',(2.3,-25.,15.));
#475=CARTESIAN_POINT('Ctrl Pts',(2.3,-24.5051420303122,10.5272921412374));
#476=CARTESIAN_POINT('Ctrl Pts',(2.17841753194995,-24.5051420303121,10.4049677857235));
#477=CARTESIAN_POINT('Ctrl Pts',(2.05,-24.5051420303122,10.2758476326608));
#478=CARTESIAN_POINT('Origin',(2.3,-25.,15.));
#479=CARTESIAN_POINT('',(2.3,-24.5051420303122,16.1636476441932));
#480=CARTESIAN_POINT('',(2.3,-24.5051420303122,17.3620761836696));
#481=CARTESIAN_POINT('',(2.3,-23.7355,15.));
#482=CARTESIAN_POINT('Origin',(2.3,-25.,15.));
#483=CARTESIAN_POINT('',(2.3,-24.5051420303122,13.8363523558068));
#484=CARTESIAN_POINT('Origin',(2.3,-25.,15.));
#485=CARTESIAN_POINT('',(2.3,-24.5051420303122,14.4181761779034));
#486=CARTESIAN_POINT('Origin',(2.3,-24.5051420303122,19.7241523673392));
#487=CARTESIAN_POINT('',(1.8,-24.5051420303122,16.1636476441932));
#488=CARTESIAN_POINT('',(1.8,-24.5051420303122,20.1999995484948));
#489=CARTESIAN_POINT('',(1.,-24.5051420303122,16.1636476441932));
#490=CARTESIAN_POINT('Origin',(2.3,-24.5051420303122,13.8363523558068));
#491=CARTESIAN_POINT('',(1.8,-24.5051420303122,13.8363523558068));
#492=CARTESIAN_POINT('',(1.,-24.5051420303122,13.8363523558068));
#493=CARTESIAN_POINT('',(1.8,-24.5051420303122,20.1999995484948));
#494=CARTESIAN_POINT('Origin',(2.3,-25.5051420303122,10.2769362137261));
#495=CARTESIAN_POINT('',(1.8,-25.5051420303122,13.8407796675299));
#496=CARTESIAN_POINT('',(1.8,-25.5051420303122,9.2999997921288));
#497=CARTESIAN_POINT('',(2.3,-25.5051420303122,13.8407796675299));
#498=CARTESIAN_POINT('',(1.,-25.5051420303122,13.8407796675299));
#499=CARTESIAN_POINT('',(2.3,-25.5051420303122,12.638468106863));
#500=CARTESIAN_POINT('Origin',(1.8,-25.0051420303122,12.0453898337649));
#501=CARTESIAN_POINT('Origin',(1.8,-25.,15.));
#502=CARTESIAN_POINT('Origin',(1.8,-25.0051420303122,17.9546101662351));
#503=CARTESIAN_POINT('Origin',(1.8,-25.,15.));
#504=CARTESIAN_POINT('Origin',(2.3,-25.,15.));
#505=CARTESIAN_POINT('Origin',(2.3,-25.,15.));
#506=CARTESIAN_POINT('Origin',(1.,-25.,15.));
#507=CARTESIAN_POINT('',(-1.6,-23.7355,15.));
#508=CARTESIAN_POINT('Origin',(-1.6,-25.,15.));
#509=CARTESIAN_POINT('',(1.,-23.7355,15.));
#510=CARTESIAN_POINT('Origin',(-0.9,-25.,15.));
#511=CARTESIAN_POINT('',(-1.6,-23.4,15.));
#512=CARTESIAN_POINT('Origin',(-1.6,-25.,15.));
#513=CARTESIAN_POINT('',(-0.2,-22.,15.));
#514=CARTESIAN_POINT('',(-0.9,-22.7,15.));
#515=CARTESIAN_POINT('Origin',(-0.2,-25.,15.));
#516=CARTESIAN_POINT('Origin',(0.,-25.,15.));
#517=CARTESIAN_POINT('',(0.,-22.,15.));
#518=CARTESIAN_POINT('',(0.,-22.,15.));
#519=CARTESIAN_POINT('Origin',(0.,-25.,15.));
#520=CARTESIAN_POINT('Origin',(-1.6,-25.,15.));
#521=CARTESIAN_POINT('Origin',(0.,-25.,15.));
#522=UNCERTAINTY_MEASURE_WITH_UNIT(LENGTH_MEASURE(0.01),#526,
'DISTANCE_ACCURACY_VALUE',
'Maximum model space distance between geometric entities at asserted c
onnectivities');
#523=UNCERTAINTY_MEASURE_WITH_UNIT(LENGTH_MEASURE(0.01),#526,
'DISTANCE_ACCURACY_VALUE',
'Maximum model space distance between geometric entities at asserted c
onnectivities');
#524=(
GEOMETRIC_REPRESENTATION_CONTEXT(3)
GLOBAL_UNCERTAINTY_ASSIGNED_CONTEXT((#522))
GLOBAL_UNIT_ASSIGNED_CONTEXT((#526,#528,#529))
REPRESENTATION_CONTEXT('','3D')
);
#525=(
GEOMETRIC_REPRESENTATION_CONTEXT(3)
GLOBAL_UNCERTAINTY_ASSIGNED_CONTEXT((#523))
GLOBAL_UNIT_ASSIGNED_CONTEXT((#526,#528,#529))
REPRESENTATION_CONTEXT('','3D')
);
#526=(
LENGTH_UNIT()
NAMED_UNIT(*)
SI_UNIT(.MILLI.,.METRE.)
);
#527=(
LENGTH_UNIT()
NAMED_UNIT(*)
SI_UNIT($,.METRE.)
);
#528=(
NAMED_UNIT(*)
PLANE_ANGLE_UNIT()
SI_UNIT($,.RADIAN.)
);
#529=(
NAMED_UNIT(*)
SI_UNIT($,.STERADIAN.)
SOLID_ANGLE_UNIT()
);
#530=SHAPE_DEFINITION_REPRESENTATION(#531,#532);
#531=PRODUCT_DEFINITION_SHAPE('',$,#534);
#532=SHAPE_REPRESENTATION('',(#307),#524);
#533=PRODUCT_DEFINITION_CONTEXT('part definition',#538,'design');
#534=PRODUCT_DEFINITION('rondelle web mb ek','rondelle web mb ek v8',#535,
#533);
#535=PRODUCT_DEFINITION_FORMATION('',$,#540);
#536=PRODUCT_RELATED_PRODUCT_CATEGORY('rondelle web mb ek v8',
'rondelle web mb ek v8',(#540));
#537=APPLICATION_PROTOCOL_DEFINITION('international standard',
'automotive_design',2009,#538);
#538=APPLICATION_CONTEXT(
'Core Data for Automotive Mechanical Design Process');
#539=PRODUCT_CONTEXT('part definition',#538,'mechanical');
#540=PRODUCT('rondelle web mb ek','rondelle web mb ek v8',$,(#539));
#541=PRESENTATION_STYLE_ASSIGNMENT((#542));
#542=SURFACE_STYLE_USAGE(.BOTH.,#543);
#543=SURFACE_SIDE_STYLE('',(#544));
#544=SURFACE_STYLE_FILL_AREA(#545);
#545=FILL_AREA_STYLE('Acier - Satin\X\E9',(#546));
#546=FILL_AREA_STYLE_COLOUR('Acier - Satin\X\E9',#547);
#547=COLOUR_RGB('Acier - Satin\X\E9',0.627450980392157,0.627450980392157,
0.627450980392157);
ENDSEC;
END-ISO-10303-21;
