ISO-10303-21;
HEADER;
FILE_DESCRIPTION (( 'STEP AP214' ),
    '1' );
FILE_NAME ('COUPELLE PEINTURE BSA.STEP',
    '2022-06-29T06:50:26',
    ( '' ),
    ( '' ),
    'SwSTEP 2.0',
    'SolidWorks 2020',
    '' );
FILE_SCHEMA (( 'AUTOMOTIVE_DESIGN' ));
ENDSEC;

DATA;
#1 = DIRECTION ( 'NONE',  ( -0.000000000000000000, -0.000000000000000000, -1.000000000000000000 ) ) ;
#2 = VERTEX_POINT ( 'NONE', #236 ) ;
#3 = AXIS2_PLACEMENT_3D ( 'NONE', #80, #62, #104 ) ;
#4 = VERTEX_POINT ( 'NONE', #261 ) ;
#5 =( NAMED_UNIT ( * ) SI_UNIT ( $, .STERADIAN. ) SOLID_ANGLE_UNIT ( ) );
#6 = ORIENTED_EDGE ( 'NONE', *, *, #161, .T. ) ;
#7 = SURFACE_STYLE_FILL_AREA ( #188 ) ;
#8 = EDGE_CURVE ( 'NONE', #4, #65, #66, .T. ) ;
#9 = VECTOR ( 'NONE', #264, 1000.000000000000000 ) ;
#10 = DIRECTION ( 'NONE',  ( 0.000000000000000000, 0.000000000000000000, -1.000000000000000000 ) ) ;
#11 = FACE_OUTER_BOUND ( 'NONE', #206, .T. ) ;
#12 = VERTEX_POINT ( 'NONE', #41 ) ;
#13 = ADVANCED_FACE ( 'NONE', ( #67 ), #15, .T. ) ;
#14 = CYLINDRICAL_SURFACE ( 'NONE', #54, 16.99500000000000099 ) ;
#15 = CYLINDRICAL_SURFACE ( 'NONE', #114, 16.99500000000000099 ) ;
#16 = CIRCLE ( 'NONE', #49, 5.000000000000000000 ) ;
#17 = CARTESIAN_POINT ( 'NONE',  ( -5.000000000000000000, 0.000000000000000000, 52.50000000000000000 ) ) ;
#18 = EDGE_CURVE ( 'NONE', #12, #2, #194, .T. ) ;
#19 = ADVANCED_BREP_SHAPE_REPRESENTATION ( 'COUPELLE PEINTURE BSA', ( #245, #220 ), #154 ) ;
#20 = FILL_AREA_STYLE_COLOUR ( '', #290 ) ;
#21 = APPLICATION_PROTOCOL_DEFINITION ( 'draft international standard', 'automotive_design', 1998, #207 ) ;
#22 = DIRECTION ( 'NONE',  ( 0.000000000000000000, 0.000000000000000000, 1.000000000000000000 ) ) ;
#23 = CIRCLE ( 'NONE', #89, 18.99999999999999645 ) ;
#24 = DIRECTION ( 'NONE',  ( 0.000000000000000000, 0.000000000000000000, 1.000000000000000000 ) ) ;
#25 = DIRECTION ( 'NONE',  ( -0.000000000000000000, -0.000000000000000000, -1.000000000000000000 ) ) ;
#26 = UNCERTAINTY_MEASURE_WITH_UNIT (LENGTH_MEASURE( 1.000000000000000082E-05 ), #47, 'distance_accuracy_value', 'NONE');
#27 = ORIENTED_EDGE ( 'NONE', *, *, #63, .F. ) ;
#28 = CIRCLE ( 'NONE', #239, 18.99999999999999645 ) ;
#29 = ORIENTED_EDGE ( 'NONE', *, *, #42, .F. ) ;
#30 = CIRCLE ( 'NONE', #51, 16.99500000000000099 ) ;
#31 = ORIENTED_EDGE ( 'NONE', *, *, #8, .F. ) ;
#32 = VERTEX_POINT ( 'NONE', #211 ) ;
#33 =( NAMED_UNIT ( * ) SI_UNIT ( $, .STERADIAN. ) SOLID_ANGLE_UNIT ( ) );
#34 = EDGE_LOOP ( 'NONE', ( #294, #202, #271, #172 ) ) ;
#35 =( NAMED_UNIT ( * ) SI_UNIT ( $, .STERADIAN. ) SOLID_ANGLE_UNIT ( ) );
#36 = CARTESIAN_POINT ( 'NONE',  ( -18.99999999999999645, 0.000000000000000000, 8.000000000000000000 ) ) ;
#37 = ORIENTED_EDGE ( 'NONE', *, *, #184, .T. ) ;
#38 = ORIENTED_EDGE ( 'NONE', *, *, #112, .F. ) ;
#39 = EDGE_CURVE ( 'NONE', #96, #52, #176, .T. ) ;
#40 = CARTESIAN_POINT ( 'NONE',  ( 0.000000000000000000, 0.000000000000000000, 8.000000000000000000 ) ) ;
#41 = CARTESIAN_POINT ( 'NONE',  ( 5.000000000000000000, 6.123233995736766282E-16, 52.50000000000000000 ) ) ;
#42 = EDGE_CURVE ( 'NONE', #119, #2, #100, .T. ) ;
#43 = DIRECTION ( 'NONE',  ( 0.000000000000000000, 0.000000000000000000, -1.000000000000000000 ) ) ;
#44 = EDGE_CURVE ( 'NONE', #77, #187, #231, .T. ) ;
#45 = PRODUCT_CONTEXT ( 'NONE', #166, 'mechanical' ) ;
#46 = CARTESIAN_POINT ( 'NONE',  ( 0.000000000000000000, 0.000000000000000000, 52.50000000000000000 ) ) ;
#47 =( LENGTH_UNIT ( ) NAMED_UNIT ( * ) SI_UNIT ( .MILLI., .METRE. ) );
#48 = CARTESIAN_POINT ( 'NONE',  ( 0.000000000000000000, 0.000000000000000000, 8.000000000000000000 ) ) ;
#49 = AXIS2_PLACEMENT_3D ( 'NONE', #265, #130, #91 ) ;
#50 = DIRECTION ( 'NONE',  ( 1.000000000000000000, 0.000000000000000000, 0.000000000000000000 ) ) ;
#51 = AXIS2_PLACEMENT_3D ( 'NONE', #195, #242, #286 ) ;
#52 = VERTEX_POINT ( 'NONE', #280 ) ;
#53 = AXIS2_PLACEMENT_3D ( 'NONE', #48, #200, #289 ) ;
#54 = AXIS2_PLACEMENT_3D ( 'NONE', #193, #131, #92 ) ;
#55 = ADVANCED_FACE ( 'NONE', ( #209 ), #84, .T. ) ;
#56 = DIRECTION ( 'NONE',  ( 1.000000000000000000, 0.000000000000000000, 0.000000000000000000 ) ) ;
#57 = ORIENTED_EDGE ( 'NONE', *, *, #110, .F. ) ;
#58 = ORIENTED_EDGE ( 'NONE', *, *, #153, .T. ) ;
#59 = CIRCLE ( 'NONE', #260, 16.99500000000000099 ) ;
#60 = ORIENTED_EDGE ( 'NONE', *, *, #171, .F. ) ;
#61 =( LENGTH_UNIT ( ) NAMED_UNIT ( * ) SI_UNIT ( .MILLI., .METRE. ) );
#62 = DIRECTION ( 'NONE',  ( 0.000000000000000000, 0.000000000000000000, 1.000000000000000000 ) ) ;
#63 = EDGE_CURVE ( 'NONE', #65, #4, #134, .T. ) ;
#64 = DIRECTION ( 'NONE',  ( 0.000000000000000000, 0.000000000000000000, 1.000000000000000000 ) ) ;
#65 = VERTEX_POINT ( 'NONE', #108 ) ;
#66 = CIRCLE ( 'NONE', #246, 16.99500000000000099 ) ;
#67 = FACE_OUTER_BOUND ( 'NONE', #237, .T. ) ;
#68 = DIRECTION ( 'NONE',  ( 1.000000000000000000, 0.000000000000000000, -0.000000000000000000 ) ) ;
#69 = CARTESIAN_POINT ( 'NONE',  ( 0.000000000000000000, 0.000000000000000000, 8.000000000000000000 ) ) ;
#70 = AXIS2_PLACEMENT_3D ( 'NONE', #111, #185, #68 ) ;
#71 = LINE ( 'NONE', #157, #9 ) ;
#72 = FACE_OUTER_BOUND ( 'NONE', #127, .T. ) ;
#73 = ADVANCED_FACE ( 'NONE', ( #83, #233 ), #170, .T. ) ;
#74 = CARTESIAN_POINT ( 'NONE',  ( -5.000000000000000000, 0.000000000000000000, 0.000000000000000000 ) ) ;
#75 = ADVANCED_FACE ( 'NONE', ( #214 ), #14, .T. ) ;
#76 = ORIENTED_EDGE ( 'NONE', *, *, #112, .T. ) ;
#77 = VERTEX_POINT ( 'NONE', #179 ) ;
#78 = SURFACE_SIDE_STYLE ('',( #7 ) ) ;
#79 = DIRECTION ( 'NONE',  ( 0.000000000000000000, 0.000000000000000000, 1.000000000000000000 ) ) ;
#80 = CARTESIAN_POINT ( 'NONE',  ( 0.000000000000000000, 0.000000000000000000, 8.000000000000000000 ) ) ;
#81 = AXIS2_PLACEMENT_3D ( 'NONE', #257, #64, #150 ) ;
#82 = EDGE_CURVE ( 'NONE', #275, #4, #155, .T. ) ;
#83 = FACE_BOUND ( 'NONE', #282, .T. ) ;
#84 = CYLINDRICAL_SURFACE ( 'NONE', #203, 18.99999999999999645 ) ;
#85 = ORIENTED_EDGE ( 'NONE', *, *, #171, .T. ) ;
#86 = DIRECTION ( 'NONE',  ( -0.000000000000000000, -0.000000000000000000, -1.000000000000000000 ) ) ;
#87 = CARTESIAN_POINT ( 'NONE',  ( -18.99999999999999645, 0.000000000000000000, 0.000000000000000000 ) ) ;
#88 = SURFACE_STYLE_FILL_AREA ( #219 ) ;
#89 = AXIS2_PLACEMENT_3D ( 'NONE', #221, #212, #274 ) ;
#90 = CIRCLE ( 'NONE', #249, 5.000000000000000000 ) ;
#91 = DIRECTION ( 'NONE',  ( -1.000000000000000000, 0.000000000000000000, 0.000000000000000000 ) ) ;
#92 = DIRECTION ( 'NONE',  ( -1.000000000000000000, 0.000000000000000000, 0.000000000000000000 ) ) ;
#93 = FACE_OUTER_BOUND ( 'NONE', #120, .T. ) ;
#94 = MECHANICAL_DESIGN_GEOMETRIC_PRESENTATION_REPRESENTATION (  '', ( #243 ), #137 ) ;
#95 = AXIS2_PLACEMENT_3D ( 'NONE', #262, #10, #277 ) ;
#96 = VERTEX_POINT ( 'NONE', #181 ) ;
#97 = EDGE_LOOP ( 'NONE', ( #57, #248, #226, #174 ) ) ;
#98 = ORIENTED_EDGE ( 'NONE', *, *, #293, .T. ) ;
#99 = ORIENTED_EDGE ( 'NONE', *, *, #110, .T. ) ;
#100 = CIRCLE ( 'NONE', #95, 5.000000000000000000 ) ;
#101 = ORIENTED_EDGE ( 'NONE', *, *, #132, .F. ) ;
#102 = ORIENTED_EDGE ( 'NONE', *, *, #293, .F. ) ;
#103 = COLOUR_RGB ( '',0.7921568627450980005, 0.8196078431372548767, 0.9333333333333333481 ) ;
#104 = DIRECTION ( 'NONE',  ( 1.000000000000000000, 0.000000000000000000, 0.000000000000000000 ) ) ;
#105 = CLOSED_SHELL ( 'NONE', ( #287, #75, #217, #55, #223, #232, #13, #73, #139 ) ) ;
#106 = DIRECTION ( 'NONE',  ( 0.000000000000000000, 0.000000000000000000, -1.000000000000000000 ) ) ;
#107 = DIRECTION ( 'NONE',  ( -0.000000000000000000, -0.000000000000000000, -1.000000000000000000 ) ) ;
#108 = CARTESIAN_POINT ( 'NONE',  ( -16.99500000000000099, 0.000000000000000000, 8.000000000000000000 ) ) ;
#109 = CARTESIAN_POINT ( 'NONE',  ( 0.000000000000000000, 0.000000000000000000, 52.50000000000000000 ) ) ;
#110 = EDGE_CURVE ( 'NONE', #275, #32, #30, .T. ) ;
#111 = CARTESIAN_POINT ( 'NONE',  ( 0.000000000000000000, 0.000000000000000000, 0.000000000000000000 ) ) ;
#112 = EDGE_CURVE ( 'NONE', #149, #12, #90, .T. ) ;
#113 = AXIS2_PLACEMENT_3D ( 'NONE', #288, #22, #135 ) ;
#114 = AXIS2_PLACEMENT_3D ( 'NONE', #109, #125, #168 ) ;
#115 = CYLINDRICAL_SURFACE ( 'NONE', #126, 18.99999999999999645 ) ;
#116 = PLANE ( 'NONE',  #53 ) ;
#117 = MECHANICAL_DESIGN_GEOMETRIC_PRESENTATION_REPRESENTATION (  '', ( #143 ), #197 ) ;
#118 = CIRCLE ( 'NONE', #113, 18.99999999999999645 ) ;
#119 = VERTEX_POINT ( 'NONE', #74 ) ;
#120 = EDGE_LOOP ( 'NONE', ( #292, #101 ) ) ;
#121 = PRODUCT_DEFINITION_FORMATION_WITH_SPECIFIED_SOURCE ( 'ANY', '', #148, .NOT_KNOWN. ) ;
#122 = ORIENTED_EDGE ( 'NONE', *, *, #132, .T. ) ;
#123 = PRODUCT_DEFINITION ( 'UNKNOWN', '', #121, #268 ) ;
#124 = DIRECTION ( 'NONE',  ( -0.000000000000000000, -0.000000000000000000, -1.000000000000000000 ) ) ;
#125 = DIRECTION ( 'NONE',  ( -0.000000000000000000, -0.000000000000000000, -1.000000000000000000 ) ) ;
#126 = AXIS2_PLACEMENT_3D ( 'NONE', #244, #218, #222 ) ;
#127 = EDGE_LOOP ( 'NONE', ( #141, #162, #122, #129 ) ) ;
#128 = DIRECTION ( 'NONE',  ( -1.000000000000000000, 0.000000000000000000, 0.000000000000000000 ) ) ;
#129 = ORIENTED_EDGE ( 'NONE', *, *, #44, .F. ) ;
#130 = DIRECTION ( 'NONE',  ( 0.000000000000000000, 0.000000000000000000, -1.000000000000000000 ) ) ;
#131 = DIRECTION ( 'NONE',  ( -0.000000000000000000, -0.000000000000000000, -1.000000000000000000 ) ) ;
#132 = EDGE_CURVE ( 'NONE', #52, #187, #118, .T. ) ;
#133 = FACE_BOUND ( 'NONE', #247, .T. ) ;
#134 = CIRCLE ( 'NONE', #3, 16.99500000000000099 ) ;
#135 = DIRECTION ( 'NONE',  ( 1.000000000000000000, 0.000000000000000000, 0.000000000000000000 ) ) ;
#136 = ORIENTED_EDGE ( 'NONE', *, *, #82, .F. ) ;
#137 =( GEOMETRIC_REPRESENTATION_CONTEXT ( 3 ) GLOBAL_UNCERTAINTY_ASSIGNED_CONTEXT ( ( #26 ) ) GLOBAL_UNIT_ASSIGNED_CONTEXT ( ( #47, #208, #5 ) ) REPRESENTATION_CONTEXT ( 'NONE', 'WORKASPACE' ) );
#138 = ORIENTED_EDGE ( 'NONE', *, *, #273, .F. ) ;
#139 = ADVANCED_FACE ( 'NONE', ( #199 ), #177, .F. ) ;
#140 =( NAMED_UNIT ( * ) PLANE_ANGLE_UNIT ( ) SI_UNIT ( $, .RADIAN. ) );
#141 = ORIENTED_EDGE ( 'NONE', *, *, #266, .F. ) ;
#142 = CARTESIAN_POINT ( 'NONE',  ( -5.000000000000000000, 0.000000000000000000, 52.50000000000000000 ) ) ;
#143 = STYLED_ITEM ( 'NONE', ( #276 ), #19 ) ;
#144 = VECTOR ( 'NONE', #107, 1000.000000000000000 ) ;
#145 = ORIENTED_EDGE ( 'NONE', *, *, #18, .F. ) ;
#146 = DIRECTION ( 'NONE',  ( -1.000000000000000000, 0.000000000000000000, 0.000000000000000000 ) ) ;
#147 = CARTESIAN_POINT ( 'NONE',  ( 5.000000000000000000, 6.123233995736766282E-16, 52.50000000000000000 ) ) ;
#148 = PRODUCT ( 'COUPELLE PEINTURE BSA', 'COUPELLE PEINTURE BSA', '', ( #45 ) ) ;
#149 = VERTEX_POINT ( 'NONE', #17 ) ;
#150 = DIRECTION ( 'NONE',  ( 1.000000000000000000, 0.000000000000000000, -0.000000000000000000 ) ) ;
#151 = EDGE_LOOP ( 'NONE', ( #58, #99 ) ) ;
#152 = SURFACE_STYLE_USAGE ( .BOTH. , #284 ) ;
#153 = EDGE_CURVE ( 'NONE', #32, #275, #59, .T. ) ;
#154 =( GEOMETRIC_REPRESENTATION_CONTEXT ( 3 ) GLOBAL_UNCERTAINTY_ASSIGNED_CONTEXT ( ( #291 ) ) GLOBAL_UNIT_ASSIGNED_CONTEXT ( ( #229, #140, #33 ) ) REPRESENTATION_CONTEXT ( 'NONE', 'WORKASPACE' ) );
#155 = LINE ( 'NONE', #198, #156 ) ;
#156 = VECTOR ( 'NONE', #182, 1000.000000000000000 ) ;
#157 = CARTESIAN_POINT ( 'NONE',  ( -16.99500000000000099, 0.000000000000000000, 52.50000000000000000 ) ) ;
#158 = FACE_BOUND ( 'NONE', #224, .T. ) ;
#159 = DIRECTION ( 'NONE',  ( 0.000000000000000000, 0.000000000000000000, 1.000000000000000000 ) ) ;
#160 = ORIENTED_EDGE ( 'NONE', *, *, #42, .T. ) ;
#161 = EDGE_CURVE ( 'NONE', #77, #96, #173, .T. ) ;
#162 = ORIENTED_EDGE ( 'NONE', *, *, #39, .T. ) ;
#163 = AXIS2_PLACEMENT_3D ( 'NONE', #240, #25, #196 ) ;
#164 = CARTESIAN_POINT ( 'NONE',  ( 0.000000000000000000, 0.000000000000000000, 0.000000000000000000 ) ) ;
#165 = ORIENTED_EDGE ( 'NONE', *, *, #18, .T. ) ;
#166 = APPLICATION_CONTEXT ( 'automotive_design' ) ;
#167 = PRESENTATION_LAYER_ASSIGNMENT (  '', '', ( #243 ) ) ;
#168 = DIRECTION ( 'NONE',  ( -1.000000000000000000, 0.000000000000000000, 0.000000000000000000 ) ) ;
#169 = APPLICATION_PROTOCOL_DEFINITION ( 'draft international standard', 'automotive_design', 1998, #166 ) ;
#170 = PLANE ( 'NONE',  #81 ) ;
#171 = EDGE_CURVE ( 'NONE', #12, #149, #16, .T. ) ;
#172 = ORIENTED_EDGE ( 'NONE', *, *, #254, .T. ) ;
#173 = CIRCLE ( 'NONE', #178, 18.99999999999999645 ) ;
#174 = ORIENTED_EDGE ( 'NONE', *, *, #184, .F. ) ;
#175 = SHAPE_DEFINITION_REPRESENTATION ( #227, #19 ) ;
#176 = LINE ( 'NONE', #259, #144 ) ;
#177 = CYLINDRICAL_SURFACE ( 'NONE', #163, 5.000000000000000000 ) ;
#178 = AXIS2_PLACEMENT_3D ( 'NONE', #69, #24, #283 ) ;
#179 = CARTESIAN_POINT ( 'NONE',  ( -18.99999999999999645, 0.000000000000000000, 8.000000000000000000 ) ) ;
#180 = UNCERTAINTY_MEASURE_WITH_UNIT (LENGTH_MEASURE( 1.000000000000000082E-05 ), #61, 'distance_accuracy_value', 'NONE');
#181 = CARTESIAN_POINT ( 'NONE',  ( 18.99999999999999645, 2.326828918379970576E-15, 8.000000000000000000 ) ) ;
#182 = DIRECTION ( 'NONE',  ( -0.000000000000000000, -0.000000000000000000, -1.000000000000000000 ) ) ;
#183 = VECTOR ( 'NONE', #1, 1000.000000000000000 ) ;
#184 = EDGE_CURVE ( 'NONE', #32, #65, #71, .T. ) ;
#185 = DIRECTION ( 'NONE',  ( 0.000000000000000000, 0.000000000000000000, 1.000000000000000000 ) ) ;
#186 = FILL_AREA_STYLE_COLOUR ( '', #103 ) ;
#187 = VERTEX_POINT ( 'NONE', #87 ) ;
#188 = FILL_AREA_STYLE ('',( #186 ) ) ;
#189 = DIRECTION ( 'NONE',  ( -0.000000000000000000, -0.000000000000000000, -1.000000000000000000 ) ) ;
#190 = DIRECTION ( 'NONE',  ( 1.000000000000000000, 0.000000000000000000, 0.000000000000000000 ) ) ;
#191 = EDGE_LOOP ( 'NONE', ( #145, #38, #215, #160 ) ) ;
#192 = DIRECTION ( 'NONE',  ( 1.000000000000000000, 0.000000000000000000, 0.000000000000000000 ) ) ;
#193 = CARTESIAN_POINT ( 'NONE',  ( 0.000000000000000000, 0.000000000000000000, 52.50000000000000000 ) ) ;
#194 = LINE ( 'NONE', #147, #269 ) ;
#195 = CARTESIAN_POINT ( 'NONE',  ( 0.000000000000000000, 0.000000000000000000, 52.50000000000000000 ) ) ;
#196 = DIRECTION ( 'NONE',  ( -1.000000000000000000, 0.000000000000000000, 0.000000000000000000 ) ) ;
#197 =( GEOMETRIC_REPRESENTATION_CONTEXT ( 3 ) GLOBAL_UNCERTAINTY_ASSIGNED_CONTEXT ( ( #180 ) ) GLOBAL_UNIT_ASSIGNED_CONTEXT ( ( #61, #253, #35 ) ) REPRESENTATION_CONTEXT ( 'NONE', 'WORKASPACE' ) );
#198 = CARTESIAN_POINT ( 'NONE',  ( 16.99500000000000099, 2.081287235150926888E-15, 52.50000000000000000 ) ) ;
#199 = FACE_OUTER_BOUND ( 'NONE', #191, .T. ) ;
#200 = DIRECTION ( 'NONE',  ( 0.000000000000000000, 0.000000000000000000, 1.000000000000000000 ) ) ;
#201 = AXIS2_PLACEMENT_3D ( 'NONE', #281, #106, #146 ) ;
#202 = ORIENTED_EDGE ( 'NONE', *, *, #161, .F. ) ;
#203 = AXIS2_PLACEMENT_3D ( 'NONE', #255, #189, #128 ) ;
#204 = CIRCLE ( 'NONE', #201, 5.000000000000000000 ) ;
#205 = CARTESIAN_POINT ( 'NONE',  ( 0.000000000000000000, 0.000000000000000000, 52.50000000000000000 ) ) ;
#206 = EDGE_LOOP ( 'NONE', ( #60, #165, #98, #138 ) ) ;
#207 = APPLICATION_CONTEXT ( 'automotive_design' ) ;
#208 =( NAMED_UNIT ( * ) PLANE_ANGLE_UNIT ( ) SI_UNIT ( $, .RADIAN. ) );
#209 = FACE_OUTER_BOUND ( 'NONE', #34, .T. ) ;
#210 = DIRECTION ( 'NONE',  ( -1.000000000000000000, 0.000000000000000000, 0.000000000000000000 ) ) ;
#211 = CARTESIAN_POINT ( 'NONE',  ( -16.99500000000000099, 0.000000000000000000, 52.50000000000000000 ) ) ;
#212 = DIRECTION ( 'NONE',  ( 0.000000000000000000, 0.000000000000000000, 1.000000000000000000 ) ) ;
#213 = ORIENTED_EDGE ( 'NONE', *, *, #266, .T. ) ;
#214 = FACE_OUTER_BOUND ( 'NONE', #97, .T. ) ;
#215 = ORIENTED_EDGE ( 'NONE', *, *, #273, .T. ) ;
#216 = PRESENTATION_STYLE_ASSIGNMENT (( #152 ) ) ;
#217 = ADVANCED_FACE ( 'NONE', ( #72 ), #115, .T. ) ;
#218 = DIRECTION ( 'NONE',  ( -0.000000000000000000, -0.000000000000000000, -1.000000000000000000 ) ) ;
#219 = FILL_AREA_STYLE ('',( #20 ) ) ;
#220 = AXIS2_PLACEMENT_3D ( 'NONE', #164, #250, #56 ) ;
#221 = CARTESIAN_POINT ( 'NONE',  ( 0.000000000000000000, 0.000000000000000000, 0.000000000000000000 ) ) ;
#222 = DIRECTION ( 'NONE',  ( -1.000000000000000000, 0.000000000000000000, 0.000000000000000000 ) ) ;
#223 = ADVANCED_FACE ( 'NONE', ( #158, #241 ), #116, .T. ) ;
#224 = EDGE_LOOP ( 'NONE', ( #27, #31 ) ) ;
#225 = AXIS2_PLACEMENT_3D ( 'NONE', #205, #251, #210 ) ;
#226 = ORIENTED_EDGE ( 'NONE', *, *, #8, .T. ) ;
#227 = PRODUCT_DEFINITION_SHAPE ( 'NONE', 'NONE',  #123 ) ;
#228 = CYLINDRICAL_SURFACE ( 'NONE', #225, 5.000000000000000000 ) ;
#229 =( LENGTH_UNIT ( ) NAMED_UNIT ( * ) SI_UNIT ( .MILLI., .METRE. ) );
#230 = CARTESIAN_POINT ( 'NONE',  ( 0.000000000000000000, 0.000000000000000000, 8.000000000000000000 ) ) ;
#231 = LINE ( 'NONE', #36, #272 ) ;
#232 = ADVANCED_FACE ( 'NONE', ( #133, #93 ), #263, .F. ) ;
#233 = FACE_OUTER_BOUND ( 'NONE', #151, .T. ) ;
#234 = CARTESIAN_POINT ( 'NONE',  ( 16.99500000000000099, 2.081287235150926888E-15, 52.50000000000000000 ) ) ;
#235 = ORIENTED_EDGE ( 'NONE', *, *, #153, .F. ) ;
#236 = CARTESIAN_POINT ( 'NONE',  ( 5.000000000000000000, 6.123233995736766282E-16, 0.000000000000000000 ) ) ;
#237 = EDGE_LOOP ( 'NONE', ( #136, #235, #37, #252 ) ) ;
#238 = DIRECTION ( 'NONE',  ( -1.000000000000000000, 0.000000000000000000, 0.000000000000000000 ) ) ;
#239 = AXIS2_PLACEMENT_3D ( 'NONE', #230, #79, #190 ) ;
#240 = CARTESIAN_POINT ( 'NONE',  ( 0.000000000000000000, 0.000000000000000000, 52.50000000000000000 ) ) ;
#241 = FACE_OUTER_BOUND ( 'NONE', #270, .T. ) ;
#242 = DIRECTION ( 'NONE',  ( 0.000000000000000000, 0.000000000000000000, 1.000000000000000000 ) ) ;
#243 = STYLED_ITEM ( 'NONE', ( #216 ), #245 ) ;
#244 = CARTESIAN_POINT ( 'NONE',  ( 0.000000000000000000, 0.000000000000000000, 8.000000000000000000 ) ) ;
#245 = MANIFOLD_SOLID_BREP ( 'Enlèv. mat.-Extru.1', #105 ) ;
#246 = AXIS2_PLACEMENT_3D ( 'NONE', #40, #279, #192 ) ;
#247 = EDGE_LOOP ( 'NONE', ( #29, #102 ) ) ;
#248 = ORIENTED_EDGE ( 'NONE', *, *, #82, .T. ) ;
#249 = AXIS2_PLACEMENT_3D ( 'NONE', #267, #43, #238 ) ;
#250 = DIRECTION ( 'NONE',  ( 0.000000000000000000, 0.000000000000000000, 1.000000000000000000 ) ) ;
#251 = DIRECTION ( 'NONE',  ( -0.000000000000000000, -0.000000000000000000, -1.000000000000000000 ) ) ;
#252 = ORIENTED_EDGE ( 'NONE', *, *, #63, .T. ) ;
#253 =( NAMED_UNIT ( * ) PLANE_ANGLE_UNIT ( ) SI_UNIT ( $, .RADIAN. ) );
#254 = EDGE_CURVE ( 'NONE', #187, #52, #23, .T. ) ;
#255 = CARTESIAN_POINT ( 'NONE',  ( 0.000000000000000000, 0.000000000000000000, 8.000000000000000000 ) ) ;
#256 = SURFACE_STYLE_USAGE ( .BOTH. , #78 ) ;
#257 = CARTESIAN_POINT ( 'NONE',  ( 0.000000000000000000, 0.000000000000000000, 52.50000000000000000 ) ) ;
#258 = PRODUCT_RELATED_PRODUCT_CATEGORY ( 'part', '', ( #148 ) ) ;
#259 = CARTESIAN_POINT ( 'NONE',  ( 18.99999999999999645, 2.326828918379970576E-15, 8.000000000000000000 ) ) ;
#260 = AXIS2_PLACEMENT_3D ( 'NONE', #46, #159, #50 ) ;
#261 = CARTESIAN_POINT ( 'NONE',  ( 16.99500000000000099, 2.081287235150926888E-15, 8.000000000000000000 ) ) ;
#262 = CARTESIAN_POINT ( 'NONE',  ( 0.000000000000000000, 0.000000000000000000, 0.000000000000000000 ) ) ;
#263 = PLANE ( 'NONE',  #70 ) ;
#264 = DIRECTION ( 'NONE',  ( -0.000000000000000000, -0.000000000000000000, -1.000000000000000000 ) ) ;
#265 = CARTESIAN_POINT ( 'NONE',  ( 0.000000000000000000, 0.000000000000000000, 52.50000000000000000 ) ) ;
#266 = EDGE_CURVE ( 'NONE', #96, #77, #28, .T. ) ;
#267 = CARTESIAN_POINT ( 'NONE',  ( 0.000000000000000000, 0.000000000000000000, 52.50000000000000000 ) ) ;
#268 = PRODUCT_DEFINITION_CONTEXT ( 'detailed design', #207, 'design' ) ;
#269 = VECTOR ( 'NONE', #86, 1000.000000000000000 ) ;
#270 = EDGE_LOOP ( 'NONE', ( #6, #213 ) ) ;
#271 = ORIENTED_EDGE ( 'NONE', *, *, #44, .T. ) ;
#272 = VECTOR ( 'NONE', #124, 1000.000000000000000 ) ;
#273 = EDGE_CURVE ( 'NONE', #149, #119, #278, .T. ) ;
#274 = DIRECTION ( 'NONE',  ( 1.000000000000000000, 0.000000000000000000, 0.000000000000000000 ) ) ;
#275 = VERTEX_POINT ( 'NONE', #234 ) ;
#276 = PRESENTATION_STYLE_ASSIGNMENT (( #256 ) ) ;
#277 = DIRECTION ( 'NONE',  ( -1.000000000000000000, 0.000000000000000000, 0.000000000000000000 ) ) ;
#278 = LINE ( 'NONE', #142, #183 ) ;
#279 = DIRECTION ( 'NONE',  ( 0.000000000000000000, 0.000000000000000000, 1.000000000000000000 ) ) ;
#280 = CARTESIAN_POINT ( 'NONE',  ( 18.99999999999999645, 2.326828918379970576E-15, 0.000000000000000000 ) ) ;
#281 = CARTESIAN_POINT ( 'NONE',  ( 0.000000000000000000, 0.000000000000000000, 0.000000000000000000 ) ) ;
#282 = EDGE_LOOP ( 'NONE', ( #76, #85 ) ) ;
#283 = DIRECTION ( 'NONE',  ( 1.000000000000000000, 0.000000000000000000, 0.000000000000000000 ) ) ;
#284 = SURFACE_SIDE_STYLE ('',( #88 ) ) ;
#285 = PRESENTATION_LAYER_ASSIGNMENT (  '', '', ( #143 ) ) ;
#286 = DIRECTION ( 'NONE',  ( 1.000000000000000000, 0.000000000000000000, 0.000000000000000000 ) ) ;
#287 = ADVANCED_FACE ( 'NONE', ( #11 ), #228, .F. ) ;
#288 = CARTESIAN_POINT ( 'NONE',  ( 0.000000000000000000, 0.000000000000000000, 0.000000000000000000 ) ) ;
#289 = DIRECTION ( 'NONE',  ( 1.000000000000000000, 0.000000000000000000, -0.000000000000000000 ) ) ;
#290 = COLOUR_RGB ( '',0.7921568627450980005, 0.8196078431372548767, 0.9333333333333333481 ) ;
#291 = UNCERTAINTY_MEASURE_WITH_UNIT (LENGTH_MEASURE( 1.000000000000000082E-05 ), #229, 'distance_accuracy_value', 'NONE');
#292 = ORIENTED_EDGE ( 'NONE', *, *, #254, .F. ) ;
#293 = EDGE_CURVE ( 'NONE', #2, #119, #204, .T. ) ;
#294 = ORIENTED_EDGE ( 'NONE', *, *, #39, .F. ) ;
ENDSEC;
END-ISO-10303-21;
