ISO-10303-21;
HEADER;
FILE_DESCRIPTION (( 'STEP AP214' ),
    '1' );
FILE_NAME ('FIN COUPELLE T47.STEP',
    '2022-06-29T11:52:37',
    ( '' ),
    ( '' ),
    'SwSTEP 2.0',
    'SolidWorks 2020',
    '' );
FILE_SCHEMA (( 'AUTOMOTIVE_DESIGN' ));
ENDSEC;

DATA;
#1 = VERTEX_POINT ( 'NONE', #41 ) ;
#2 = STYLED_ITEM ( 'NONE', ( #37 ), #134 ) ;
#3 = DIRECTION ( 'NONE',  ( 0.000000000000000000, 0.000000000000000000, 1.000000000000000000 ) ) ;
#4 = STYLED_ITEM ( 'NONE', ( #61 ), #271 ) ;
#5 = CARTESIAN_POINT ( 'NONE',  ( 0.000000000000000000, 0.000000000000000000, 0.000000000000000000 ) ) ;
#6 = FACE_OUTER_BOUND ( 'NONE', #245, .T. ) ;
#7 = DIRECTION ( 'NONE',  ( -0.000000000000000000, -0.000000000000000000, -1.000000000000000000 ) ) ;
#8 = CARTESIAN_POINT ( 'NONE',  ( 0.000000000000000000, 0.000000000000000000, 8.000000000000000000 ) ) ;
#9 = DIRECTION ( 'NONE',  ( -0.000000000000000000, -0.000000000000000000, -1.000000000000000000 ) ) ;
#10 = CIRCLE ( 'NONE', #292, 5.000000000000000000 ) ;
#11 = AXIS2_PLACEMENT_3D ( 'NONE', #20, #92, #45 ) ;
#12 = EDGE_CURVE ( 'NONE', #200, #273, #15, .T. ) ;
#13 = SURFACE_STYLE_USAGE ( .BOTH. , #262 ) ;
#14 = DIRECTION ( 'NONE',  ( 1.000000000000000000, 0.000000000000000000, 0.000000000000000000 ) ) ;
#15 = CIRCLE ( 'NONE', #158, 22.45000000000000284 ) ;
#16 = ORIENTED_EDGE ( 'NONE', *, *, #50, .T. ) ;
#17 = LINE ( 'NONE', #152, #276 ) ;
#18 = FILL_AREA_STYLE_COLOUR ( '', #128 ) ;
#19 = VERTEX_POINT ( 'NONE', #272 ) ;
#20 = CARTESIAN_POINT ( 'NONE',  ( 0.000000000000000000, 0.000000000000000000, 37.00000000000000711 ) ) ;
#21 = ADVANCED_FACE ( 'NONE', ( #94, #183 ), #26, .T. ) ;
#22 = ORIENTED_EDGE ( 'NONE', *, *, #12, .T. ) ;
#23 = APPLICATION_CONTEXT ( 'automotive_design' ) ;
#24 = CARTESIAN_POINT ( 'NONE',  ( 0.000000000000000000, 0.000000000000000000, 37.00000000000000711 ) ) ;
#25 = ORIENTED_EDGE ( 'NONE', *, *, #269, .F. ) ;
#26 = PLANE ( 'NONE',  #137 ) ;
#27 = ADVANCED_FACE ( 'NONE', ( #290 ), #95, .T. ) ;
#28 = SHAPE_DEFINITION_REPRESENTATION ( #251, #271 ) ;
#29 = CYLINDRICAL_SURFACE ( 'NONE', #49, 22.45000000000000284 ) ;
#30 = AXIS2_PLACEMENT_3D ( 'NONE', #210, #3, #104 ) ;
#31 = CARTESIAN_POINT ( 'NONE',  ( 0.000000000000000000, 0.000000000000000000, 8.000000000000000000 ) ) ;
#32 = EDGE_CURVE ( 'NONE', #51, #19, #191, .T. ) ;
#33 = DIRECTION ( 'NONE',  ( 0.000000000000000000, 0.000000000000000000, 1.000000000000000000 ) ) ;
#34 = UNCERTAINTY_MEASURE_WITH_UNIT (LENGTH_MEASURE( 1.000000000000000082E-05 ), #144, 'distance_accuracy_value', 'NONE');
#35 = DIRECTION ( 'NONE',  ( 0.000000000000000000, 0.000000000000000000, 1.000000000000000000 ) ) ;
#36 = DIRECTION ( 'NONE',  ( -1.000000000000000000, 0.000000000000000000, 0.000000000000000000 ) ) ;
#37 = PRESENTATION_STYLE_ASSIGNMENT (( #172 ) ) ;
#38 = SURFACE_STYLE_FILL_AREA ( #68 ) ;
#39 = PRODUCT_DEFINITION ( 'UNKNOWN', '', #284, #211 ) ;
#40 = ORIENTED_EDGE ( 'NONE', *, *, #258, .F. ) ;
#41 = CARTESIAN_POINT ( 'NONE',  ( -26.00000000000000355, 0.000000000000000000, 0.000000000000000000 ) ) ;
#42 = EDGE_LOOP ( 'NONE', ( #208, #70, #162, #224 ) ) ;
#43 = EDGE_CURVE ( 'NONE', #273, #200, #214, .T. ) ;
#44 = ORIENTED_EDGE ( 'NONE', *, *, #168, .T. ) ;
#45 = DIRECTION ( 'NONE',  ( 1.000000000000000000, 0.000000000000000000, -0.000000000000000000 ) ) ;
#46 = DIRECTION ( 'NONE',  ( 0.000000000000000000, 0.000000000000000000, 1.000000000000000000 ) ) ;
#47 = ORIENTED_EDGE ( 'NONE', *, *, #184, .T. ) ;
#48 = VECTOR ( 'NONE', #213, 1000.000000000000000 ) ;
#49 = AXIS2_PLACEMENT_3D ( 'NONE', #240, #174, #283 ) ;
#50 = EDGE_CURVE ( 'NONE', #69, #75, #10, .T. ) ;
#51 = VERTEX_POINT ( 'NONE', #259 ) ;
#52 = DIRECTION ( 'NONE',  ( 1.000000000000000000, 0.000000000000000000, 0.000000000000000000 ) ) ;
#53 = PRODUCT_RELATED_PRODUCT_CATEGORY ( 'part', '', ( #149 ) ) ;
#54 = SURFACE_STYLE_FILL_AREA ( #219 ) ;
#55 =( NAMED_UNIT ( * ) SI_UNIT ( $, .STERADIAN. ) SOLID_ANGLE_UNIT ( ) );
#56 = CARTESIAN_POINT ( 'NONE',  ( 0.000000000000000000, 0.000000000000000000, 8.000000000000000000 ) ) ;
#57 = ADVANCED_FACE ( 'NONE', ( #256 ), #285, .T. ) ;
#58 = DIRECTION ( 'NONE',  ( 1.000000000000000000, 0.000000000000000000, -0.000000000000000000 ) ) ;
#59 = CARTESIAN_POINT ( 'NONE',  ( 0.000000000000000000, 0.000000000000000000, 37.00000000000000711 ) ) ;
#60 = DIRECTION ( 'NONE',  ( -0.000000000000000000, -0.000000000000000000, -1.000000000000000000 ) ) ;
#61 = PRESENTATION_STYLE_ASSIGNMENT (( #13 ) ) ;
#62 = ORIENTED_EDGE ( 'NONE', *, *, #279, .T. ) ;
#63 = CIRCLE ( 'NONE', #171, 22.45000000000000284 ) ;
#64 = EDGE_LOOP ( 'NONE', ( #145, #97 ) ) ;
#65 = AXIS2_PLACEMENT_3D ( 'NONE', #228, #225, #67 ) ;
#66 = EDGE_CURVE ( 'NONE', #73, #242, #237, .T. ) ;
#67 = DIRECTION ( 'NONE',  ( -1.000000000000000000, 0.000000000000000000, 0.000000000000000000 ) ) ;
#68 = FILL_AREA_STYLE ('',( #18 ) ) ;
#69 = VERTEX_POINT ( 'NONE', #261 ) ;
#70 = ORIENTED_EDGE ( 'NONE', *, *, #50, .F. ) ;
#71 = ORIENTED_EDGE ( 'NONE', *, *, #148, .F. ) ;
#72 = EDGE_CURVE ( 'NONE', #242, #1, #267, .T. ) ;
#73 = VERTEX_POINT ( 'NONE', #241 ) ;
#74 = VECTOR ( 'NONE', #103, 1000.000000000000000 ) ;
#75 = VERTEX_POINT ( 'NONE', #282 ) ;
#76 = FACE_OUTER_BOUND ( 'NONE', #143, .T. ) ;
#77 = CARTESIAN_POINT ( 'NONE',  ( 0.000000000000000000, 0.000000000000000000, 37.00000000000000711 ) ) ;
#78 = EDGE_CURVE ( 'NONE', #73, #141, #180, .T. ) ;
#79 = CARTESIAN_POINT ( 'NONE',  ( 5.000000000000000000, 6.123233995736766282E-16, 0.000000000000000000 ) ) ;
#80 = AXIS2_PLACEMENT_3D ( 'NONE', #220, #114, #281 ) ;
#81 = AXIS2_PLACEMENT_3D ( 'NONE', #31, #135, #36 ) ;
#82 = FACE_BOUND ( 'NONE', #99, .T. ) ;
#83 = LINE ( 'NONE', #156, #138 ) ;
#84 = ADVANCED_FACE ( 'NONE', ( #82, #236 ), #175, .F. ) ;
#85 = CYLINDRICAL_SURFACE ( 'NONE', #231, 5.000000000000000000 ) ;
#86 = DIRECTION ( 'NONE',  ( -0.000000000000000000, -0.000000000000000000, -1.000000000000000000 ) ) ;
#87 = CARTESIAN_POINT ( 'NONE',  ( -5.000000000000000000, 0.000000000000000000, 0.000000000000000000 ) ) ;
#88 =( NAMED_UNIT ( * ) SI_UNIT ( $, .STERADIAN. ) SOLID_ANGLE_UNIT ( ) );
#89 = DIRECTION ( 'NONE',  ( -1.000000000000000000, 0.000000000000000000, 0.000000000000000000 ) ) ;
#90 = ADVANCED_FACE ( 'NONE', ( #133 ), #109, .F. ) ;
#91 = AXIS2_PLACEMENT_3D ( 'NONE', #5, #35, #278 ) ;
#92 = DIRECTION ( 'NONE',  ( 0.000000000000000000, 0.000000000000000000, 1.000000000000000000 ) ) ;
#93 = ADVANCED_FACE ( 'NONE', ( #6 ), #257, .T. ) ;
#94 = FACE_BOUND ( 'NONE', #119, .T. ) ;
#95 = CYLINDRICAL_SURFACE ( 'NONE', #255, 22.45000000000000284 ) ;
#96 = PLANE ( 'NONE',  #11 ) ;
#97 = ORIENTED_EDGE ( 'NONE', *, *, #72, .F. ) ;
#98 = EDGE_CURVE ( 'NONE', #19, #200, #173, .T. ) ;
#99 = EDGE_LOOP ( 'NONE', ( #71, #40 ) ) ;
#100 = MECHANICAL_DESIGN_GEOMETRIC_PRESENTATION_REPRESENTATION (  '', ( #4 ), #108 ) ;
#101 = CARTESIAN_POINT ( 'NONE',  ( 0.000000000000000000, 0.000000000000000000, 0.000000000000000000 ) ) ;
#102 = DIRECTION ( 'NONE',  ( 0.000000000000000000, 0.000000000000000000, 1.000000000000000000 ) ) ;
#103 = DIRECTION ( 'NONE',  ( -0.000000000000000000, -0.000000000000000000, -1.000000000000000000 ) ) ;
#104 = DIRECTION ( 'NONE',  ( 1.000000000000000000, 0.000000000000000000, 0.000000000000000000 ) ) ;
#105 = EDGE_CURVE ( 'NONE', #75, #117, #83, .T. ) ;
#106 = DIRECTION ( 'NONE',  ( -0.000000000000000000, -0.000000000000000000, -1.000000000000000000 ) ) ;
#107 =( GEOMETRIC_REPRESENTATION_CONTEXT ( 3 ) GLOBAL_UNCERTAINTY_ASSIGNED_CONTEXT ( ( #193 ) ) GLOBAL_UNIT_ASSIGNED_CONTEXT ( ( #127, #197, #55 ) ) REPRESENTATION_CONTEXT ( 'NONE', 'WORKASPACE' ) );
#108 =( GEOMETRIC_REPRESENTATION_CONTEXT ( 3 ) GLOBAL_UNCERTAINTY_ASSIGNED_CONTEXT ( ( #34 ) ) GLOBAL_UNIT_ASSIGNED_CONTEXT ( ( #144, #118, #206 ) ) REPRESENTATION_CONTEXT ( 'NONE', 'WORKASPACE' ) );
#109 = CYLINDRICAL_SURFACE ( 'NONE', #161, 5.000000000000000000 ) ;
#110 =( LENGTH_UNIT ( ) NAMED_UNIT ( * ) SI_UNIT ( .MILLI., .METRE. ) );
#111 = CARTESIAN_POINT ( 'NONE',  ( 22.45000000000000284, 2.749332064085807705E-15, 37.00000000000000711 ) ) ;
#112 = CARTESIAN_POINT ( 'NONE',  ( -22.45000000000000284, 0.000000000000000000, 8.000000000000000000 ) ) ;
#113 = DIRECTION ( 'NONE',  ( -1.000000000000000000, 0.000000000000000000, 0.000000000000000000 ) ) ;
#114 = DIRECTION ( 'NONE',  ( 0.000000000000000000, 0.000000000000000000, -1.000000000000000000 ) ) ;
#115 = CIRCLE ( 'NONE', #65, 5.000000000000000000 ) ;
#116 = EDGE_LOOP ( 'NONE', ( #169, #289 ) ) ;
#117 = VERTEX_POINT ( 'NONE', #79 ) ;
#118 =( NAMED_UNIT ( * ) PLANE_ANGLE_UNIT ( ) SI_UNIT ( $, .RADIAN. ) );
#119 = EDGE_LOOP ( 'NONE', ( #160, #264 ) ) ;
#120 = CARTESIAN_POINT ( 'NONE',  ( 0.000000000000000000, 0.000000000000000000, 37.00000000000000711 ) ) ;
#121 = ORIENTED_EDGE ( 'NONE', *, *, #269, .T. ) ;
#122 = CARTESIAN_POINT ( 'NONE',  ( 22.45000000000000284, 2.749332064085807705E-15, 8.000000000000000000 ) ) ;
#123 = ORIENTED_EDGE ( 'NONE', *, *, #176, .T. ) ;
#124 = DIRECTION ( 'NONE',  ( -1.000000000000000000, 0.000000000000000000, 0.000000000000000000 ) ) ;
#125 = AXIS2_PLACEMENT_3D ( 'NONE', #192, #147, #229 ) ;
#126 = LINE ( 'NONE', #254, #74 ) ;
#127 =( LENGTH_UNIT ( ) NAMED_UNIT ( * ) SI_UNIT ( .MILLI., .METRE. ) );
#128 = COLOUR_RGB ( '',0.7921568627450980005, 0.8196078431372548767, 0.9333333333333333481 ) ;
#129 = DIRECTION ( 'NONE',  ( -1.000000000000000000, 0.000000000000000000, 0.000000000000000000 ) ) ;
#130 = DIRECTION ( 'NONE',  ( 1.000000000000000000, 0.000000000000000000, 0.000000000000000000 ) ) ;
#131 = AXIS2_PLACEMENT_3D ( 'NONE', #179, #266, #14 ) ;
#132 = DIRECTION ( 'NONE',  ( -0.000000000000000000, -0.000000000000000000, -1.000000000000000000 ) ) ;
#133 = FACE_OUTER_BOUND ( 'NONE', #42, .T. ) ;
#134 = MANIFOLD_SOLID_BREP ( 'Enlèv. mat.-Extru.1', #153 ) ;
#135 = DIRECTION ( 'NONE',  ( -0.000000000000000000, -0.000000000000000000, -1.000000000000000000 ) ) ;
#136 = ADVANCED_FACE ( 'NONE', ( #280, #142 ), #96, .T. ) ;
#137 = AXIS2_PLACEMENT_3D ( 'NONE', #270, #102, #205 ) ;
#138 = VECTOR ( 'NONE', #9, 1000.000000000000000 ) ;
#139 = APPLICATION_CONTEXT ( 'automotive_design' ) ;
#140 = ORIENTED_EDGE ( 'NONE', *, *, #184, .F. ) ;
#141 = VERTEX_POINT ( 'NONE', #146 ) ;
#142 = FACE_OUTER_BOUND ( 'NONE', #185, .T. ) ;
#143 = EDGE_LOOP ( 'NONE', ( #25, #150, #22, #140 ) ) ;
#144 =( LENGTH_UNIT ( ) NAMED_UNIT ( * ) SI_UNIT ( .MILLI., .METRE. ) );
#145 = ORIENTED_EDGE ( 'NONE', *, *, #176, .F. ) ;
#146 = CARTESIAN_POINT ( 'NONE',  ( -26.00000000000000355, 0.000000000000000000, 8.000000000000000000 ) ) ;
#147 = DIRECTION ( 'NONE',  ( 0.000000000000000000, 0.000000000000000000, 1.000000000000000000 ) ) ;
#148 = EDGE_CURVE ( 'NONE', #275, #117, #115, .T. ) ;
#149 = PRODUCT ( 'FIN COUPELLE T47', 'FIN COUPELLE T47', '', ( #230 ) ) ;
#150 = ORIENTED_EDGE ( 'NONE', *, *, #98, .T. ) ;
#151 = VECTOR ( 'NONE', #7, 1000.000000000000000 ) ;
#152 = CARTESIAN_POINT ( 'NONE',  ( -22.45000000000000284, 0.000000000000000000, 37.00000000000000711 ) ) ;
#153 = CLOSED_SHELL ( 'NONE', ( #265, #252, #93, #57, #21, #84, #27, #136, #90 ) ) ;
#154 = DIRECTION ( 'NONE',  ( 0.000000000000000000, 0.000000000000000000, 1.000000000000000000 ) ) ;
#155 = DIRECTION ( 'NONE',  ( 1.000000000000000000, 0.000000000000000000, 0.000000000000000000 ) ) ;
#156 = CARTESIAN_POINT ( 'NONE',  ( 5.000000000000000000, 6.123233995736766282E-16, 37.00000000000000711 ) ) ;
#157 = FACE_OUTER_BOUND ( 'NONE', #209, .T. ) ;
#158 = AXIS2_PLACEMENT_3D ( 'NONE', #207, #154, #234 ) ;
#159 = PRESENTATION_LAYER_ASSIGNMENT (  '', '', ( #2 ) ) ;
#160 = ORIENTED_EDGE ( 'NONE', *, *, #43, .F. ) ;
#161 = AXIS2_PLACEMENT_3D ( 'NONE', #216, #60, #113 ) ;
#162 = ORIENTED_EDGE ( 'NONE', *, *, #204, .T. ) ;
#163 = PRESENTATION_LAYER_ASSIGNMENT (  '', '', ( #4 ) ) ;
#164 = AXIS2_PLACEMENT_3D ( 'NONE', #101, #46, #52 ) ;
#165 = ORIENTED_EDGE ( 'NONE', *, *, #279, .F. ) ;
#166 = ORIENTED_EDGE ( 'NONE', *, *, #258, .T. ) ;
#167 = CARTESIAN_POINT ( 'NONE',  ( 26.00000000000000355, 3.184081677783118585E-15, 0.000000000000000000 ) ) ;
#168 = EDGE_CURVE ( 'NONE', #75, #69, #217, .T. ) ;
#169 = ORIENTED_EDGE ( 'NONE', *, *, #212, .T. ) ;
#170 = DIRECTION ( 'NONE',  ( -0.000000000000000000, -0.000000000000000000, -1.000000000000000000 ) ) ;
#171 = AXIS2_PLACEMENT_3D ( 'NONE', #199, #286, #155 ) ;
#172 = SURFACE_STYLE_USAGE ( .BOTH. , #198 ) ;
#173 = LINE ( 'NONE', #111, #223 ) ;
#174 = DIRECTION ( 'NONE',  ( -0.000000000000000000, -0.000000000000000000, -1.000000000000000000 ) ) ;
#175 = PLANE ( 'NONE',  #202 ) ;
#176 = EDGE_CURVE ( 'NONE', #1, #242, #249, .T. ) ;
#177 = APPLICATION_PROTOCOL_DEFINITION ( 'draft international standard', 'automotive_design', 1998, #23 ) ;
#178 = ORIENTED_EDGE ( 'NONE', *, *, #168, .F. ) ;
#179 = CARTESIAN_POINT ( 'NONE',  ( 0.000000000000000000, 0.000000000000000000, 0.000000000000000000 ) ) ;
#180 = CIRCLE ( 'NONE', #248, 26.00000000000000355 ) ;
#181 = MECHANICAL_DESIGN_GEOMETRIC_PRESENTATION_REPRESENTATION (  '', ( #2 ), #287 ) ;
#182 = ORIENTED_EDGE ( 'NONE', *, *, #66, .F. ) ;
#183 = FACE_OUTER_BOUND ( 'NONE', #116, .T. ) ;
#184 = EDGE_CURVE ( 'NONE', #51, #273, #17, .T. ) ;
#185 = EDGE_LOOP ( 'NONE', ( #226, #121 ) ) ;
#186 = ORIENTED_EDGE ( 'NONE', *, *, #212, .F. ) ;
#187 = ORIENTED_EDGE ( 'NONE', *, *, #105, .T. ) ;
#188 = CARTESIAN_POINT ( 'NONE',  ( 0.000000000000000000, 0.000000000000000000, 8.000000000000000000 ) ) ;
#189 = APPLICATION_PROTOCOL_DEFINITION ( 'draft international standard', 'automotive_design', 1998, #139 ) ;
#190 = DIRECTION ( 'NONE',  ( 0.000000000000000000, 0.000000000000000000, 1.000000000000000000 ) ) ;
#191 = CIRCLE ( 'NONE', #30, 22.45000000000000284 ) ;
#192 = CARTESIAN_POINT ( 'NONE',  ( 0.000000000000000000, 0.000000000000000000, 8.000000000000000000 ) ) ;
#193 = UNCERTAINTY_MEASURE_WITH_UNIT (LENGTH_MEASURE( 1.000000000000000082E-05 ), #127, 'distance_accuracy_value', 'NONE');
#194 = FILL_AREA_STYLE_COLOUR ( '', #235 ) ;
#195 = CARTESIAN_POINT ( 'NONE',  ( 0.000000000000000000, 0.000000000000000000, 0.000000000000000000 ) ) ;
#196 =( NAMED_UNIT ( * ) PLANE_ANGLE_UNIT ( ) SI_UNIT ( $, .RADIAN. ) );
#197 =( NAMED_UNIT ( * ) PLANE_ANGLE_UNIT ( ) SI_UNIT ( $, .RADIAN. ) );
#198 = SURFACE_SIDE_STYLE ('',( #54 ) ) ;
#199 = CARTESIAN_POINT ( 'NONE',  ( 0.000000000000000000, 0.000000000000000000, 37.00000000000000711 ) ) ;
#200 = VERTEX_POINT ( 'NONE', #122 ) ;
#201 = ORIENTED_EDGE ( 'NONE', *, *, #98, .F. ) ;
#202 = AXIS2_PLACEMENT_3D ( 'NONE', #195, #260, #58 ) ;
#203 = EDGE_LOOP ( 'NONE', ( #16, #44 ) ) ;
#204 = EDGE_CURVE ( 'NONE', #69, #275, #126, .T. ) ;
#205 = DIRECTION ( 'NONE',  ( 1.000000000000000000, 0.000000000000000000, -0.000000000000000000 ) ) ;
#206 =( NAMED_UNIT ( * ) SI_UNIT ( $, .STERADIAN. ) SOLID_ANGLE_UNIT ( ) );
#207 = CARTESIAN_POINT ( 'NONE',  ( 0.000000000000000000, 0.000000000000000000, 8.000000000000000000 ) ) ;
#208 = ORIENTED_EDGE ( 'NONE', *, *, #105, .F. ) ;
#209 = EDGE_LOOP ( 'NONE', ( #178, #187, #166, #268 ) ) ;
#210 = CARTESIAN_POINT ( 'NONE',  ( 0.000000000000000000, 0.000000000000000000, 37.00000000000000711 ) ) ;
#211 = PRODUCT_DEFINITION_CONTEXT ( 'detailed design', #139, 'design' ) ;
#212 = EDGE_CURVE ( 'NONE', #141, #73, #238, .T. ) ;
#213 = DIRECTION ( 'NONE',  ( -0.000000000000000000, -0.000000000000000000, -1.000000000000000000 ) ) ;
#214 = CIRCLE ( 'NONE', #125, 22.45000000000000284 ) ;
#215 = AXIS2_PLACEMENT_3D ( 'NONE', #56, #86, #129 ) ;
#216 = CARTESIAN_POINT ( 'NONE',  ( 0.000000000000000000, 0.000000000000000000, 37.00000000000000711 ) ) ;
#217 = CIRCLE ( 'NONE', #233, 5.000000000000000000 ) ;
#218 = DIRECTION ( 'NONE',  ( -1.000000000000000000, 0.000000000000000000, 0.000000000000000000 ) ) ;
#219 = FILL_AREA_STYLE ('',( #194 ) ) ;
#220 = CARTESIAN_POINT ( 'NONE',  ( 0.000000000000000000, 0.000000000000000000, 0.000000000000000000 ) ) ;
#221 = DIRECTION ( 'NONE',  ( -0.000000000000000000, -0.000000000000000000, -1.000000000000000000 ) ) ;
#222 = LINE ( 'NONE', #263, #151 ) ;
#223 = VECTOR ( 'NONE', #221, 1000.000000000000000 ) ;
#224 = ORIENTED_EDGE ( 'NONE', *, *, #148, .T. ) ;
#225 = DIRECTION ( 'NONE',  ( 0.000000000000000000, 0.000000000000000000, -1.000000000000000000 ) ) ;
#226 = ORIENTED_EDGE ( 'NONE', *, *, #32, .T. ) ;
#227 = ORIENTED_EDGE ( 'NONE', *, *, #66, .T. ) ;
#228 = CARTESIAN_POINT ( 'NONE',  ( 0.000000000000000000, 0.000000000000000000, 0.000000000000000000 ) ) ;
#229 = DIRECTION ( 'NONE',  ( 1.000000000000000000, 0.000000000000000000, 0.000000000000000000 ) ) ;
#230 = PRODUCT_CONTEXT ( 'NONE', #23, 'mechanical' ) ;
#231 = AXIS2_PLACEMENT_3D ( 'NONE', #59, #132, #218 ) ;
#232 = ORIENTED_EDGE ( 'NONE', *, *, #72, .T. ) ;
#233 = AXIS2_PLACEMENT_3D ( 'NONE', #120, #243, #89 ) ;
#234 = DIRECTION ( 'NONE',  ( 1.000000000000000000, 0.000000000000000000, 0.000000000000000000 ) ) ;
#235 = COLOUR_RGB ( '',0.7921568627450980005, 0.8196078431372548767, 0.9333333333333333481 ) ;
#236 = FACE_OUTER_BOUND ( 'NONE', #64, .T. ) ;
#237 = LINE ( 'NONE', #239, #48 ) ;
#238 = CIRCLE ( 'NONE', #253, 26.00000000000000355 ) ;
#239 = CARTESIAN_POINT ( 'NONE',  ( 26.00000000000000355, 3.184081677783118585E-15, 8.000000000000000000 ) ) ;
#240 = CARTESIAN_POINT ( 'NONE',  ( 0.000000000000000000, 0.000000000000000000, 37.00000000000000711 ) ) ;
#241 = CARTESIAN_POINT ( 'NONE',  ( 26.00000000000000355, 3.184081677783118585E-15, 8.000000000000000000 ) ) ;
#242 = VERTEX_POINT ( 'NONE', #167 ) ;
#243 = DIRECTION ( 'NONE',  ( 0.000000000000000000, 0.000000000000000000, -1.000000000000000000 ) ) ;
#244 = EDGE_LOOP ( 'NONE', ( #201, #294, #47, #246 ) ) ;
#245 = EDGE_LOOP ( 'NONE', ( #293, #227, #232, #165 ) ) ;
#246 = ORIENTED_EDGE ( 'NONE', *, *, #43, .T. ) ;
#247 = DIRECTION ( 'NONE',  ( 0.000000000000000000, 0.000000000000000000, -1.000000000000000000 ) ) ;
#248 = AXIS2_PLACEMENT_3D ( 'NONE', #8, #33, #130 ) ;
#249 = CIRCLE ( 'NONE', #131, 26.00000000000000355 ) ;
#250 = EDGE_LOOP ( 'NONE', ( #182, #186, #62, #123 ) ) ;
#251 = PRODUCT_DEFINITION_SHAPE ( 'NONE', 'NONE',  #39 ) ;
#252 = ADVANCED_FACE ( 'NONE', ( #76 ), #29, .T. ) ;
#253 = AXIS2_PLACEMENT_3D ( 'NONE', #188, #190, #274 ) ;
#254 = CARTESIAN_POINT ( 'NONE',  ( -5.000000000000000000, 0.000000000000000000, 37.00000000000000711 ) ) ;
#255 = AXIS2_PLACEMENT_3D ( 'NONE', #77, #106, #124 ) ;
#256 = FACE_OUTER_BOUND ( 'NONE', #250, .T. ) ;
#257 = CYLINDRICAL_SURFACE ( 'NONE', #81, 26.00000000000000355 ) ;
#258 = EDGE_CURVE ( 'NONE', #117, #275, #291, .T. ) ;
#259 = CARTESIAN_POINT ( 'NONE',  ( -22.45000000000000284, 0.000000000000000000, 37.00000000000000711 ) ) ;
#260 = DIRECTION ( 'NONE',  ( 0.000000000000000000, 0.000000000000000000, 1.000000000000000000 ) ) ;
#261 = CARTESIAN_POINT ( 'NONE',  ( -5.000000000000000000, 0.000000000000000000, 37.00000000000000711 ) ) ;
#262 = SURFACE_SIDE_STYLE ('',( #38 ) ) ;
#263 = CARTESIAN_POINT ( 'NONE',  ( -26.00000000000000355, 0.000000000000000000, 8.000000000000000000 ) ) ;
#264 = ORIENTED_EDGE ( 'NONE', *, *, #12, .F. ) ;
#265 = ADVANCED_FACE ( 'NONE', ( #157 ), #85, .F. ) ;
#266 = DIRECTION ( 'NONE',  ( 0.000000000000000000, 0.000000000000000000, 1.000000000000000000 ) ) ;
#267 = CIRCLE ( 'NONE', #91, 26.00000000000000355 ) ;
#268 = ORIENTED_EDGE ( 'NONE', *, *, #204, .F. ) ;
#269 = EDGE_CURVE ( 'NONE', #19, #51, #63, .T. ) ;
#270 = CARTESIAN_POINT ( 'NONE',  ( 0.000000000000000000, 0.000000000000000000, 8.000000000000000000 ) ) ;
#271 = ADVANCED_BREP_SHAPE_REPRESENTATION ( 'FIN COUPELLE T47', ( #134, #164 ), #107 ) ;
#272 = CARTESIAN_POINT ( 'NONE',  ( 22.45000000000000284, 2.749332064085807705E-15, 37.00000000000000711 ) ) ;
#273 = VERTEX_POINT ( 'NONE', #112 ) ;
#274 = DIRECTION ( 'NONE',  ( 1.000000000000000000, 0.000000000000000000, 0.000000000000000000 ) ) ;
#275 = VERTEX_POINT ( 'NONE', #87 ) ;
#276 = VECTOR ( 'NONE', #170, 1000.000000000000000 ) ;
#277 = DIRECTION ( 'NONE',  ( -1.000000000000000000, 0.000000000000000000, 0.000000000000000000 ) ) ;
#278 = DIRECTION ( 'NONE',  ( 1.000000000000000000, 0.000000000000000000, 0.000000000000000000 ) ) ;
#279 = EDGE_CURVE ( 'NONE', #141, #1, #222, .T. ) ;
#280 = FACE_BOUND ( 'NONE', #203, .T. ) ;
#281 = DIRECTION ( 'NONE',  ( -1.000000000000000000, 0.000000000000000000, 0.000000000000000000 ) ) ;
#282 = CARTESIAN_POINT ( 'NONE',  ( 5.000000000000000000, 6.123233995736766282E-16, 37.00000000000000711 ) ) ;
#283 = DIRECTION ( 'NONE',  ( -1.000000000000000000, 0.000000000000000000, 0.000000000000000000 ) ) ;
#284 = PRODUCT_DEFINITION_FORMATION_WITH_SPECIFIED_SOURCE ( 'ANY', '', #149, .NOT_KNOWN. ) ;
#285 = CYLINDRICAL_SURFACE ( 'NONE', #215, 26.00000000000000355 ) ;
#286 = DIRECTION ( 'NONE',  ( 0.000000000000000000, 0.000000000000000000, 1.000000000000000000 ) ) ;
#287 =( GEOMETRIC_REPRESENTATION_CONTEXT ( 3 ) GLOBAL_UNCERTAINTY_ASSIGNED_CONTEXT ( ( #288 ) ) GLOBAL_UNIT_ASSIGNED_CONTEXT ( ( #110, #196, #88 ) ) REPRESENTATION_CONTEXT ( 'NONE', 'WORKASPACE' ) );
#288 = UNCERTAINTY_MEASURE_WITH_UNIT (LENGTH_MEASURE( 1.000000000000000082E-05 ), #110, 'distance_accuracy_value', 'NONE');
#289 = ORIENTED_EDGE ( 'NONE', *, *, #78, .T. ) ;
#290 = FACE_OUTER_BOUND ( 'NONE', #244, .T. ) ;
#291 = CIRCLE ( 'NONE', #80, 5.000000000000000000 ) ;
#292 = AXIS2_PLACEMENT_3D ( 'NONE', #24, #247, #277 ) ;
#293 = ORIENTED_EDGE ( 'NONE', *, *, #78, .F. ) ;
#294 = ORIENTED_EDGE ( 'NONE', *, *, #32, .F. ) ;
ENDSEC;
END-ISO-10303-21;
