ISO-10303-21;

HEADER;
FILE_DESCRIPTION((' '),'2;1');
FILE_NAME( 'TEY200013-14-A_Bride.stp',
           '2022-06-07T11:13:12',
           (' '),
           ('--- Datakit www.datakit.com---'),
           ' Datakit CrossCadWare V2019.1  Dec 28 2018',
           'DATAKIT 2022 (c)',
           ' ');
FILE_SCHEMA(('AP242_MANAGED_MODEL_BASED_3D_ENGINEERING_MIM_LF { 1 0 10303 442 1 1 4 }'));
ENDSEC;

DATA;
#1=APPLICATION_CONTEXT('Managed model based 3d engineering');
#2=APPLICATION_PROTOCOL_DEFINITION('international standard','ap242_managed_model_based_3d_engineering',2013,#1);
#3=(LENGTH_UNIT()NAMED_UNIT(*)SI_UNIT(.MILLI.,.METRE.));
#4=(NAMED_UNIT(*)PLANE_ANGLE_UNIT()SI_UNIT($,.RADIAN.));
#5=( GEOMETRIC_REPRESENTATION_CONTEXT(3)
       GLOBAL_UNCERTAINTY_ASSIGNED_CONTEXT((#6)) GLOBAL_UNIT_ASSIGNED_CONTEXT
  ((#3,#4)) REPRESENTATION_CONTEXT('Context #1',
  '3D Context with UNIT and UNCERTAINTY') );
#6=UNCERTAINTY_MEASURE_WITH_UNIT(LENGTH_MEASURE(0.005),#3,'distance_accuracy_value','Confusion accuracy');
#7=PRODUCT_CONTEXT('',#1,'mechanical');
#8=PRODUCT('TEY200013-14-A_Bride','','',(#7));
#9=PRODUCT_DEFINITION_FORMATION('','',#8);
#10=PRODUCT_DEFINITION_CONTEXT('part definition',#1,'design');
#11=PRODUCT_DEFINITION('design','',#9,#10);
#12=PRODUCT_DEFINITION_SHAPE('','',#11);
#13=PRODUCT_CATEGORY('part',$);
#14=PRODUCT_RELATED_PRODUCT_CATEGORY('part',$,(#8));
#15=PRODUCT_CATEGORY_RELATIONSHIP('','',#13,#14);
#16=CARTESIAN_POINT('',(10.0,68.0,-31.0));
#17=VERTEX_POINT('',#16);
#18=CARTESIAN_POINT('',(10.0,68.0,-23.5));
#19=VERTEX_POINT('',#18);
#20=CARTESIAN_POINT('',(10.0,68.0,10.0));
#21=DIRECTION('',(0.0,0.0,1.0));
#22=VECTOR('',#21,1.0);
#23=LINE('',#20,#22);
#24=EDGE_CURVE('n° 1025',#17,#19,#23,.T.);
#25=ORIENTED_EDGE('',*,*,#24,.F.);
#26=CARTESIAN_POINT('',(10.0,69.0,-32.0));
#27=VERTEX_POINT('',#26);
#28=CARTESIAN_POINT('',(10.0,69.0,-32.0));
#29=DIRECTION('',(-0.0,0.7071067812,-0.7071067812));
#30=VECTOR('',#29,1.0);
#31=LINE('',#28,#30);
#32=EDGE_CURVE('n° 1033',#17,#27,#31,.T.);
#33=ORIENTED_EDGE('',*,*,#32,.T.);
#34=CARTESIAN_POINT('',(10.0,78.0,-32.0));
#35=VERTEX_POINT('',#34);
#36=CARTESIAN_POINT('',(10.0,80.0,-32.0));
#37=DIRECTION('',(-0.0,1.0,0.0));
#38=VECTOR('',#37,1.0);
#39=LINE('',#36,#38);
#40=EDGE_CURVE('n° 1006',#27,#35,#39,.T.);
#41=ORIENTED_EDGE('',*,*,#40,.T.);
#42=CARTESIAN_POINT('',(10.0,78.0,10.0));
#43=VERTEX_POINT('',#42);
#44=CARTESIAN_POINT('',(10.0,78.0,10.0));
#45=DIRECTION('',(0.0,0.0,1.0));
#46=VECTOR('',#45,1.0);
#47=LINE('',#44,#46);
#48=EDGE_CURVE('n° 510',#35,#43,#47,.T.);
#49=ORIENTED_EDGE('',*,*,#48,.T.);
#50=CARTESIAN_POINT('',(10.0,2.0,10.0));
#51=VERTEX_POINT('',#50);
#52=CARTESIAN_POINT('',(10.0,80.0,10.0));
#53=DIRECTION('',(-0.0,1.0,0.0));
#54=VECTOR('',#53,1.0);
#55=LINE('',#52,#54);
#56=EDGE_CURVE('n° 659',#51,#43,#55,.T.);
#57=ORIENTED_EDGE('',*,*,#56,.F.);
#58=CARTESIAN_POINT('',(10.0,2.0,0.0));
#59=VERTEX_POINT('',#58);
#60=CARTESIAN_POINT('',(10.0,2.0,10.0));
#61=DIRECTION('',(0.0,0.0,-1.0));
#62=VECTOR('',#61,1.0);
#63=LINE('',#60,#62);
#64=EDGE_CURVE('n° 664',#51,#59,#63,.T.);
#65=ORIENTED_EDGE('',*,*,#64,.T.);
#66=CARTESIAN_POINT('',(10.0,45.0,0.0));
#67=VERTEX_POINT('',#66);
#68=CARTESIAN_POINT('',(10.0,80.0,0.0));
#69=DIRECTION('',(-0.0,1.0,0.0));
#70=VECTOR('',#69,1.0);
#71=LINE('',#68,#70);
#72=EDGE_CURVE('n° 662',#59,#67,#71,.T.);
#73=ORIENTED_EDGE('',*,*,#72,.T.);
#74=CARTESIAN_POINT('',(10.0,45.0,-15.1286846119));
#75=VERTEX_POINT('',#74);
#76=CARTESIAN_POINT('',(10.0,45.0,-32.0));
#77=DIRECTION('',(0.0,0.0,1.0));
#78=VECTOR('',#77,1.0);
#79=LINE('',#76,#78);
#80=EDGE_CURVE('n° 273',#75,#67,#79,.T.);
#81=ORIENTED_EDGE('',*,*,#80,.F.);
#82=CARTESIAN_POINT('',(10.0,67.8295741965,-23.4379700804));
#83=DIRECTION('',(-0.0,-0.9396926208,0.3420201433));
#84=VECTOR('',#83,1.0);
#85=LINE('',#82,#84);
#86=EDGE_CURVE('n° 311',#19,#75,#85,.T.);
#87=ORIENTED_EDGE('',*,*,#86,.F.);
#88=EDGE_LOOP('',(#25,#33,#41,#49,#57,#65,#73,#81,#87));
#89=FACE_OUTER_BOUND('',#88,.T.);
#90=CARTESIAN_POINT('',(10.0,80.0,10.0));
#91=DIRECTION('',(-1.0,-0.0,0.0));
#92=DIRECTION('',(0.0,-1.0,0.0));
#93=AXIS2_PLACEMENT_3D('',#90,#91,#92);
#94=PLANE('',#93);
#95=ADVANCED_FACE('n° 293',(#89),#94,.F.);
#96=CARTESIAN_POINT('',(-10.0,78.0,-32.0));
#97=VERTEX_POINT('',#96);
#98=CARTESIAN_POINT('',(-10.0,69.0,-32.0));
#99=VERTEX_POINT('',#98);
#100=CARTESIAN_POINT('',(-10.0,80.0,-32.0));
#101=DIRECTION('',(0.0,-1.0,0.0));
#102=VECTOR('',#101,1.0);
#103=LINE('',#100,#102);
#104=EDGE_CURVE('n° 495',#97,#99,#103,.T.);
#105=ORIENTED_EDGE('',*,*,#104,.T.);
#106=CARTESIAN_POINT('',(-10.0,68.0,-31.0));
#107=VERTEX_POINT('',#106);
#108=CARTESIAN_POINT('',(-10.0,69.0,-32.0));
#109=DIRECTION('',(0.0,-0.7071067812,0.7071067812));
#110=VECTOR('',#109,1.0);
#111=LINE('',#108,#110);
#112=EDGE_CURVE('n° 1017',#99,#107,#111,.T.);
#113=ORIENTED_EDGE('',*,*,#112,.T.);
#114=CARTESIAN_POINT('',(-10.0,68.0,-23.5));
#115=VERTEX_POINT('',#114);
#116=CARTESIAN_POINT('',(-10.0,68.0,10.0));
#117=DIRECTION('',(-0.0,0.0,-1.0));
#118=VECTOR('',#117,1.0);
#119=LINE('',#116,#118);
#120=EDGE_CURVE('n° 309',#115,#107,#119,.T.);
#121=ORIENTED_EDGE('',*,*,#120,.F.);
#122=CARTESIAN_POINT('',(-10.0,45.0,-15.1286846119));
#123=VERTEX_POINT('',#122);
#124=CARTESIAN_POINT('',(-10.0,67.8295741965,-23.4379700804));
#125=DIRECTION('',(0.0,0.9396926208,-0.3420201433));
#126=VECTOR('',#125,1.0);
#127=LINE('',#124,#126);
#128=EDGE_CURVE('n° 312',#123,#115,#127,.T.);
#129=ORIENTED_EDGE('',*,*,#128,.F.);
#130=CARTESIAN_POINT('',(-10.0,45.0,0.0));
#131=VERTEX_POINT('',#130);
#132=CARTESIAN_POINT('',(-10.0,45.0,-32.0));
#133=DIRECTION('',(0.0,0.0,1.0));
#134=VECTOR('',#133,1.0);
#135=LINE('',#132,#134);
#136=EDGE_CURVE('n° 270',#123,#131,#135,.T.);
#137=ORIENTED_EDGE('',*,*,#136,.T.);
#138=CARTESIAN_POINT('',(-10.0,2.0,0.0));
#139=VERTEX_POINT('',#138);
#140=CARTESIAN_POINT('',(-10.0,80.0,0.0));
#141=DIRECTION('',(0.0,-1.0,0.0));
#142=VECTOR('',#141,1.0);
#143=LINE('',#140,#142);
#144=EDGE_CURVE('n° 141',#131,#139,#143,.T.);
#145=ORIENTED_EDGE('',*,*,#144,.T.);
#146=CARTESIAN_POINT('',(-10.0,2.0,10.0));
#147=VERTEX_POINT('',#146);
#148=CARTESIAN_POINT('',(-10.0,2.0,10.0));
#149=DIRECTION('',(0.0,0.0,1.0));
#150=VECTOR('',#149,1.0);
#151=LINE('',#148,#150);
#152=EDGE_CURVE('n° 718',#139,#147,#151,.T.);
#153=ORIENTED_EDGE('',*,*,#152,.T.);
#154=CARTESIAN_POINT('',(-10.0,78.0,10.0));
#155=VERTEX_POINT('',#154);
#156=CARTESIAN_POINT('',(-10.0,80.0,10.0));
#157=DIRECTION('',(0.0,-1.0,0.0));
#158=VECTOR('',#157,1.0);
#159=LINE('',#156,#158);
#160=EDGE_CURVE('n° 517',#155,#147,#159,.T.);
#161=ORIENTED_EDGE('',*,*,#160,.F.);
#162=CARTESIAN_POINT('',(-10.0,78.0,10.0));
#163=DIRECTION('',(0.0,0.0,-1.0));
#164=VECTOR('',#163,1.0);
#165=LINE('',#162,#164);
#166=EDGE_CURVE('n° 529',#155,#97,#165,.T.);
#167=ORIENTED_EDGE('',*,*,#166,.T.);
#168=EDGE_LOOP('',(#105,#113,#121,#129,#137,#145,#153,#161,#167));
#169=FACE_OUTER_BOUND('',#168,.T.);
#170=CARTESIAN_POINT('',(-10.0,80.0,10.0));
#171=DIRECTION('',(1.0,0.0,-0.0));
#172=DIRECTION('',(-0.0,1.0,0.0));
#173=AXIS2_PLACEMENT_3D('',#170,#171,#172);
#174=PLANE('',#173);
#175=ADVANCED_FACE('n° 285',(#169),#174,.F.);
#176=CARTESIAN_POINT('',(0.0,45.0,-12.25));
#177=VERTEX_POINT('',#176);
#178=CARTESIAN_POINT('',(0.0,45.0,-7.0));
#179=DIRECTION('',(0.0,-1.0,0.0));
#180=DIRECTION('',(0.0,-0.0,-1.0));
#181=AXIS2_PLACEMENT_3D('',#178,#179,#180);
#182=CIRCLE('',#181,5.25);
#183=EDGE_CURVE('n° 618',#177,#177,#182,.T.);
#184=ORIENTED_EDGE('',*,*,#183,.F.);
#185=EDGE_LOOP('',(#184));
#186=FACE_OUTER_BOUND('',#185,.T.);
#187=ORIENTED_EDGE('',*,*,#136,.F.);
#188=CARTESIAN_POINT('',(10.0,45.0,-15.1286846119));
#189=DIRECTION('',(1.0,0.0,0.0));
#190=VECTOR('',#189,1.0);
#191=LINE('',#188,#190);
#192=EDGE_CURVE('n° 275',#123,#75,#191,.T.);
#193=ORIENTED_EDGE('',*,*,#192,.T.);
#194=ORIENTED_EDGE('',*,*,#80,.T.);
#195=CARTESIAN_POINT('',(10.0,45.0,0.0));
#196=DIRECTION('',(1.0,0.0,0.0));
#197=VECTOR('',#196,1.0);
#198=LINE('',#195,#197);
#199=EDGE_CURVE('n° 173',#131,#67,#198,.T.);
#200=ORIENTED_EDGE('',*,*,#199,.F.);
#201=EDGE_LOOP('',(#187,#193,#194,#200));
#202=FACE_BOUND('',#201,.T.);
#203=CARTESIAN_POINT('',(10.0,45.0,-32.0));
#204=DIRECTION('',(0.0,-1.0,0.0));
#205=DIRECTION('',(0.0,-0.0,-1.0));
#206=AXIS2_PLACEMENT_3D('',#203,#204,#205);
#207=PLANE('',#206);
#208=ADVANCED_FACE('n° 278',(#186,#202),#207,.T.);
#209=ORIENTED_EDGE('',*,*,#40,.F.);
#210=CARTESIAN_POINT('',(0.0,69.0,-32.0));
#211=DIRECTION('',(-1.0,0.0,0.0));
#212=VECTOR('',#211,1.0);
#213=LINE('',#210,#212);
#214=EDGE_CURVE('n° 1008',#27,#99,#213,.T.);
#215=ORIENTED_EDGE('',*,*,#214,.T.);
#216=ORIENTED_EDGE('',*,*,#104,.F.);
#217=CARTESIAN_POINT('',(8.0,78.0,-32.0));
#218=DIRECTION('',(1.0,-0.0,0.0));
#219=VECTOR('',#218,1.0);
#220=LINE('',#217,#219);
#221=EDGE_CURVE('n° 837',#97,#35,#220,.T.);
#222=ORIENTED_EDGE('',*,*,#221,.T.);
#223=EDGE_LOOP('',(#209,#215,#216,#222));
#224=FACE_OUTER_BOUND('',#223,.T.);
#225=CARTESIAN_POINT('',(0.0,0.0,-32.0));
#226=DIRECTION('',(-0.0,-0.0,-1.0));
#227=DIRECTION('',(-1.0,0.0,0.0));
#228=AXIS2_PLACEMENT_3D('',#225,#226,#227);
#229=PLANE('',#228);
#230=ADVANCED_FACE('n° 267',(#224),#229,.T.);
#231=CARTESIAN_POINT('',(0.0,80.0,-1.75));
#232=VERTEX_POINT('',#231);
#233=CARTESIAN_POINT('',(0.0,80.0,-7.0));
#234=DIRECTION('',(0.0,1.0,0.0));
#235=DIRECTION('',(0.0,-0.0,1.0));
#236=AXIS2_PLACEMENT_3D('',#233,#234,#235);
#237=CIRCLE('',#236,5.25);
#238=EDGE_CURVE('n° 619',#232,#232,#237,.T.);
#239=ORIENTED_EDGE('',*,*,#238,.F.);
#240=EDGE_LOOP('',(#239));
#241=FACE_OUTER_BOUND('',#240,.T.);
#242=CARTESIAN_POINT('',(-8.0,80.0,-30.0));
#243=VERTEX_POINT('',#242);
#244=CARTESIAN_POINT('',(-8.0,80.0,8.0));
#245=VERTEX_POINT('',#244);
#246=CARTESIAN_POINT('',(-8.0,80.0,10.0));
#247=DIRECTION('',(0.0,0.0,1.0));
#248=VECTOR('',#247,1.0);
#249=LINE('',#246,#248);
#250=EDGE_CURVE('n° 794',#243,#245,#249,.T.);
#251=ORIENTED_EDGE('',*,*,#250,.T.);
#252=CARTESIAN_POINT('',(8.0,80.0,8.0));
#253=VERTEX_POINT('',#252);
#254=CARTESIAN_POINT('',(8.0,80.0,8.0));
#255=DIRECTION('',(1.0,0.0,0.0));
#256=VECTOR('',#255,1.0);
#257=LINE('',#254,#256);
#258=EDGE_CURVE('n° 821',#245,#253,#257,.T.);
#259=ORIENTED_EDGE('',*,*,#258,.T.);
#260=CARTESIAN_POINT('',(8.0,80.0,-30.0));
#261=VERTEX_POINT('',#260);
#262=CARTESIAN_POINT('',(8.0,80.0,10.0));
#263=DIRECTION('',(0.0,0.0,-1.0));
#264=VECTOR('',#263,1.0);
#265=LINE('',#262,#264);
#266=EDGE_CURVE('n° 810',#253,#261,#265,.T.);
#267=ORIENTED_EDGE('',*,*,#266,.T.);
#268=CARTESIAN_POINT('',(-8.0,80.0,-30.0));
#269=DIRECTION('',(-1.0,0.0,0.0));
#270=VECTOR('',#269,1.0);
#271=LINE('',#268,#270);
#272=EDGE_CURVE('n° 815',#261,#243,#271,.T.);
#273=ORIENTED_EDGE('',*,*,#272,.T.);
#274=EDGE_LOOP('',(#251,#259,#267,#273));
#275=FACE_BOUND('',#274,.T.);
#276=CARTESIAN_POINT('',(-10.0,80.0,10.0));
#277=DIRECTION('',(0.0,-1.0,0.0));
#278=DIRECTION('',(0.0,-0.0,-1.0));
#279=AXIS2_PLACEMENT_3D('',#276,#277,#278);
#280=PLANE('',#279);
#281=ADVANCED_FACE('n° 88',(#241,#275),#280,.F.);
#282=CARTESIAN_POINT('',(-8.0,0.0,0.0));
#283=VERTEX_POINT('',#282);
#284=CARTESIAN_POINT('',(8.0,0.0,0.0));
#285=VERTEX_POINT('',#284);
#286=CARTESIAN_POINT('',(-10.0,0.0,0.0));
#287=DIRECTION('',(1.0,-0.0,0.0));
#288=VECTOR('',#287,1.0);
#289=LINE('',#286,#288);
#290=EDGE_CURVE('n° 674',#283,#285,#289,.T.);
#291=ORIENTED_EDGE('',*,*,#290,.T.);
#292=CARTESIAN_POINT('',(8.0,0.0,10.0));
#293=VERTEX_POINT('',#292);
#294=CARTESIAN_POINT('',(8.0,0.0,10.0));
#295=DIRECTION('',(0.0,0.0,1.0));
#296=VECTOR('',#295,1.0);
#297=LINE('',#294,#296);
#298=EDGE_CURVE('n° 700',#285,#293,#297,.T.);
#299=ORIENTED_EDGE('',*,*,#298,.T.);
#300=CARTESIAN_POINT('',(-8.0,0.0,10.0));
#301=VERTEX_POINT('',#300);
#302=CARTESIAN_POINT('',(-10.0,0.0,10.0));
#303=DIRECTION('',(1.0,-0.0,0.0));
#304=VECTOR('',#303,1.0);
#305=LINE('',#302,#304);
#306=EDGE_CURVE('n° 690',#301,#293,#305,.T.);
#307=ORIENTED_EDGE('',*,*,#306,.F.);
#308=CARTESIAN_POINT('',(-8.0,0.0,10.0));
#309=DIRECTION('',(0.0,0.0,-1.0));
#310=VECTOR('',#309,1.0);
#311=LINE('',#308,#310);
#312=EDGE_CURVE('n° 695',#301,#283,#311,.T.);
#313=ORIENTED_EDGE('',*,*,#312,.T.);
#314=EDGE_LOOP('',(#291,#299,#307,#313));
#315=FACE_OUTER_BOUND('',#314,.T.);
#316=CARTESIAN_POINT('',(-10.0,0.0,10.0));
#317=DIRECTION('',(0.0,1.0,-0.0));
#318=DIRECTION('',(-1.0,0.0,0.0));
#319=AXIS2_PLACEMENT_3D('',#316,#317,#318);
#320=PLANE('',#319);
#321=ADVANCED_FACE('n° 84',(#315),#320,.F.);
#322=ORIENTED_EDGE('',*,*,#56,.T.);
#323=CARTESIAN_POINT('',(-8.0,78.0,10.0));
#324=DIRECTION('',(-1.0,0.0,0.0));
#325=VECTOR('',#324,1.0);
#326=LINE('',#323,#325);
#327=EDGE_CURVE('n° 788',#43,#155,#326,.T.);
#328=ORIENTED_EDGE('',*,*,#327,.T.);
#329=ORIENTED_EDGE('',*,*,#160,.T.);
#330=CARTESIAN_POINT('',(-4.0,-4.0,10.0));
#331=DIRECTION('',(0.7071067812,-0.7071067812,0.0));
#332=VECTOR('',#331,1.0);
#333=LINE('',#330,#332);
#334=EDGE_CURVE('n° 708',#147,#301,#333,.T.);
#335=ORIENTED_EDGE('',*,*,#334,.T.);
#336=ORIENTED_EDGE('',*,*,#306,.T.);
#337=CARTESIAN_POINT('',(4.0,-4.0,10.0));
#338=DIRECTION('',(0.7071067812,0.7071067812,0.0));
#339=VECTOR('',#338,1.0);
#340=LINE('',#337,#339);
#341=EDGE_CURVE('n° 713',#293,#51,#340,.T.);
#342=ORIENTED_EDGE('',*,*,#341,.T.);
#343=EDGE_LOOP('',(#322,#328,#329,#335,#336,#342));
#344=FACE_OUTER_BOUND('',#343,.T.);
#345=CARTESIAN_POINT('',(0.0,0.0,10.0));
#346=DIRECTION('',(0.0,0.0,1.0));
#347=DIRECTION('',(1.0,0.0,-0.0));
#348=AXIS2_PLACEMENT_3D('',#345,#346,#347);
#349=PLANE('',#348);
#350=ADVANCED_FACE('n° 1',(#344),#349,.T.);
#351=ORIENTED_EDGE('',*,*,#72,.F.);
#352=CARTESIAN_POINT('',(10.0,2.0,0.0));
#353=DIRECTION('',(-0.7071067812,-0.7071067812,0.0));
#354=VECTOR('',#353,1.0);
#355=LINE('',#352,#354);
#356=EDGE_CURVE('n° 684',#59,#285,#355,.T.);
#357=ORIENTED_EDGE('',*,*,#356,.T.);
#358=ORIENTED_EDGE('',*,*,#290,.F.);
#359=CARTESIAN_POINT('',(-8.0,0.0,0.0));
#360=DIRECTION('',(-0.7071067812,0.7071067812,0.0));
#361=VECTOR('',#360,1.0);
#362=LINE('',#359,#361);
#363=EDGE_CURVE('n° 679',#283,#139,#362,.T.);
#364=ORIENTED_EDGE('',*,*,#363,.T.);
#365=ORIENTED_EDGE('',*,*,#144,.F.);
#366=ORIENTED_EDGE('',*,*,#199,.T.);
#367=EDGE_LOOP('',(#351,#357,#358,#364,#365,#366));
#368=FACE_OUTER_BOUND('',#367,.T.);
#369=CARTESIAN_POINT('',(0.0,0.0,0.0));
#370=DIRECTION('',(0.0,0.0,1.0));
#371=DIRECTION('',(1.0,0.0,-0.0));
#372=AXIS2_PLACEMENT_3D('',#369,#370,#371);
#373=PLANE('',#372);
#374=ADVANCED_FACE('n° 48',(#368),#373,.F.);
#375=ORIENTED_EDGE('',*,*,#86,.T.);
#376=ORIENTED_EDGE('',*,*,#192,.F.);
#377=ORIENTED_EDGE('',*,*,#128,.T.);
#378=CARTESIAN_POINT('',(30.0,68.0,-23.5));
#379=DIRECTION('',(-1.0,0.0,0.0));
#380=VECTOR('',#379,1.0);
#381=LINE('',#378,#380);
#382=EDGE_CURVE('n° 297',#19,#115,#381,.T.);
#383=ORIENTED_EDGE('',*,*,#382,.F.);
#384=EDGE_LOOP('',(#375,#376,#377,#383));
#385=FACE_OUTER_BOUND('',#384,.T.);
#386=CARTESIAN_POINT('',(30.0,68.0,-23.5));
#387=DIRECTION('',(-0.0,-0.3420201433,-0.9396926208));
#388=DIRECTION('',(0.0,0.9396926208,-0.3420201433));
#389=AXIS2_PLACEMENT_3D('',#386,#387,#388);
#390=PLANE('',#389);
#391=ADVANCED_FACE('n° 347',(#385),#390,.T.);
#392=ORIENTED_EDGE('',*,*,#120,.T.);
#393=CARTESIAN_POINT('',(30.0,68.0,-31.0));
#394=DIRECTION('',(1.0,0.0,0.0));
#395=VECTOR('',#394,1.0);
#396=LINE('',#393,#395);
#397=EDGE_CURVE('n° 1027',#107,#17,#396,.T.);
#398=ORIENTED_EDGE('',*,*,#397,.T.);
#399=ORIENTED_EDGE('',*,*,#24,.T.);
#400=ORIENTED_EDGE('',*,*,#382,.T.);
#401=EDGE_LOOP('',(#392,#398,#399,#400));
#402=FACE_OUTER_BOUND('',#401,.T.);
#403=CARTESIAN_POINT('',(30.0,68.0,-47.3523836549));
#404=DIRECTION('',(0.0,-1.0,0.0));
#405=DIRECTION('',(0.0,-0.0,-1.0));
#406=AXIS2_PLACEMENT_3D('',#403,#404,#405);
#407=PLANE('',#406);
#408=ADVANCED_FACE('n° 351',(#402),#407,.T.);
#409=ORIENTED_EDGE('',*,*,#266,.F.);
#410=CARTESIAN_POINT('',(8.6666666667,79.3333333333,8.6666666667));
#411=DIRECTION('',(0.5773502692,-0.5773502692,0.5773502692));
#412=VECTOR('',#411,1.0);
#413=LINE('',#410,#412);
#414=EDGE_CURVE('n° 832',#253,#43,#413,.T.);
#415=ORIENTED_EDGE('',*,*,#414,.T.);
#416=ORIENTED_EDGE('',*,*,#48,.F.);
#417=CARTESIAN_POINT('',(-5.3333333333,93.3333333333,-16.6666666667));
#418=DIRECTION('',(-0.5773502692,0.5773502692,0.5773502692));
#419=VECTOR('',#418,1.0);
#420=LINE('',#417,#419);
#421=EDGE_CURVE('n° 827',#35,#261,#420,.T.);
#422=ORIENTED_EDGE('',*,*,#421,.T.);
#423=EDGE_LOOP('',(#409,#415,#416,#422));
#424=FACE_OUTER_BOUND('',#423,.T.);
#425=CARTESIAN_POINT('',(8.0,80.0,10.0));
#426=DIRECTION('',(-0.7071067812,-0.7071067812,-0.0));
#427=DIRECTION('',(0.0,0.0,-1.0));
#428=AXIS2_PLACEMENT_3D('',#425,#426,#427);
#429=PLANE('',#428);
#430=ADVANCED_FACE('n° 546',(#424),#429,.F.);
#431=ORIENTED_EDGE('',*,*,#166,.F.);
#432=CARTESIAN_POINT('',(-10.0,78.0,10.0));
#433=DIRECTION('',(0.5773502692,0.5773502692,-0.5773502692));
#434=VECTOR('',#433,1.0);
#435=LINE('',#432,#434);
#436=EDGE_CURVE('n° 804',#155,#245,#435,.T.);
#437=ORIENTED_EDGE('',*,*,#436,.T.);
#438=ORIENTED_EDGE('',*,*,#250,.F.);
#439=CARTESIAN_POINT('',(4.0,92.0,-18.0));
#440=DIRECTION('',(-0.5773502692,-0.5773502692,-0.5773502692));
#441=VECTOR('',#440,1.0);
#442=LINE('',#439,#441);
#443=EDGE_CURVE('n° 799',#243,#97,#442,.T.);
#444=ORIENTED_EDGE('',*,*,#443,.T.);
#445=EDGE_LOOP('',(#431,#437,#438,#444));
#446=FACE_OUTER_BOUND('',#445,.T.);
#447=CARTESIAN_POINT('',(-10.0,78.0,10.0));
#448=DIRECTION('',(0.7071067812,-0.7071067812,0.0));
#449=DIRECTION('',(0.0,0.0,-1.0));
#450=AXIS2_PLACEMENT_3D('',#447,#448,#449);
#451=PLANE('',#450);
#452=ADVANCED_FACE('n° 567',(#446),#451,.F.);
#453=ORIENTED_EDGE('',*,*,#183,.T.);
#454=EDGE_LOOP('',(#453));
#455=FACE_OUTER_BOUND('',#454,.T.);
#456=ORIENTED_EDGE('',*,*,#238,.T.);
#457=EDGE_LOOP('',(#456));
#458=FACE_BOUND('',#457,.T.);
#459=CARTESIAN_POINT('',(0.0,0.0,-7.0));
#460=DIRECTION('',(-0.0,1.0,-0.0));
#461=DIRECTION('',(0.0,0.0,1.0));
#462=AXIS2_PLACEMENT_3D('',#459,#460,#461);
#463=CYLINDRICAL_SURFACE('',#462,5.25);
#464=ADVANCED_FACE('n° 627',(#455,#458),#463,.F.);
#465=ORIENTED_EDGE('',*,*,#341,.F.);
#466=ORIENTED_EDGE('',*,*,#298,.F.);
#467=ORIENTED_EDGE('',*,*,#356,.F.);
#468=ORIENTED_EDGE('',*,*,#64,.F.);
#469=EDGE_LOOP('',(#465,#466,#467,#468));
#470=FACE_OUTER_BOUND('',#469,.T.);
#471=CARTESIAN_POINT('',(10.0,2.0,10.0));
#472=DIRECTION('',(-0.7071067812,0.7071067812,0.0));
#473=DIRECTION('',(0.0,0.0,-1.0));
#474=AXIS2_PLACEMENT_3D('',#471,#472,#473);
#475=PLANE('',#474);
#476=ADVANCED_FACE('n° 734',(#470),#475,.F.);
#477=ORIENTED_EDGE('',*,*,#334,.F.);
#478=ORIENTED_EDGE('',*,*,#152,.F.);
#479=ORIENTED_EDGE('',*,*,#363,.F.);
#480=ORIENTED_EDGE('',*,*,#312,.F.);
#481=EDGE_LOOP('',(#477,#478,#479,#480));
#482=FACE_OUTER_BOUND('',#481,.T.);
#483=CARTESIAN_POINT('',(-8.0,0.0,10.0));
#484=DIRECTION('',(0.7071067812,0.7071067812,0.0));
#485=DIRECTION('',(0.0,0.0,-1.0));
#486=AXIS2_PLACEMENT_3D('',#483,#484,#485);
#487=PLANE('',#486);
#488=ADVANCED_FACE('n° 755',(#482),#487,.F.);
#489=ORIENTED_EDGE('',*,*,#414,.F.);
#490=ORIENTED_EDGE('',*,*,#258,.F.);
#491=ORIENTED_EDGE('',*,*,#436,.F.);
#492=ORIENTED_EDGE('',*,*,#327,.F.);
#493=EDGE_LOOP('',(#489,#490,#491,#492));
#494=FACE_OUTER_BOUND('',#493,.T.);
#495=CARTESIAN_POINT('',(0.0,78.0,10.0));
#496=DIRECTION('',(0.0,0.7071067812,0.7071067812));
#497=DIRECTION('',(1.0,0.0,-0.0));
#498=AXIS2_PLACEMENT_3D('',#495,#496,#497);
#499=PLANE('',#498);
#500=ADVANCED_FACE('n° 852',(#494),#499,.T.);
#501=ORIENTED_EDGE('',*,*,#421,.F.);
#502=ORIENTED_EDGE('',*,*,#221,.F.);
#503=ORIENTED_EDGE('',*,*,#443,.F.);
#504=ORIENTED_EDGE('',*,*,#272,.F.);
#505=EDGE_LOOP('',(#501,#502,#503,#504));
#506=FACE_OUTER_BOUND('',#505,.T.);
#507=CARTESIAN_POINT('',(-10.0,80.0,-30.0));
#508=DIRECTION('',(0.0,0.7071067812,-0.7071067812));
#509=DIRECTION('',(1.0,0.0,0.0));
#510=AXIS2_PLACEMENT_3D('',#507,#508,#509);
#511=PLANE('',#510);
#512=ADVANCED_FACE('n° 873',(#506),#511,.T.);
#513=ORIENTED_EDGE('',*,*,#32,.F.);
#514=ORIENTED_EDGE('',*,*,#397,.F.);
#515=ORIENTED_EDGE('',*,*,#112,.F.);
#516=ORIENTED_EDGE('',*,*,#214,.F.);
#517=EDGE_LOOP('',(#513,#514,#515,#516));
#518=FACE_OUTER_BOUND('',#517,.T.);
#519=CARTESIAN_POINT('',(0.0,69.0,-32.0));
#520=DIRECTION('',(0.0,0.7071067812,0.7071067812));
#521=DIRECTION('',(-1.0,0.0,0.0));
#522=AXIS2_PLACEMENT_3D('',#519,#520,#521);
#523=PLANE('',#522);
#524=ADVANCED_FACE('n° 1048',(#518),#523,.F.);
#525=CLOSED_SHELL('Enl\X2\00E8\X0\v. mat.-Extru.2',(
    #95,#175,#208,#230,#281,#321,#350,#374,#391,#408,
    #430,#452,#464,#476,#488,#500,#512,#524));
#526=MANIFOLD_SOLID_BREP('Enl\X2\00E8\X0\v. mat.-Extru.2',#525);
#527=COLOUR_RGB('',0.79216,0.81961,0.93333);
#528=FILL_AREA_STYLE_COLOUR('',#527);
#529=FILL_AREA_STYLE('',(#528));
#530=SURFACE_STYLE_FILL_AREA(#529);
#531=SURFACE_SIDE_STYLE('',(#530));
#532=SURFACE_STYLE_USAGE(.BOTH.,#531);
#533=PRESENTATION_STYLE_ASSIGNMENT((#532));
#534=STYLED_ITEM('',(#533),#526);
#535=CARTESIAN_POINT('',(0.0,0.0,0.0));
#536=DIRECTION('',(0.0,0.0,1.0));
#537=DIRECTION('',(1.0,0.0,0.0));
#538=AXIS2_PLACEMENT_3D('',#535,#536,#537);
#539=PLANE('Plan de face',#538);
#540=CARTESIAN_POINT('',(0.0,0.0,0.0));
#541=DIRECTION('',(0.0,1.0,0.0));
#542=DIRECTION('',(1.0,0.0,0.0));
#543=AXIS2_PLACEMENT_3D('',#540,#541,#542);
#544=PLANE('Plan de dessus',#543);
#545=CARTESIAN_POINT('',(0.0,0.0,0.0));
#546=DIRECTION('',(1.0,0.0,0.0));
#547=DIRECTION('',(0.0,0.0,-1.0));
#548=AXIS2_PLACEMENT_3D('',#545,#546,#547);
#549=PLANE('Plan de droite',#548);
#550=CARTESIAN_POINT('',(0.,0.,0.));
#551=DIRECTION('',(0.,0.,1.));
#552=DIRECTION('',(1.,0.,0.));
#553=AXIS2_PLACEMENT_3D('Reference Axes',#550,#551,#552);
#554=ADVANCED_BREP_SHAPE_REPRESENTATION('',(#553,#526),#5);
#555=SHAPE_DEFINITION_REPRESENTATION(#12,#554);
#556=CONSTRUCTIVE_GEOMETRY_REPRESENTATION('supplemental geometry',(#539,#544,#549),#5);
#557=CONSTRUCTIVE_GEOMETRY_REPRESENTATION_RELATIONSHIP('supplemental geometry','',#554,#556);
#558=MECHANICAL_DESIGN_GEOMETRIC_PRESENTATION_REPRESENTATION('',(#534),#5);
ENDSEC;
END-ISO-10303-21;
