ISO-10303-21;
HEADER;
/* Generated by software containing ST-Developer
 * from STEP Tools, Inc. (www.steptools.com) 
 */

FILE_DESCRIPTION(
/* description */ ('Pivot Truck'),
/* implementation_level */ '2;1');

FILE_NAME(
/* name */ 'F:\\Bofolia\\Plans PDF & STEP\\110 Pivot.stp',
/* time_stamp */ '2022-05-13T22:37:39+02:00',
/* author */ ('Feuille'),
/* organization */ (''),
/* preprocessor_version */ 'ST-DEVELOPER v17',
/* originating_system */ 'Autodesk Inventor 2019',
/* authorisation */ '');

FILE_SCHEMA (('AUTOMOTIVE_DESIGN { 1 0 10303 214 3 1 1 }'));
ENDSEC;

DATA;
#10=MECHANICAL_DESIGN_GEOMETRIC_PRESENTATION_REPRESENTATION('',(#13),#454);
#11=SHAPE_REPRESENTATION_RELATIONSHIP('SRR','None',#461,#12);
#12=ADVANCED_BREP_SHAPE_REPRESENTATION('',(#14),#453);
#13=STYLED_ITEM('',(#470),#14);
#14=MANIFOLD_SOLID_BREP('Solid1',#243);
#15=SPHERICAL_SURFACE('',#291,6.5);
#16=TOROIDAL_SURFACE('',#283,5.3,0.8);
#17=CONICAL_SURFACE('',#276,4.75,0.785398163397449);
#18=CONICAL_SURFACE('',#288,4.75,0.785398163397448);
#19=CYLINDRICAL_SURFACE('',#268,8.);
#20=CYLINDRICAL_SURFACE('',#275,8.);
#21=CYLINDRICAL_SURFACE('',#281,5.);
#22=CYLINDRICAL_SURFACE('',#287,4.5);
#23=CYLINDRICAL_SURFACE('',#296,6.5);
#24=FACE_BOUND('',#62,.T.);
#25=FACE_BOUND('',#66,.T.);
#26=CIRCLE('',#265,8.);
#27=CIRCLE('',#266,8.);
#28=CIRCLE('',#267,5.3);
#29=CIRCLE('',#269,8.);
#30=CIRCLE('',#272,8.);
#31=CIRCLE('',#273,6.5);
#32=CIRCLE('',#274,6.5);
#33=CIRCLE('',#277,5.);
#34=CIRCLE('',#278,4.5);
#35=CIRCLE('',#279,4.5);
#36=CIRCLE('',#280,4.5);
#37=CIRCLE('',#282,5.);
#38=CIRCLE('',#284,0.8);
#39=CIRCLE('',#285,4.5);
#40=CIRCLE('',#286,4.5);
#41=CIRCLE('',#289,4.5);
#42=CIRCLE('',#292,6.5);
#43=CIRCLE('',#293,6.5);
#44=CIRCLE('',#294,6.5);
#45=CIRCLE('',#295,6.5);
#46=FACE_OUTER_BOUND('',#60,.T.);
#47=FACE_OUTER_BOUND('',#61,.T.);
#48=FACE_OUTER_BOUND('',#63,.T.);
#49=FACE_OUTER_BOUND('',#64,.T.);
#50=FACE_OUTER_BOUND('',#65,.T.);
#51=FACE_OUTER_BOUND('',#67,.T.);
#52=FACE_OUTER_BOUND('',#68,.T.);
#53=FACE_OUTER_BOUND('',#69,.T.);
#54=FACE_OUTER_BOUND('',#70,.T.);
#55=FACE_OUTER_BOUND('',#71,.T.);
#56=FACE_OUTER_BOUND('',#72,.T.);
#57=FACE_OUTER_BOUND('',#73,.T.);
#58=FACE_OUTER_BOUND('',#74,.T.);
#59=FACE_OUTER_BOUND('',#75,.T.);
#60=EDGE_LOOP('',(#158,#159,#160,#161));
#61=EDGE_LOOP('',(#162,#163,#164,#165));
#62=EDGE_LOOP('',(#166));
#63=EDGE_LOOP('',(#167,#168,#169,#170));
#64=EDGE_LOOP('',(#171,#172,#173,#174));
#65=EDGE_LOOP('',(#175,#176,#177,#178));
#66=EDGE_LOOP('',(#179,#180));
#67=EDGE_LOOP('',(#181,#182,#183,#184));
#68=EDGE_LOOP('',(#185,#186,#187,#188,#189,#190));
#69=EDGE_LOOP('',(#191,#192,#193,#194));
#70=EDGE_LOOP('',(#195,#196,#197,#198,#199));
#71=EDGE_LOOP('',(#200,#201,#202,#203,#204,#205,#206));
#72=EDGE_LOOP('',(#207,#208,#209,#210));
#73=EDGE_LOOP('',(#211));
#74=EDGE_LOOP('',(#212,#213,#214,#215,#216));
#75=EDGE_LOOP('',(#217,#218,#219,#220,#221,#222,#223));
#76=LINE('',#384,#89);
#77=LINE('',#386,#90);
#78=LINE('',#388,#91);
#79=LINE('',#389,#92);
#80=LINE('',#394,#93);
#81=LINE('',#401,#94);
#82=LINE('',#404,#95);
#83=LINE('',#405,#96);
#84=LINE('',#417,#97);
#85=LINE('',#426,#98);
#86=LINE('',#434,#99);
#87=LINE('',#438,#100);
#88=LINE('',#450,#101);
#89=VECTOR('',#301,10.);
#90=VECTOR('',#302,10.);
#91=VECTOR('',#303,10.);
#92=VECTOR('',#304,10.);
#93=VECTOR('',#309,10.);
#94=VECTOR('',#318,10.);
#95=VECTOR('',#321,10.);
#96=VECTOR('',#322,10.);
#97=VECTOR('',#337,4.75);
#98=VECTOR('',#348,5.);
#99=VECTOR('',#359,4.5);
#100=VECTOR('',#364,4.75);
#101=VECTOR('',#379,6.5);
#102=VERTEX_POINT('',#382);
#103=VERTEX_POINT('',#383);
#104=VERTEX_POINT('',#385);
#105=VERTEX_POINT('',#387);
#106=VERTEX_POINT('',#391);
#107=VERTEX_POINT('',#393);
#108=VERTEX_POINT('',#396);
#109=VERTEX_POINT('',#399);
#110=VERTEX_POINT('',#403);
#111=VERTEX_POINT('',#408);
#112=VERTEX_POINT('',#409);
#113=VERTEX_POINT('',#414);
#114=VERTEX_POINT('',#416);
#115=VERTEX_POINT('',#418);
#116=VERTEX_POINT('',#420);
#117=VERTEX_POINT('',#424);
#118=VERTEX_POINT('',#428);
#119=VERTEX_POINT('',#430);
#120=VERTEX_POINT('',#436);
#121=VERTEX_POINT('',#441);
#122=VERTEX_POINT('',#442);
#123=VERTEX_POINT('',#444);
#124=VERTEX_POINT('',#447);
#125=EDGE_CURVE('',#102,#103,#76,.T.);
#126=EDGE_CURVE('',#104,#102,#77,.T.);
#127=EDGE_CURVE('',#105,#104,#78,.T.);
#128=EDGE_CURVE('',#103,#105,#79,.T.);
#129=EDGE_CURVE('',#106,#105,#26,.T.);
#130=EDGE_CURVE('',#106,#107,#80,.T.);
#131=EDGE_CURVE('',#103,#107,#27,.T.);
#132=EDGE_CURVE('',#108,#108,#28,.T.);
#133=EDGE_CURVE('',#109,#104,#29,.T.);
#134=EDGE_CURVE('',#109,#106,#81,.T.);
#135=EDGE_CURVE('',#107,#110,#82,.T.);
#136=EDGE_CURVE('',#110,#109,#83,.T.);
#137=EDGE_CURVE('',#102,#110,#30,.T.);
#138=EDGE_CURVE('',#111,#112,#31,.T.);
#139=EDGE_CURVE('',#112,#111,#32,.T.);
#140=EDGE_CURVE('',#113,#113,#33,.T.);
#141=EDGE_CURVE('',#113,#114,#84,.T.);
#142=EDGE_CURVE('',#114,#115,#34,.T.);
#143=EDGE_CURVE('',#115,#116,#35,.T.);
#144=EDGE_CURVE('',#116,#114,#36,.T.);
#145=EDGE_CURVE('',#117,#117,#37,.T.);
#146=EDGE_CURVE('',#117,#113,#85,.T.);
#147=EDGE_CURVE('',#108,#118,#38,.T.);
#148=EDGE_CURVE('',#118,#119,#39,.T.);
#149=EDGE_CURVE('',#119,#118,#40,.T.);
#150=EDGE_CURVE('',#119,#116,#86,.T.);
#151=EDGE_CURVE('',#120,#120,#41,.T.);
#152=EDGE_CURVE('',#120,#117,#87,.T.);
#153=EDGE_CURVE('',#121,#122,#42,.T.);
#154=EDGE_CURVE('',#123,#121,#43,.T.);
#155=EDGE_CURVE('',#122,#123,#44,.T.);
#156=EDGE_CURVE('',#124,#122,#45,.T.);
#157=EDGE_CURVE('',#112,#123,#88,.T.);
#158=ORIENTED_EDGE('',*,*,#125,.F.);
#159=ORIENTED_EDGE('',*,*,#126,.F.);
#160=ORIENTED_EDGE('',*,*,#127,.F.);
#161=ORIENTED_EDGE('',*,*,#128,.F.);
#162=ORIENTED_EDGE('',*,*,#128,.T.);
#163=ORIENTED_EDGE('',*,*,#129,.F.);
#164=ORIENTED_EDGE('',*,*,#130,.T.);
#165=ORIENTED_EDGE('',*,*,#131,.F.);
#166=ORIENTED_EDGE('',*,*,#132,.F.);
#167=ORIENTED_EDGE('',*,*,#127,.T.);
#168=ORIENTED_EDGE('',*,*,#133,.F.);
#169=ORIENTED_EDGE('',*,*,#134,.T.);
#170=ORIENTED_EDGE('',*,*,#129,.T.);
#171=ORIENTED_EDGE('',*,*,#135,.F.);
#172=ORIENTED_EDGE('',*,*,#130,.F.);
#173=ORIENTED_EDGE('',*,*,#134,.F.);
#174=ORIENTED_EDGE('',*,*,#136,.F.);
#175=ORIENTED_EDGE('',*,*,#126,.T.);
#176=ORIENTED_EDGE('',*,*,#137,.T.);
#177=ORIENTED_EDGE('',*,*,#136,.T.);
#178=ORIENTED_EDGE('',*,*,#133,.T.);
#179=ORIENTED_EDGE('',*,*,#138,.F.);
#180=ORIENTED_EDGE('',*,*,#139,.F.);
#181=ORIENTED_EDGE('',*,*,#125,.T.);
#182=ORIENTED_EDGE('',*,*,#131,.T.);
#183=ORIENTED_EDGE('',*,*,#135,.T.);
#184=ORIENTED_EDGE('',*,*,#137,.F.);
#185=ORIENTED_EDGE('',*,*,#140,.T.);
#186=ORIENTED_EDGE('',*,*,#141,.T.);
#187=ORIENTED_EDGE('',*,*,#142,.T.);
#188=ORIENTED_EDGE('',*,*,#143,.T.);
#189=ORIENTED_EDGE('',*,*,#144,.T.);
#190=ORIENTED_EDGE('',*,*,#141,.F.);
#191=ORIENTED_EDGE('',*,*,#145,.F.);
#192=ORIENTED_EDGE('',*,*,#146,.T.);
#193=ORIENTED_EDGE('',*,*,#140,.F.);
#194=ORIENTED_EDGE('',*,*,#146,.F.);
#195=ORIENTED_EDGE('',*,*,#132,.T.);
#196=ORIENTED_EDGE('',*,*,#147,.T.);
#197=ORIENTED_EDGE('',*,*,#148,.T.);
#198=ORIENTED_EDGE('',*,*,#149,.T.);
#199=ORIENTED_EDGE('',*,*,#147,.F.);
#200=ORIENTED_EDGE('',*,*,#148,.F.);
#201=ORIENTED_EDGE('',*,*,#149,.F.);
#202=ORIENTED_EDGE('',*,*,#150,.T.);
#203=ORIENTED_EDGE('',*,*,#143,.F.);
#204=ORIENTED_EDGE('',*,*,#142,.F.);
#205=ORIENTED_EDGE('',*,*,#144,.F.);
#206=ORIENTED_EDGE('',*,*,#150,.F.);
#207=ORIENTED_EDGE('',*,*,#151,.T.);
#208=ORIENTED_EDGE('',*,*,#152,.T.);
#209=ORIENTED_EDGE('',*,*,#145,.T.);
#210=ORIENTED_EDGE('',*,*,#152,.F.);
#211=ORIENTED_EDGE('',*,*,#151,.F.);
#212=ORIENTED_EDGE('',*,*,#153,.F.);
#213=ORIENTED_EDGE('',*,*,#154,.F.);
#214=ORIENTED_EDGE('',*,*,#155,.F.);
#215=ORIENTED_EDGE('',*,*,#156,.F.);
#216=ORIENTED_EDGE('',*,*,#156,.T.);
#217=ORIENTED_EDGE('',*,*,#138,.T.);
#218=ORIENTED_EDGE('',*,*,#157,.T.);
#219=ORIENTED_EDGE('',*,*,#154,.T.);
#220=ORIENTED_EDGE('',*,*,#153,.T.);
#221=ORIENTED_EDGE('',*,*,#155,.T.);
#222=ORIENTED_EDGE('',*,*,#157,.F.);
#223=ORIENTED_EDGE('',*,*,#139,.T.);
#224=PLANE('',#263);
#225=PLANE('',#264);
#226=PLANE('',#270);
#227=PLANE('',#271);
#228=PLANE('',#290);
#229=ADVANCED_FACE('',(#46),#224,.T.);
#230=ADVANCED_FACE('',(#47,#24),#225,.T.);
#231=ADVANCED_FACE('',(#48),#19,.T.);
#232=ADVANCED_FACE('',(#49),#226,.F.);
#233=ADVANCED_FACE('',(#50,#25),#227,.F.);
#234=ADVANCED_FACE('',(#51),#20,.T.);
#235=ADVANCED_FACE('',(#52),#17,.T.);
#236=ADVANCED_FACE('',(#53),#21,.T.);
#237=ADVANCED_FACE('',(#54),#16,.F.);
#238=ADVANCED_FACE('',(#55),#22,.T.);
#239=ADVANCED_FACE('',(#56),#18,.T.);
#240=ADVANCED_FACE('',(#57),#228,.T.);
#241=ADVANCED_FACE('',(#58),#15,.T.);
#242=ADVANCED_FACE('',(#59),#23,.T.);
#243=CLOSED_SHELL('',(#229,#230,#231,#232,#233,#234,#235,#236,#237,#238,
#239,#240,#241,#242));
#244=DERIVED_UNIT_ELEMENT(#246,1.);
#245=DERIVED_UNIT_ELEMENT(#456,3.);
#246=(
MASS_UNIT()
NAMED_UNIT(*)
SI_UNIT($,.GRAM.)
);
#247=DERIVED_UNIT((#244,#245));
#248=MEASURE_REPRESENTATION_ITEM('density measure',
POSITIVE_RATIO_MEASURE(8.),#247);
#249=PROPERTY_DEFINITION_REPRESENTATION(#254,#251);
#250=PROPERTY_DEFINITION_REPRESENTATION(#255,#252);
#251=REPRESENTATION('material name',(#253),#453);
#252=REPRESENTATION('density',(#248),#453);
#253=DESCRIPTIVE_REPRESENTATION_ITEM('Stainless Steel AISI 304',
'Stainless Steel AISI 304');
#254=PROPERTY_DEFINITION('material property','material name',#463);
#255=PROPERTY_DEFINITION('material property','density of part',#463);
#256=DATE_TIME_ROLE('creation_date');
#257=APPLIED_DATE_AND_TIME_ASSIGNMENT(#258,#256,(#463));
#258=DATE_AND_TIME(#259,#260);
#259=CALENDAR_DATE(2022,12,5);
#260=LOCAL_TIME(21,34,26.,#261);
#261=COORDINATED_UNIVERSAL_TIME_OFFSET(0,0,.BEHIND.);
#262=AXIS2_PLACEMENT_3D('placement',#380,#297,#298);
#263=AXIS2_PLACEMENT_3D('',#381,#299,#300);
#264=AXIS2_PLACEMENT_3D('',#390,#305,#306);
#265=AXIS2_PLACEMENT_3D('',#392,#307,#308);
#266=AXIS2_PLACEMENT_3D('',#395,#310,#311);
#267=AXIS2_PLACEMENT_3D('',#397,#312,#313);
#268=AXIS2_PLACEMENT_3D('',#398,#314,#315);
#269=AXIS2_PLACEMENT_3D('',#400,#316,#317);
#270=AXIS2_PLACEMENT_3D('',#402,#319,#320);
#271=AXIS2_PLACEMENT_3D('',#406,#323,#324);
#272=AXIS2_PLACEMENT_3D('',#407,#325,#326);
#273=AXIS2_PLACEMENT_3D('',#410,#327,#328);
#274=AXIS2_PLACEMENT_3D('',#411,#329,#330);
#275=AXIS2_PLACEMENT_3D('',#412,#331,#332);
#276=AXIS2_PLACEMENT_3D('',#413,#333,#334);
#277=AXIS2_PLACEMENT_3D('',#415,#335,#336);
#278=AXIS2_PLACEMENT_3D('',#419,#338,#339);
#279=AXIS2_PLACEMENT_3D('',#421,#340,#341);
#280=AXIS2_PLACEMENT_3D('',#422,#342,#343);
#281=AXIS2_PLACEMENT_3D('',#423,#344,#345);
#282=AXIS2_PLACEMENT_3D('',#425,#346,#347);
#283=AXIS2_PLACEMENT_3D('',#427,#349,#350);
#284=AXIS2_PLACEMENT_3D('',#429,#351,#352);
#285=AXIS2_PLACEMENT_3D('',#431,#353,#354);
#286=AXIS2_PLACEMENT_3D('',#432,#355,#356);
#287=AXIS2_PLACEMENT_3D('',#433,#357,#358);
#288=AXIS2_PLACEMENT_3D('',#435,#360,#361);
#289=AXIS2_PLACEMENT_3D('',#437,#362,#363);
#290=AXIS2_PLACEMENT_3D('',#439,#365,#366);
#291=AXIS2_PLACEMENT_3D('',#440,#367,#368);
#292=AXIS2_PLACEMENT_3D('',#443,#369,#370);
#293=AXIS2_PLACEMENT_3D('',#445,#371,#372);
#294=AXIS2_PLACEMENT_3D('',#446,#373,#374);
#295=AXIS2_PLACEMENT_3D('',#448,#375,#376);
#296=AXIS2_PLACEMENT_3D('',#449,#377,#378);
#297=DIRECTION('axis',(0.,0.,1.));
#298=DIRECTION('refdir',(1.,0.,0.));
#299=DIRECTION('center_axis',(0.,0.,1.));
#300=DIRECTION('ref_axis',(0.,-1.,0.));
#301=DIRECTION('',(0.,-1.,0.));
#302=DIRECTION('',(1.,1.26596923715539E-16,0.));
#303=DIRECTION('',(0.,1.,0.));
#304=DIRECTION('',(-1.,-1.26596923715539E-16,0.));
#305=DIRECTION('center_axis',(1.26596923715539E-16,-1.,0.));
#306=DIRECTION('ref_axis',(0.,0.,-1.));
#307=DIRECTION('center_axis',(-1.26596923715539E-16,1.,0.));
#308=DIRECTION('ref_axis',(-1.,-1.26596923715539E-16,0.));
#309=DIRECTION('',(1.,1.26596923715539E-16,0.));
#310=DIRECTION('center_axis',(-1.26596923715539E-16,1.,0.));
#311=DIRECTION('ref_axis',(-1.,-1.26596923715539E-16,0.));
#312=DIRECTION('center_axis',(1.26596923715539E-16,-1.,0.));
#313=DIRECTION('ref_axis',(-1.61190900100452E-16,-2.0406272083656E-32,-1.));
#314=DIRECTION('center_axis',(0.,1.,0.));
#315=DIRECTION('ref_axis',(-1.,0.,0.));
#316=DIRECTION('center_axis',(-1.26596923715539E-16,1.,0.));
#317=DIRECTION('ref_axis',(-1.,-1.26596923715539E-16,0.));
#318=DIRECTION('',(0.,-1.,0.));
#319=DIRECTION('center_axis',(0.,0.,1.));
#320=DIRECTION('ref_axis',(0.,-1.,0.));
#321=DIRECTION('',(0.,1.,0.));
#322=DIRECTION('',(-1.,-1.26596923715539E-16,0.));
#323=DIRECTION('center_axis',(1.26596923715539E-16,-1.,0.));
#324=DIRECTION('ref_axis',(0.,0.,-1.));
#325=DIRECTION('center_axis',(-1.26596923715539E-16,1.,0.));
#326=DIRECTION('ref_axis',(-1.,-1.26596923715539E-16,0.));
#327=DIRECTION('center_axis',(-1.26596923715539E-16,1.,0.));
#328=DIRECTION('ref_axis',(1.,0.,0.));
#329=DIRECTION('center_axis',(-1.26596923715539E-16,1.,0.));
#330=DIRECTION('ref_axis',(1.,0.,0.));
#331=DIRECTION('center_axis',(0.,1.,0.));
#332=DIRECTION('ref_axis',(1.,0.,1.22464679914735E-16));
#333=DIRECTION('center_axis',(0.,-1.,0.));
#334=DIRECTION('ref_axis',(-1.,-4.49483005921116E-17,0.));
#335=DIRECTION('center_axis',(0.,1.,0.));
#336=DIRECTION('ref_axis',(-1.,-8.5401771125012E-17,0.));
#337=DIRECTION('',(-0.707106781186548,0.707106781186548,-8.65956056235493E-17));
#338=DIRECTION('center_axis',(0.,-1.,0.));
#339=DIRECTION('ref_axis',(1.,0.,0.));
#340=DIRECTION('center_axis',(0.,-1.,0.));
#341=DIRECTION('ref_axis',(1.,0.,0.));
#342=DIRECTION('center_axis',(0.,-1.,0.));
#343=DIRECTION('ref_axis',(1.,0.,0.));
#344=DIRECTION('center_axis',(8.5401771125012E-17,-1.,0.));
#345=DIRECTION('ref_axis',(-1.,-8.5401771125012E-17,0.));
#346=DIRECTION('center_axis',(1.26596923715539E-16,-1.,0.));
#347=DIRECTION('ref_axis',(-1.,-8.5401771125012E-17,0.));
#348=DIRECTION('',(-8.5401771125012E-17,1.,0.));
#349=DIRECTION('center_axis',(1.26596923715539E-16,-1.,0.));
#350=DIRECTION('ref_axis',(0.,0.,-1.));
#351=DIRECTION('center_axis',(-1.,-1.26596923715539E-16,-1.22464679914735E-16));
#352=DIRECTION('ref_axis',(-1.22464679914735E-16,0.,1.));
#353=DIRECTION('center_axis',(-1.26596923715539E-16,1.,0.));
#354=DIRECTION('ref_axis',(-1.61190900100452E-16,0.,-1.));
#355=DIRECTION('center_axis',(-1.26596923715539E-16,1.,0.));
#356=DIRECTION('ref_axis',(-1.61190900100452E-16,0.,-1.));
#357=DIRECTION('center_axis',(0.,-1.,0.));
#358=DIRECTION('ref_axis',(0.,0.,1.));
#359=DIRECTION('',(0.,-1.,0.));
#360=DIRECTION('center_axis',(-1.26596923715539E-16,1.,0.));
#361=DIRECTION('ref_axis',(-1.,-1.04915264457367E-16,0.));
#362=DIRECTION('center_axis',(-1.26596923715539E-16,1.,0.));
#363=DIRECTION('ref_axis',(-1.,-1.26596923715539E-16,0.));
#364=DIRECTION('',(0.707106781186547,0.707106781186548,8.65956056235493E-17));
#365=DIRECTION('center_axis',(1.26596923715539E-16,-1.,0.));
#366=DIRECTION('ref_axis',(0.,0.,-1.));
#367=DIRECTION('center_axis',(0.,1.,-6.12323399573677E-17));
#368=DIRECTION('ref_axis',(0.,0.,-1.));
#369=DIRECTION('center_axis',(1.26596923715539E-16,-1.,0.));
#370=DIRECTION('ref_axis',(1.,1.26596923715539E-16,0.));
#371=DIRECTION('center_axis',(1.26596923715539E-16,-1.,0.));
#372=DIRECTION('ref_axis',(1.,1.26596923715539E-16,0.));
#373=DIRECTION('center_axis',(1.26596923715539E-16,-1.,0.));
#374=DIRECTION('ref_axis',(1.,1.26596923715539E-16,0.));
#375=DIRECTION('center_axis',(1.,0.,-1.22464679914735E-16));
#376=DIRECTION('ref_axis',(1.22464679914735E-16,0.,1.));
#377=DIRECTION('center_axis',(1.26596923715539E-16,-1.,0.));
#378=DIRECTION('ref_axis',(1.,0.,0.));
#379=DIRECTION('',(-1.26596923715539E-16,1.,0.));
#380=CARTESIAN_POINT('',(0.,0.,0.));
#381=CARTESIAN_POINT('Origin',(0.,3.,7.));
#382=CARTESIAN_POINT('',(3.87298334620742,3.,7.));
#383=CARTESIAN_POINT('',(3.87298334620742,0.,7.));
#384=CARTESIAN_POINT('',(3.87298334620742,0.,7.));
#385=CARTESIAN_POINT('',(-3.87298334620742,3.,7.));
#386=CARTESIAN_POINT('',(-3.8776625516694E-16,3.,7.));
#387=CARTESIAN_POINT('',(-3.87298334620742,0.,7.));
#388=CARTESIAN_POINT('',(-3.87298334620742,0.,7.));
#389=CARTESIAN_POINT('',(1.89895385573309E-16,0.,7.));
#390=CARTESIAN_POINT('Origin',(0.,0.,0.));
#391=CARTESIAN_POINT('',(-3.87298334620742,0.,-7.));
#392=CARTESIAN_POINT('Origin',(0.,0.,0.));
#393=CARTESIAN_POINT('',(3.87298334620742,0.,-7.));
#394=CARTESIAN_POINT('',(1.89895385573309E-16,0.,-7.));
#395=CARTESIAN_POINT('Origin',(0.,0.,0.));
#396=CARTESIAN_POINT('',(1.03971428011865E-16,2.59838878160042E-32,5.3));
#397=CARTESIAN_POINT('Origin',(-1.01277538972431E-16,0.,0.));
#398=CARTESIAN_POINT('Origin',(0.,0.,0.));
#399=CARTESIAN_POINT('',(-3.87298334620742,3.,-7.));
#400=CARTESIAN_POINT('Origin',(0.,3.,0.));
#401=CARTESIAN_POINT('',(-3.87298334620742,0.,-7.));
#402=CARTESIAN_POINT('Origin',(0.,3.,-7.));
#403=CARTESIAN_POINT('',(3.87298334620742,3.,-7.));
#404=CARTESIAN_POINT('',(3.87298334620742,0.,-7.));
#405=CARTESIAN_POINT('',(-3.8776625516694E-16,3.,-7.));
#406=CARTESIAN_POINT('Origin',(-7.7553251033388E-16,3.,-1.15648231731787E-16));
#407=CARTESIAN_POINT('Origin',(0.,3.,0.));
#408=CARTESIAN_POINT('',(6.5,3.,7.96020419445779E-16));
#409=CARTESIAN_POINT('',(-6.5,3.,-7.9602041944578E-16));
#410=CARTESIAN_POINT('Origin',(-3.79790771146617E-16,3.,0.));
#411=CARTESIAN_POINT('Origin',(-3.79790771146617E-16,3.,0.));
#412=CARTESIAN_POINT('Origin',(0.,0.,0.));
#413=CARTESIAN_POINT('Origin',(1.70803542250025E-16,-1.75,0.));
#414=CARTESIAN_POINT('',(5.,-2.,-6.12323399573677E-16));
#415=CARTESIAN_POINT('Origin',(1.70803542250025E-16,-2.,0.));
#416=CARTESIAN_POINT('',(4.5,-1.5,5.51091059616309E-16));
#417=CARTESIAN_POINT('',(4.75,-1.75,5.81707229594993E-16));
#418=CARTESIAN_POINT('',(0.,-1.5,4.5));
#419=CARTESIAN_POINT('Origin',(0.,-1.5,0.));
#420=CARTESIAN_POINT('',(5.51091059616309E-16,-1.5,-4.5));
#421=CARTESIAN_POINT('Origin',(0.,-1.5,0.));
#422=CARTESIAN_POINT('Origin',(0.,-1.5,0.));
#423=CARTESIAN_POINT('Origin',(4.93038065763132E-31,6.24171024002722E-47,
0.));
#424=CARTESIAN_POINT('',(5.,-12.5,6.12323399573677E-16));
#425=CARTESIAN_POINT('Origin',(1.06752213906265E-15,-12.5,0.));
#426=CARTESIAN_POINT('',(5.,4.2700885562506E-16,6.12323399573677E-16));
#427=CARTESIAN_POINT('Origin',(0.,-0.8,0.));
#428=CARTESIAN_POINT('',(1.27645011006834E-15,-0.8,4.5));
#429=CARTESIAN_POINT('Origin',(-6.49062803548097E-16,-0.8,5.3));
#430=CARTESIAN_POINT('',(5.51091059616309E-16,-0.8,-4.5));
#431=CARTESIAN_POINT('Origin',(0.,-0.8,0.));
#432=CARTESIAN_POINT('Origin',(0.,-0.8,0.));
#433=CARTESIAN_POINT('Origin',(0.,-0.750000000000003,0.));
#434=CARTESIAN_POINT('',(5.51091059616309E-16,-0.750000000000003,-4.5));
#435=CARTESIAN_POINT('Origin',(1.09917136999154E-15,-12.75,0.));
#436=CARTESIAN_POINT('',(4.5,-13.,-5.51091059616309E-16));
#437=CARTESIAN_POINT('Origin',(1.13082060092042E-15,-13.,0.));
#438=CARTESIAN_POINT('',(4.75,-12.75,5.81707229594993E-16));
#439=CARTESIAN_POINT('Origin',(8.74158903889824E-16,-13.,0.));
#440=CARTESIAN_POINT('Origin',(-1.26750943711751E-15,9.8,0.));
#441=CARTESIAN_POINT('',(6.5,9.8,0.));
#442=CARTESIAN_POINT('',(-4.71489017671728E-16,9.8,6.5));
#443=CARTESIAN_POINT('Origin',(-1.24064985241228E-15,9.8,0.));
#444=CARTESIAN_POINT('',(-6.5,9.8,-7.9602041944578E-16));
#445=CARTESIAN_POINT('Origin',(-1.24064985241228E-15,9.8,0.));
#446=CARTESIAN_POINT('Origin',(-1.24064985241228E-15,9.8,0.));
#447=CARTESIAN_POINT('',(-1.26750943711751E-15,16.3,3.9801020972289E-16));
#448=CARTESIAN_POINT('Origin',(-1.26750943711751E-15,9.8,0.));
#449=CARTESIAN_POINT('Origin',(-6.20324926206142E-16,4.9,0.));
#450=CARTESIAN_POINT('',(-6.5,4.9,-7.9602041944578E-16));
#451=UNCERTAINTY_MEASURE_WITH_UNIT(LENGTH_MEASURE(0.01),#455,
'DISTANCE_ACCURACY_VALUE',
'Maximum model space distance between geometric entities at asserted c
onnectivities');
#452=UNCERTAINTY_MEASURE_WITH_UNIT(LENGTH_MEASURE(0.01),#455,
'DISTANCE_ACCURACY_VALUE',
'Maximum model space distance between geometric entities at asserted c
onnectivities');
#453=(
GEOMETRIC_REPRESENTATION_CONTEXT(3)
GLOBAL_UNCERTAINTY_ASSIGNED_CONTEXT((#451))
GLOBAL_UNIT_ASSIGNED_CONTEXT((#455,#458,#457))
REPRESENTATION_CONTEXT('','3D')
);
#454=(
GEOMETRIC_REPRESENTATION_CONTEXT(3)
GLOBAL_UNCERTAINTY_ASSIGNED_CONTEXT((#452))
GLOBAL_UNIT_ASSIGNED_CONTEXT((#455,#458,#457))
REPRESENTATION_CONTEXT('','3D')
);
#455=(
LENGTH_UNIT()
NAMED_UNIT(*)
SI_UNIT(.MILLI.,.METRE.)
);
#456=(
LENGTH_UNIT()
NAMED_UNIT(*)
SI_UNIT(.CENTI.,.METRE.)
);
#457=(
NAMED_UNIT(*)
SI_UNIT($,.STERADIAN.)
SOLID_ANGLE_UNIT()
);
#458=(
NAMED_UNIT(*)
PLANE_ANGLE_UNIT()
SI_UNIT($,.RADIAN.)
);
#459=SHAPE_DEFINITION_REPRESENTATION(#460,#461);
#460=PRODUCT_DEFINITION_SHAPE('',$,#463);
#461=SHAPE_REPRESENTATION('',(#262),#453);
#462=PRODUCT_DEFINITION_CONTEXT('part definition',#467,'design');
#463=PRODUCT_DEFINITION('110 ','110 Pivot',#464,#462);
#464=PRODUCT_DEFINITION_FORMATION('',$,#469);
#465=PRODUCT_RELATED_PRODUCT_CATEGORY('110 Pivot','110 Pivot',(#469));
#466=APPLICATION_PROTOCOL_DEFINITION('international standard',
'automotive_design',2009,#467);
#467=APPLICATION_CONTEXT(
'Core Data for Automotive Mechanical Design Process');
#468=PRODUCT_CONTEXT('part definition',#467,'mechanical');
#469=PRODUCT('110 ','110 Pivot','Pivot Truck',(#468));
#470=PRESENTATION_STYLE_ASSIGNMENT((#471));
#471=SURFACE_STYLE_USAGE(.BOTH.,#472);
#472=SURFACE_SIDE_STYLE('',(#473));
#473=SURFACE_STYLE_FILL_AREA(#474);
#474=FILL_AREA_STYLE('',(#475));
#475=FILL_AREA_STYLE_COLOUR('',#476);
#476=COLOUR_RGB('',0.956862745098039,0.956862745098039,0.956862745098039);
ENDSEC;
END-ISO-10303-21;
