ISO-10303-21;
HEADER;

/* File generated by Shapr3D Version 3.0 */

FILE_DESCRIPTION(('HOOPS Exchange Step'),'2;1');

FILE_NAME('/var/folders/69/k_3kcwr57jj6xn1tlg79xjsr0000gn/T/com.shapr3d.shapr/export/temp_export',
'2022-06-28T02:08:34+02:00',
('antoine'),
('Shapr3D Limited'),
'HOOPS Exchange 2022.0',
'Shapr3D',
'Authorized');

FILE_SCHEMA( ('AP203_CONFIGURATION_CONTROLLED_3D_DESIGN_OF_MECHANICAL_PARTS_AND_ASSEMBLIES_MIM_LF') );

ENDSEC;

DATA;
#3=(NAMED_UNIT(*)PLANE_ANGLE_UNIT()SI_UNIT($,.RADIAN.));
#4=PLANE_ANGLE_MEASURE_WITH_UNIT(PLANE_ANGLE_MEASURE(0.0174532925),#3);
#5=(CONVERSION_BASED_UNIT('DEGREE',#4)NAMED_UNIT(#6)PLANE_ANGLE_UNIT());
#6=DIMENSIONAL_EXPONENTS(0.,0.,0.,0.,0.,0.,0.);
#7=(NAMED_UNIT(*)SI_UNIT($,.STERADIAN.)SOLID_ANGLE_UNIT());
#8=(LENGTH_UNIT()NAMED_UNIT(*)SI_UNIT(.MILLI.,.METRE.));
#9=UNCERTAINTY_MEASURE_WITH_UNIT(LENGTH_MEASURE(1.000000E-05),#8,'DISTANCE_ACCURACY_VALUE','Maximum Tolerance applied to model');
#10=(GEOMETRIC_REPRESENTATION_CONTEXT(3)GLOBAL_UNCERTAINTY_ASSIGNED_CONTEXT((#9))GLOBAL_UNIT_ASSIGNED_CONTEXT((#8,#5,#7))REPRESENTATION_CONTEXT('','root'));
#12=CARTESIAN_POINT('',(0.,0.,0.));
#13=DIRECTION('',(0.,0.,1.));
#14=DIRECTION('',(1.,0.,0.));
#15=AXIS2_PLACEMENT_3D('TS3D_PRODUCT_CSYS',#12,#13,#14);
#27=CARTESIAN_POINT('',(246.677517443,-3.,45.462254251));
#28=DIRECTION('',(-0.554782843,0.,-0.83199519));
#29=DIRECTION('',(-0.83199519,0.,0.554782843));
#30=AXIS2_PLACEMENT_3D('',#27,#28,#29);
#31=PLANE('',#30);
#32=CARTESIAN_POINT('',(314.15811419,0.,0.46550696));
#33=VERTEX_POINT('',#32);
#34=CARTESIAN_POINT('',(179.196920697,0.,90.459001541));
#35=VERTEX_POINT('',#34);
#36=CARTESIAN_POINT('',(314.15811419,0.,0.46550696));
#37=DIRECTION('',(-0.83199519,0.,0.554782843));
#38=VECTOR('',#37,162.213910674);
#39=LINE('',#36,#38);
#40=EDGE_CURVE('',#33,#35,#39,.T.);
#41=ORIENTED_EDGE('',*,*,#40,.F.);
#42=CARTESIAN_POINT('',(314.15811419,-3.,0.46550696));
#43=VERTEX_POINT('',#42);
#44=CARTESIAN_POINT('',(314.15811419,-3.,0.46550696));
#45=DIRECTION('',(0.,1.,0.));
#46=VECTOR('',#45,3.);
#47=LINE('',#44,#46);
#48=EDGE_CURVE('',#43,#33,#47,.T.);
#49=ORIENTED_EDGE('',*,*,#48,.F.);
#50=CARTESIAN_POINT('',(179.196920697,-3.,90.459001541));
#51=VERTEX_POINT('',#50);
#52=CARTESIAN_POINT('',(314.15811419,-3.,0.46550696));
#53=DIRECTION('',(-0.83199519,0.,0.554782843));
#54=VECTOR('',#53,162.213910674);
#55=LINE('',#52,#54);
#56=EDGE_CURVE('',#43,#51,#55,.T.);
#57=ORIENTED_EDGE('',*,*,#56,.T.);
#58=CARTESIAN_POINT('',(179.196920697,-3.,90.459001541));
#59=DIRECTION('',(0.,1.,0.));
#60=VECTOR('',#59,3.);
#61=LINE('',#58,#60);
#62=EDGE_CURVE('',#51,#35,#61,.T.);
#63=ORIENTED_EDGE('',*,*,#62,.T.);
#64=EDGE_LOOP('',(#41,#49,#57,#63));
#65=FACE_BOUND('',#64,.T.);
#66=ADVANCED_FACE('',(#65),#31,.T.);
#67=CARTESIAN_POINT('',(322.101852103,-3.,10.310305633));
#68=DIRECTION('',(0.,1.,0.));
#69=DIRECTION('',(0.,-0.,1.));
#70=AXIS2_PLACEMENT_3D('',#67,#68,#69);
#71=CYLINDRICAL_SURFACE('',#70,12.650021064);
#72=CARTESIAN_POINT('',(330.045590015,0.,20.155104305));
#73=VERTEX_POINT('',#72);
#74=CARTESIAN_POINT('',(322.101852103,0.,10.310305633));
#75=DIRECTION('',(0.,-1.,0.));
#76=DIRECTION('',(0.,0.,-1.));
#77=AXIS2_PLACEMENT_3D('',#74,#75,#76);
#78=CIRCLE('',#77,12.650021064);
#79=EDGE_CURVE('',#33,#73,#78,.T.);
#80=ORIENTED_EDGE('',*,*,#79,.T.);
#81=CARTESIAN_POINT('',(330.045590015,-3.,20.155104305));
#82=VERTEX_POINT('',#81);
#83=CARTESIAN_POINT('',(330.045590015,-3.,20.155104305));
#84=DIRECTION('',(0.,1.,0.));
#85=VECTOR('',#84,3.);
#86=LINE('',#83,#85);
#87=EDGE_CURVE('',#82,#73,#86,.T.);
#88=ORIENTED_EDGE('',*,*,#87,.F.);
#89=CARTESIAN_POINT('',(322.101852103,-3.,10.310305633));
#90=DIRECTION('',(0.,-1.,0.));
#91=DIRECTION('',(0.,0.,-1.));
#92=AXIS2_PLACEMENT_3D('',#89,#90,#91);
#93=CIRCLE('',#92,12.650021064);
#94=EDGE_CURVE('',#43,#82,#93,.T.);
#95=ORIENTED_EDGE('',*,*,#94,.F.);
#96=ORIENTED_EDGE('',*,*,#48,.T.);
#97=EDGE_LOOP('',(#80,#88,#95,#96));
#98=FACE_BOUND('',#97,.T.);
#99=ADVANCED_FACE('',(#98),#71,.T.);
#100=CARTESIAN_POINT('',(255.002533945,-3.,70.090459873));
#101=DIRECTION('',(0.553983031,0.,0.832527959));
#102=DIRECTION('',(0.832527959,0.,-0.553983031));
#103=AXIS2_PLACEMENT_3D('',#100,#101,#102);
#104=PLANE('',#103);
#105=CARTESIAN_POINT('',(179.959477875,0.,120.025815441));
#106=VERTEX_POINT('',#105);
#107=CARTESIAN_POINT('',(179.959477875,0.,120.025815441));
#108=DIRECTION('',(0.832527959,0.,-0.553983031));
#109=VECTOR('',#108,180.277563773);
#110=LINE('',#107,#109);
#111=EDGE_CURVE('',#106,#73,#110,.T.);
#112=ORIENTED_EDGE('',*,*,#111,.F.);
#113=CARTESIAN_POINT('',(179.959477875,-3.,120.025815441));
#114=VERTEX_POINT('',#113);
#115=CARTESIAN_POINT('',(179.959477875,-3.,120.025815441));
#116=DIRECTION('',(0.,1.,0.));
#117=VECTOR('',#116,3.);
#118=LINE('',#115,#117);
#119=EDGE_CURVE('',#114,#106,#118,.T.);
#120=ORIENTED_EDGE('',*,*,#119,.F.);
#121=CARTESIAN_POINT('',(179.959477875,-3.,120.025815441));
#122=DIRECTION('',(0.832527959,0.,-0.553983031));
#123=VECTOR('',#122,180.277563773);
#124=LINE('',#121,#123);
#125=EDGE_CURVE('',#114,#82,#124,.T.);
#126=ORIENTED_EDGE('',*,*,#125,.T.);
#127=ORIENTED_EDGE('',*,*,#87,.T.);
#128=EDGE_LOOP('',(#112,#120,#126,#127));
#129=FACE_BOUND('',#128,.T.);
#130=ADVANCED_FACE('',(#129),#104,.T.);
#131=CARTESIAN_POINT('',(165.,-3.,96.499427561));
#132=DIRECTION('',(0.,1.,0.));
#133=DIRECTION('',(0.,-0.,1.));
#134=AXIS2_PLACEMENT_3D('',#131,#132,#133);
#135=CYLINDRICAL_SURFACE('',#134,27.879686242);
#136=CARTESIAN_POINT('',(165.,0.,124.379113803));
#137=VERTEX_POINT('',#136);
#138=CARTESIAN_POINT('',(165.,-3.,124.379113803));
#139=VERTEX_POINT('',#138);
#140=CARTESIAN_POINT('',(165.,0.,124.379113803));
#141=DIRECTION('',(-0.,-1.,-0.));
#142=VECTOR('',#141,3.);
#143=LINE('',#140,#142);
#144=EDGE_CURVE('',#137,#139,#143,.T.);
#145=ORIENTED_EDGE('',*,*,#144,.T.);
#146=CARTESIAN_POINT('',(165.,-3.,96.499427561));
#147=DIRECTION('',(0.,-1.,0.));
#148=DIRECTION('',(0.,0.,-1.));
#149=AXIS2_PLACEMENT_3D('',#146,#147,#148);
#150=CIRCLE('',#149,27.879686242);
#151=EDGE_CURVE('',#114,#139,#150,.T.);
#152=ORIENTED_EDGE('',*,*,#151,.F.);
#153=ORIENTED_EDGE('',*,*,#119,.T.);
#154=CARTESIAN_POINT('',(165.,0.,96.499427561));
#155=DIRECTION('',(0.,-1.,0.));
#156=DIRECTION('',(0.,0.,-1.));
#157=AXIS2_PLACEMENT_3D('',#154,#155,#156);
#158=CIRCLE('',#157,27.879686242);
#159=EDGE_CURVE('',#106,#137,#158,.T.);
#160=ORIENTED_EDGE('',*,*,#159,.T.);
#161=EDGE_LOOP('',(#145,#152,#153,#160));
#162=FACE_BOUND('',#161,.T.);
#163=ADVANCED_FACE('',(#162),#135,.T.);
#164=CARTESIAN_POINT('',(75.,-3.,70.));
#165=DIRECTION('',(-0.554700196,0.,0.832050294));
#166=DIRECTION('',(0.832050294,0.,0.554700196));
#167=AXIS2_PLACEMENT_3D('',#164,#165,#166);
#168=PLANE('',#167);
#169=CARTESIAN_POINT('',(0.,0.,19.999999994));
#170=VERTEX_POINT('',#169);
#171=CARTESIAN_POINT('',(150.,0.,120.));
#172=VERTEX_POINT('',#171);
#173=CARTESIAN_POINT('',(-0.000000003,0.,19.999999998));
#174=DIRECTION('',(0.832050294,0.,0.554700196));
#175=VECTOR('',#174,180.277563776);
#176=LINE('',#173,#175);
#177=EDGE_CURVE('',#170,#172,#176,.T.);
#178=ORIENTED_EDGE('',*,*,#177,.F.);
#179=CARTESIAN_POINT('',(0.,-3.,19.999999994));
#180=VERTEX_POINT('',#179);
#181=CARTESIAN_POINT('',(0.,-3.,19.999999994));
#182=DIRECTION('',(0.,1.,0.));
#183=VECTOR('',#182,3.);
#184=LINE('',#181,#183);
#185=EDGE_CURVE('',#180,#170,#184,.T.);
#186=ORIENTED_EDGE('',*,*,#185,.F.);
#187=CARTESIAN_POINT('',(150.,-3.,120.));
#188=VERTEX_POINT('',#187);
#189=CARTESIAN_POINT('',(-0.000000003,-3.,19.999999998));
#190=DIRECTION('',(0.832050294,0.,0.554700196));
#191=VECTOR('',#190,180.277563776);
#192=LINE('',#189,#191);
#193=EDGE_CURVE('',#180,#188,#192,.T.);
#194=ORIENTED_EDGE('',*,*,#193,.T.);
#195=CARTESIAN_POINT('',(150.,-3.,120.));
#196=DIRECTION('',(0.,1.,0.));
#197=VECTOR('',#196,3.);
#198=LINE('',#195,#197);
#199=EDGE_CURVE('',#188,#172,#198,.T.);
#200=ORIENTED_EDGE('',*,*,#199,.T.);
#201=EDGE_LOOP('',(#178,#186,#194,#200));
#202=FACE_BOUND('',#201,.T.);
#203=ADVANCED_FACE('',(#202),#168,.T.);
#204=CARTESIAN_POINT('',(7.531470261,-3.,9.941841535));
#205=DIRECTION('',(0.,1.,0.));
#206=DIRECTION('',(0.,-0.,1.));
#207=AXIS2_PLACEMENT_3D('',#204,#205,#206);
#208=CYLINDRICAL_SURFACE('',#207,12.565412683);
#209=CARTESIAN_POINT('',(15.062940523,0.,-0.116316924));
#210=VERTEX_POINT('',#209);
#211=CARTESIAN_POINT('',(7.531470261,0.,9.941841535));
#212=DIRECTION('',(0.,-1.,0.));
#213=DIRECTION('',(0.,0.,-1.));
#214=AXIS2_PLACEMENT_3D('',#211,#212,#213);
#215=CIRCLE('',#214,12.565412683);
#216=EDGE_CURVE('',#170,#210,#215,.T.);
#217=ORIENTED_EDGE('',*,*,#216,.T.);
#218=CARTESIAN_POINT('',(15.062940523,-3.,-0.116316924));
#219=VERTEX_POINT('',#218);
#220=CARTESIAN_POINT('',(15.062940523,-3.,-0.116316924));
#221=DIRECTION('',(0.,1.,0.));
#222=VECTOR('',#221,3.);
#223=LINE('',#220,#222);
#224=EDGE_CURVE('',#219,#210,#223,.T.);
#225=ORIENTED_EDGE('',*,*,#224,.F.);
#226=CARTESIAN_POINT('',(7.531470261,-3.,9.941841535));
#227=DIRECTION('',(0.,-1.,0.));
#228=DIRECTION('',(0.,0.,-1.));
#229=AXIS2_PLACEMENT_3D('',#226,#227,#228);
#230=CIRCLE('',#229,12.565412683);
#231=EDGE_CURVE('',#180,#219,#230,.T.);
#232=ORIENTED_EDGE('',*,*,#231,.F.);
#233=ORIENTED_EDGE('',*,*,#185,.T.);
#234=EDGE_LOOP('',(#217,#225,#232,#233));
#235=FACE_BOUND('',#234,.T.);
#236=ADVANCED_FACE('',(#235),#208,.T.);
#237=CARTESIAN_POINT('',(82.535632764,-3.,44.865477903));
#238=DIRECTION('',(0.554700196,0.,-0.832050294));
#239=DIRECTION('',(-0.832050294,0.,-0.554700196));
#240=AXIS2_PLACEMENT_3D('',#237,#238,#239);
#241=PLANE('',#240);
#242=CARTESIAN_POINT('',(150.,0.,89.841722727));
#243=VERTEX_POINT('',#242);
#244=CARTESIAN_POINT('',(150.,0.,89.841722727));
#245=DIRECTION('',(-0.832050294,0.,-0.554700196));
#246=VECTOR('',#245,162.174162302);
#247=LINE('',#244,#246);
#248=EDGE_CURVE('',#243,#210,#247,.T.);
#249=ORIENTED_EDGE('',*,*,#248,.F.);
#250=CARTESIAN_POINT('',(150.,-3.,89.841722727));
#251=VERTEX_POINT('',#250);
#252=CARTESIAN_POINT('',(150.,-3.,89.841722727));
#253=DIRECTION('',(0.,1.,0.));
#254=VECTOR('',#253,3.);
#255=LINE('',#252,#254);
#256=EDGE_CURVE('',#251,#243,#255,.T.);
#257=ORIENTED_EDGE('',*,*,#256,.F.);
#258=CARTESIAN_POINT('',(150.,-3.,89.841722727));
#259=DIRECTION('',(-0.832050294,0.,-0.554700196));
#260=VECTOR('',#259,162.174162302);
#261=LINE('',#258,#260);
#262=EDGE_CURVE('',#251,#219,#261,.T.);
#263=ORIENTED_EDGE('',*,*,#262,.T.);
#264=ORIENTED_EDGE('',*,*,#224,.T.);
#265=EDGE_LOOP('',(#249,#257,#263,#264));
#266=FACE_BOUND('',#265,.T.);
#267=ADVANCED_FACE('',(#266),#241,.T.);
#268=CARTESIAN_POINT('',(322.554209582,-3.,10.148645431));
#269=DIRECTION('',(0.,1.,0.));
#270=DIRECTION('',(0.,-0.,1.));
#271=AXIS2_PLACEMENT_3D('',#268,#269,#270);
#272=CYLINDRICAL_SURFACE('',#271,5.);
#273=CARTESIAN_POINT('',(322.554209582,0.,15.148645431));
#274=VERTEX_POINT('',#273);
#275=CARTESIAN_POINT('',(322.554209582,-3.,15.148645431));
#276=VERTEX_POINT('',#275);
#277=CARTESIAN_POINT('',(322.554209582,0.,15.148645431));
#278=DIRECTION('',(-0.,-1.,-0.));
#279=VECTOR('',#278,3.);
#280=LINE('',#277,#279);
#281=EDGE_CURVE('',#274,#276,#280,.T.);
#282=ORIENTED_EDGE('',*,*,#281,.F.);
#283=CARTESIAN_POINT('',(322.554209582,0.,5.148645431));
#284=VERTEX_POINT('',#283);
#285=CARTESIAN_POINT('',(322.554209582,0.,10.148645431));
#286=DIRECTION('',(0.,-1.,0.));
#287=DIRECTION('',(0.,0.,-1.));
#288=AXIS2_PLACEMENT_3D('',#285,#286,#287);
#289=CIRCLE('',#288,5.);
#290=EDGE_CURVE('',#284,#274,#289,.T.);
#291=ORIENTED_EDGE('',*,*,#290,.F.);
#292=CARTESIAN_POINT('',(322.554209582,0.,10.148645431));
#293=DIRECTION('',(0.,-1.,0.));
#294=DIRECTION('',(0.,0.,-1.));
#295=AXIS2_PLACEMENT_3D('',#292,#293,#294);
#296=CIRCLE('',#295,5.);
#297=EDGE_CURVE('',#274,#284,#296,.T.);
#298=ORIENTED_EDGE('',*,*,#297,.F.);
#299=ORIENTED_EDGE('',*,*,#281,.T.);
#300=CARTESIAN_POINT('',(322.554209582,-3.,5.148645431));
#301=VERTEX_POINT('',#300);
#302=CARTESIAN_POINT('',(322.554209582,-3.,10.148645431));
#303=DIRECTION('',(0.,-1.,0.));
#304=DIRECTION('',(0.,0.,-1.));
#305=AXIS2_PLACEMENT_3D('',#302,#303,#304);
#306=CIRCLE('',#305,5.);
#307=EDGE_CURVE('',#276,#301,#306,.T.);
#308=ORIENTED_EDGE('',*,*,#307,.T.);
#309=CARTESIAN_POINT('',(322.554209582,-3.,10.148645431));
#310=DIRECTION('',(0.,-1.,0.));
#311=DIRECTION('',(0.,0.,-1.));
#312=AXIS2_PLACEMENT_3D('',#309,#310,#311);
#313=CIRCLE('',#312,5.);
#314=EDGE_CURVE('',#301,#276,#313,.T.);
#315=ORIENTED_EDGE('',*,*,#314,.T.);
#316=EDGE_LOOP('',(#282,#291,#298,#299,#308,#315));
#317=FACE_BOUND('',#316,.T.);
#318=ADVANCED_FACE('',(#317),#272,.F.);
#319=CARTESIAN_POINT('',(7.531470261,-3.,9.941841538));
#320=DIRECTION('',(0.,1.,0.));
#321=DIRECTION('',(0.,-0.,1.));
#322=AXIS2_PLACEMENT_3D('',#319,#320,#321);
#323=CYLINDRICAL_SURFACE('',#322,5.);
#324=CARTESIAN_POINT('',(7.531470261,0.,14.941841538));
#325=VERTEX_POINT('',#324);
#326=CARTESIAN_POINT('',(7.531470261,-3.,14.941841538));
#327=VERTEX_POINT('',#326);
#328=CARTESIAN_POINT('',(7.531470261,0.,14.941841538));
#329=DIRECTION('',(-0.,-1.,-0.));
#330=VECTOR('',#329,3.);
#331=LINE('',#328,#330);
#332=EDGE_CURVE('',#325,#327,#331,.T.);
#333=ORIENTED_EDGE('',*,*,#332,.F.);
#334=CARTESIAN_POINT('',(7.531470261,0.,4.941841538));
#335=VERTEX_POINT('',#334);
#336=CARTESIAN_POINT('',(7.531470261,0.,9.941841538));
#337=DIRECTION('',(0.,-1.,0.));
#338=DIRECTION('',(0.,0.,-1.));
#339=AXIS2_PLACEMENT_3D('',#336,#337,#338);
#340=CIRCLE('',#339,5.);
#341=EDGE_CURVE('',#335,#325,#340,.T.);
#342=ORIENTED_EDGE('',*,*,#341,.F.);
#343=CARTESIAN_POINT('',(7.531470261,0.,9.941841538));
#344=DIRECTION('',(0.,-1.,0.));
#345=DIRECTION('',(0.,0.,-1.));
#346=AXIS2_PLACEMENT_3D('',#343,#344,#345);
#347=CIRCLE('',#346,5.);
#348=EDGE_CURVE('',#325,#335,#347,.T.);
#349=ORIENTED_EDGE('',*,*,#348,.F.);
#350=ORIENTED_EDGE('',*,*,#332,.T.);
#351=CARTESIAN_POINT('',(7.531470261,-3.,4.941841538));
#352=VERTEX_POINT('',#351);
#353=CARTESIAN_POINT('',(7.531470261,-3.,9.941841538));
#354=DIRECTION('',(0.,-1.,0.));
#355=DIRECTION('',(0.,0.,-1.));
#356=AXIS2_PLACEMENT_3D('',#353,#354,#355);
#357=CIRCLE('',#356,5.);
#358=EDGE_CURVE('',#327,#352,#357,.T.);
#359=ORIENTED_EDGE('',*,*,#358,.T.);
#360=CARTESIAN_POINT('',(7.531470261,-3.,9.941841538));
#361=DIRECTION('',(0.,-1.,0.));
#362=DIRECTION('',(0.,0.,-1.));
#363=AXIS2_PLACEMENT_3D('',#360,#361,#362);
#364=CIRCLE('',#363,5.);
#365=EDGE_CURVE('',#352,#327,#364,.T.);
#366=ORIENTED_EDGE('',*,*,#365,.T.);
#367=EDGE_LOOP('',(#333,#342,#349,#350,#359,#366));
#368=FACE_BOUND('',#367,.T.);
#369=ADVANCED_FACE('',(#368),#323,.F.);
#370=CARTESIAN_POINT('',(165.082927174,-3.,67.235369478));
#371=DIRECTION('',(0.,1.,0.));
#372=DIRECTION('',(0.,-0.,1.));
#373=AXIS2_PLACEMENT_3D('',#370,#371,#372);
#374=CYLINDRICAL_SURFACE('',#373,27.17612738);
#375=CARTESIAN_POINT('',(165.082927174,0.,94.411496858));
#376=VERTEX_POINT('',#375);
#377=CARTESIAN_POINT('',(165.082927174,-3.,94.411496858));
#378=VERTEX_POINT('',#377);
#379=CARTESIAN_POINT('',(165.082927174,0.,94.411496858));
#380=DIRECTION('',(-0.,-1.,-0.));
#381=VECTOR('',#380,3.);
#382=LINE('',#379,#381);
#383=EDGE_CURVE('',#376,#378,#382,.T.);
#384=ORIENTED_EDGE('',*,*,#383,.F.);
#385=CARTESIAN_POINT('',(165.082927174,0.,67.235369478));
#386=DIRECTION('',(0.,-1.,0.));
#387=DIRECTION('',(0.,0.,-1.));
#388=AXIS2_PLACEMENT_3D('',#385,#386,#387);
#389=CIRCLE('',#388,27.17612738);
#390=EDGE_CURVE('',#35,#376,#389,.T.);
#391=ORIENTED_EDGE('',*,*,#390,.F.);
#392=ORIENTED_EDGE('',*,*,#62,.F.);
#393=CARTESIAN_POINT('',(165.082927174,-3.,67.235369478));
#394=DIRECTION('',(0.,-1.,0.));
#395=DIRECTION('',(0.,0.,-1.));
#396=AXIS2_PLACEMENT_3D('',#393,#394,#395);
#397=CIRCLE('',#396,27.17612738);
#398=EDGE_CURVE('',#51,#378,#397,.T.);
#399=ORIENTED_EDGE('',*,*,#398,.T.);
#400=EDGE_LOOP('',(#384,#391,#392,#399));
#401=FACE_BOUND('',#400,.T.);
#402=ADVANCED_FACE('',(#401),#374,.F.);
#403=CARTESIAN_POINT('',(164.999811703,-3.,109.948276848));
#404=DIRECTION('',(0.,1.,0.));
#405=DIRECTION('',(0.,-0.,1.));
#406=AXIS2_PLACEMENT_3D('',#403,#404,#405);
#407=CYLINDRICAL_SURFACE('',#406,5.);
#408=CARTESIAN_POINT('',(164.999811703,0.,114.948276848));
#409=VERTEX_POINT('',#408);
#410=CARTESIAN_POINT('',(164.999811703,-3.,114.948276848));
#411=VERTEX_POINT('',#410);
#412=CARTESIAN_POINT('',(164.999811703,0.,114.948276848));
#413=DIRECTION('',(-0.,-1.,-0.));
#414=VECTOR('',#413,3.);
#415=LINE('',#412,#414);
#416=EDGE_CURVE('',#409,#411,#415,.T.);
#417=ORIENTED_EDGE('',*,*,#416,.F.);
#418=CARTESIAN_POINT('',(164.999811703,0.,104.948276848));
#419=VERTEX_POINT('',#418);
#420=CARTESIAN_POINT('',(164.999811703,0.,109.948276848));
#421=DIRECTION('',(0.,-1.,0.));
#422=DIRECTION('',(0.,0.,-1.));
#423=AXIS2_PLACEMENT_3D('',#420,#421,#422);
#424=CIRCLE('',#423,5.);
#425=EDGE_CURVE('',#419,#409,#424,.T.);
#426=ORIENTED_EDGE('',*,*,#425,.F.);
#427=CARTESIAN_POINT('',(164.999811703,0.,109.948276848));
#428=DIRECTION('',(0.,-1.,0.));
#429=DIRECTION('',(0.,0.,-1.));
#430=AXIS2_PLACEMENT_3D('',#427,#428,#429);
#431=CIRCLE('',#430,5.);
#432=EDGE_CURVE('',#409,#419,#431,.T.);
#433=ORIENTED_EDGE('',*,*,#432,.F.);
#434=ORIENTED_EDGE('',*,*,#416,.T.);
#435=CARTESIAN_POINT('',(164.999811703,-3.,104.948276848));
#436=VERTEX_POINT('',#435);
#437=CARTESIAN_POINT('',(164.999811703,-3.,109.948276848));
#438=DIRECTION('',(0.,-1.,0.));
#439=DIRECTION('',(0.,0.,-1.));
#440=AXIS2_PLACEMENT_3D('',#437,#438,#439);
#441=CIRCLE('',#440,5.);
#442=EDGE_CURVE('',#411,#436,#441,.T.);
#443=ORIENTED_EDGE('',*,*,#442,.T.);
#444=CARTESIAN_POINT('',(164.999811703,-3.,109.948276848));
#445=DIRECTION('',(0.,-1.,0.));
#446=DIRECTION('',(0.,0.,-1.));
#447=AXIS2_PLACEMENT_3D('',#444,#445,#446);
#448=CIRCLE('',#447,5.);
#449=EDGE_CURVE('',#436,#411,#448,.T.);
#450=ORIENTED_EDGE('',*,*,#449,.T.);
#451=EDGE_LOOP('',(#417,#426,#433,#434,#443,#450));
#452=FACE_BOUND('',#451,.T.);
#453=ADVANCED_FACE('',(#452),#407,.F.);
#454=CARTESIAN_POINT('',(0.,-3.,0.));
#455=DIRECTION('',(0.,-1.,0.));
#456=DIRECTION('',(1.,0.,0.));
#457=AXIS2_PLACEMENT_3D('',#454,#455,#456);
#458=PLANE('',#457);
#459=ORIENTED_EDGE('',*,*,#56,.F.);
#460=ORIENTED_EDGE('',*,*,#94,.T.);
#461=ORIENTED_EDGE('',*,*,#125,.F.);
#462=ORIENTED_EDGE('',*,*,#151,.T.);
#463=CARTESIAN_POINT('',(165.,-3.,96.499427561));
#464=DIRECTION('',(0.,-1.,0.));
#465=DIRECTION('',(0.,0.,-1.));
#466=AXIS2_PLACEMENT_3D('',#463,#464,#465);
#467=CIRCLE('',#466,27.879686242);
#468=EDGE_CURVE('',#139,#188,#467,.T.);
#469=ORIENTED_EDGE('',*,*,#468,.T.);
#470=ORIENTED_EDGE('',*,*,#193,.F.);
#471=ORIENTED_EDGE('',*,*,#231,.T.);
#472=ORIENTED_EDGE('',*,*,#262,.F.);
#473=CARTESIAN_POINT('',(165.082927174,-3.,67.235369478));
#474=DIRECTION('',(0.,-1.,0.));
#475=DIRECTION('',(0.,0.,-1.));
#476=AXIS2_PLACEMENT_3D('',#473,#474,#475);
#477=CIRCLE('',#476,27.17612738);
#478=EDGE_CURVE('',#378,#251,#477,.T.);
#479=ORIENTED_EDGE('',*,*,#478,.F.);
#480=ORIENTED_EDGE('',*,*,#398,.F.);
#481=EDGE_LOOP('',(#459,#460,#461,#462,#469,#470,#471,#472,#479,#480));
#482=FACE_BOUND('',#481,.T.);
#483=ORIENTED_EDGE('',*,*,#358,.F.);
#484=ORIENTED_EDGE('',*,*,#365,.F.);
#485=EDGE_LOOP('',(#483,#484));
#486=FACE_BOUND('',#485,.T.);
#487=ORIENTED_EDGE('',*,*,#307,.F.);
#488=ORIENTED_EDGE('',*,*,#314,.F.);
#489=EDGE_LOOP('',(#487,#488));
#490=FACE_BOUND('',#489,.T.);
#491=ORIENTED_EDGE('',*,*,#442,.F.);
#492=ORIENTED_EDGE('',*,*,#449,.F.);
#493=EDGE_LOOP('',(#491,#492));
#494=FACE_BOUND('',#493,.T.);
#495=ADVANCED_FACE('',(#482,#486,#490,#494),#458,.T.);
#496=CARTESIAN_POINT('',(0.,0.,0.));
#497=DIRECTION('',(0.,-1.,0.));
#498=DIRECTION('',(1.,0.,0.));
#499=AXIS2_PLACEMENT_3D('',#496,#497,#498);
#500=PLANE('',#499);
#501=ORIENTED_EDGE('',*,*,#40,.T.);
#502=ORIENTED_EDGE('',*,*,#390,.T.);
#503=CARTESIAN_POINT('',(165.082927174,0.,67.235369478));
#504=DIRECTION('',(0.,-1.,0.));
#505=DIRECTION('',(0.,0.,-1.));
#506=AXIS2_PLACEMENT_3D('',#503,#504,#505);
#507=CIRCLE('',#506,27.17612738);
#508=EDGE_CURVE('',#376,#243,#507,.T.);
#509=ORIENTED_EDGE('',*,*,#508,.T.);
#510=ORIENTED_EDGE('',*,*,#248,.T.);
#511=ORIENTED_EDGE('',*,*,#216,.F.);
#512=ORIENTED_EDGE('',*,*,#177,.T.);
#513=CARTESIAN_POINT('',(165.,0.,96.499427561));
#514=DIRECTION('',(0.,-1.,0.));
#515=DIRECTION('',(0.,0.,-1.));
#516=AXIS2_PLACEMENT_3D('',#513,#514,#515);
#517=CIRCLE('',#516,27.879686242);
#518=EDGE_CURVE('',#137,#172,#517,.T.);
#519=ORIENTED_EDGE('',*,*,#518,.F.);
#520=ORIENTED_EDGE('',*,*,#159,.F.);
#521=ORIENTED_EDGE('',*,*,#111,.T.);
#522=ORIENTED_EDGE('',*,*,#79,.F.);
#523=EDGE_LOOP('',(#501,#502,#509,#510,#511,#512,#519,#520,#521,#522));
#524=FACE_BOUND('',#523,.T.);
#525=ORIENTED_EDGE('',*,*,#341,.T.);
#526=ORIENTED_EDGE('',*,*,#348,.T.);
#527=EDGE_LOOP('',(#525,#526));
#528=FACE_BOUND('',#527,.T.);
#529=ORIENTED_EDGE('',*,*,#290,.T.);
#530=ORIENTED_EDGE('',*,*,#297,.T.);
#531=EDGE_LOOP('',(#529,#530));
#532=FACE_BOUND('',#531,.T.);
#533=ORIENTED_EDGE('',*,*,#425,.T.);
#534=ORIENTED_EDGE('',*,*,#432,.T.);
#535=EDGE_LOOP('',(#533,#534));
#536=FACE_BOUND('',#535,.T.);
#537=ADVANCED_FACE('',(#524,#528,#532,#536),#500,.F.);
#538=CARTESIAN_POINT('',(165.,-3.,96.499427561));
#539=DIRECTION('',(0.,1.,0.));
#540=DIRECTION('',(0.,-0.,1.));
#541=AXIS2_PLACEMENT_3D('',#538,#539,#540);
#542=CYLINDRICAL_SURFACE('',#541,27.879686242);
#543=ORIENTED_EDGE('',*,*,#144,.F.);
#544=ORIENTED_EDGE('',*,*,#518,.T.);
#545=ORIENTED_EDGE('',*,*,#199,.F.);
#546=ORIENTED_EDGE('',*,*,#468,.F.);
#547=EDGE_LOOP('',(#543,#544,#545,#546));
#548=FACE_BOUND('',#547,.T.);
#549=ADVANCED_FACE('',(#548),#542,.T.);
#550=CARTESIAN_POINT('',(165.082927174,-3.,67.235369478));
#551=DIRECTION('',(0.,1.,0.));
#552=DIRECTION('',(0.,-0.,1.));
#553=AXIS2_PLACEMENT_3D('',#550,#551,#552);
#554=CYLINDRICAL_SURFACE('',#553,27.17612738);
#555=ORIENTED_EDGE('',*,*,#383,.T.);
#556=ORIENTED_EDGE('',*,*,#478,.T.);
#557=ORIENTED_EDGE('',*,*,#256,.T.);
#558=ORIENTED_EDGE('',*,*,#508,.F.);
#559=EDGE_LOOP('',(#555,#556,#557,#558));
#560=FACE_BOUND('',#559,.T.);
#561=ADVANCED_FACE('',(#560),#554,.F.);
#562=CLOSED_SHELL('',(#66,#99,#130,#163,#203,#236,#267,#318,#369,#402,#453,#495,#537,#549,#561));
#563=MANIFOLD_SOLID_BREP('Corps 01',#562);
#564=COLOUR_RGB('',0.494117647,0.494117647,0.525490224);
#565=FILL_AREA_STYLE_COLOUR('',#564);
#566=FILL_AREA_STYLE('',(#565));
#567=SURFACE_STYLE_FILL_AREA(#566);
#568=SURFACE_SIDE_STYLE('',(#567));
#569=SURFACE_STYLE_USAGE(.BOTH.,#568);
#570=PRESENTATION_STYLE_ASSIGNMENT((#569));
#26=STYLED_ITEM('',(#570),#563);
#16=SHAPE_REPRESENTATION('root',(#15),#10);
#17=ADVANCED_BREP_SHAPE_REPRESENTATION('root',(#563),#10);
#578=SHAPE_REPRESENTATION_RELATIONSHIP('','',#16,#17);
#579=APPLICATION_CONTEXT('configuration controlled 3D design of mechanical parts and assemblies');
#580=APPLICATION_PROTOCOL_DEFINITION('international standard','configuration_control_3d_design_ed2_mim',2004,#579);
#581=PRODUCT_CONTEXT('',#579,'mechanical');
#582=PRODUCT_DEFINITION_CONTEXT('part definition',#579,'design');
#24=PRODUCT('root','root','',(#581));
#583=PRODUCT_RELATED_PRODUCT_CATEGORY('part','',(#24));
#584=PRODUCT_DEFINITION_FORMATION_WITH_SPECIFIED_SOURCE('','',#24,.NOT_KNOWN.);
#25=PRODUCT_DEFINITION('design','',#584,#582);
#23=PRODUCT_DEFINITION_SHAPE('','',#25);
#585=SHAPE_DEFINITION_REPRESENTATION(#23,#16);
#11=DRAUGHTING_MODEL('',(),#10);
#1=MECHANICAL_DESIGN_GEOMETRIC_PRESENTATION_REPRESENTATION('',(#26),#10);
ENDSEC;
END-ISO-10303-21;
