ISO-10303-21;
HEADER;
/* Generated by software containing ST-Developer
 * from STEP Tools, Inc. (www.steptools.com) 
 */

FILE_DESCRIPTION(
/* description */ (''),
/* implementation_level */ '2;1');

FILE_NAME(
/* name */ 'C:/Users/jonathan/Desktop/bouchon tachymetre am6 v1.step',
/* time_stamp */ '2022-06-25T21:18:20+02:00',
/* author */ (''),
/* organization */ (''),
/* preprocessor_version */ 'ST-DEVELOPER v19',
/* originating_system */ 'Autodesk Translation Framework v11.7.0.108',
/* authorisation */ '');

FILE_SCHEMA (('AUTOMOTIVE_DESIGN { 1 0 10303 214 3 1 1 }'));
ENDSEC;

DATA;
#10=MECHANICAL_DESIGN_GEOMETRIC_PRESENTATION_REPRESENTATION('',(#13),#431);
#11=SHAPE_REPRESENTATION_RELATIONSHIP('SRR','None',#438,#12);
#12=ADVANCED_BREP_SHAPE_REPRESENTATION('',(#14),#430);
#13=STYLED_ITEM('',(#447),#14);
#14=MANIFOLD_SOLID_BREP('Corps1',#240);
#15=CONICAL_SURFACE('',#266,7.5,0.785398163397448);
#16=FACE_BOUND('',#49,.T.);
#17=FACE_BOUND('',#51,.T.);
#18=FACE_BOUND('',#56,.T.);
#19=FACE_BOUND('',#59,.T.);
#20=FACE_BOUND('',#60,.T.);
#21=FACE_BOUND('',#67,.T.);
#22=PLANE('',#260);
#23=PLANE('',#262);
#24=PLANE('',#270);
#25=PLANE('',#274);
#26=PLANE('',#277);
#27=PLANE('',#280);
#28=PLANE('',#283);
#29=PLANE('',#284);
#30=FACE_OUTER_BOUND('',#46,.T.);
#31=FACE_OUTER_BOUND('',#47,.T.);
#32=FACE_OUTER_BOUND('',#48,.T.);
#33=FACE_OUTER_BOUND('',#50,.T.);
#34=FACE_OUTER_BOUND('',#52,.T.);
#35=FACE_OUTER_BOUND('',#53,.T.);
#36=FACE_OUTER_BOUND('',#54,.T.);
#37=FACE_OUTER_BOUND('',#55,.T.);
#38=FACE_OUTER_BOUND('',#57,.T.);
#39=FACE_OUTER_BOUND('',#58,.T.);
#40=FACE_OUTER_BOUND('',#61,.T.);
#41=FACE_OUTER_BOUND('',#62,.T.);
#42=FACE_OUTER_BOUND('',#63,.T.);
#43=FACE_OUTER_BOUND('',#64,.T.);
#44=FACE_OUTER_BOUND('',#65,.T.);
#45=FACE_OUTER_BOUND('',#66,.T.);
#46=EDGE_LOOP('',(#159,#160,#161,#162));
#47=EDGE_LOOP('',(#163,#164,#165,#166));
#48=EDGE_LOOP('',(#167));
#49=EDGE_LOOP('',(#168));
#50=EDGE_LOOP('',(#169));
#51=EDGE_LOOP('',(#170));
#52=EDGE_LOOP('',(#171,#172,#173,#174));
#53=EDGE_LOOP('',(#175,#176,#177,#178));
#54=EDGE_LOOP('',(#179,#180,#181,#182));
#55=EDGE_LOOP('',(#183));
#56=EDGE_LOOP('',(#184));
#57=EDGE_LOOP('',(#185,#186,#187,#188));
#58=EDGE_LOOP('',(#189,#190,#191,#192));
#59=EDGE_LOOP('',(#193));
#60=EDGE_LOOP('',(#194));
#61=EDGE_LOOP('',(#195,#196,#197,#198));
#62=EDGE_LOOP('',(#199,#200,#201,#202));
#63=EDGE_LOOP('',(#203,#204,#205,#206));
#64=EDGE_LOOP('',(#207,#208,#209,#210));
#65=EDGE_LOOP('',(#211));
#66=EDGE_LOOP('',(#212,#213,#214,#215));
#67=EDGE_LOOP('',(#216));
#68=LINE('',#368,#82);
#69=LINE('',#374,#83);
#70=LINE('',#384,#84);
#71=LINE('',#390,#85);
#72=LINE('',#393,#86);
#73=LINE('',#399,#87);
#74=LINE('',#406,#88);
#75=LINE('',#409,#89);
#76=LINE('',#413,#90);
#77=LINE('',#414,#91);
#78=LINE('',#415,#92);
#79=LINE('',#419,#93);
#80=LINE('',#422,#94);
#81=LINE('',#423,#95);
#82=VECTOR('',#291,3.);
#83=VECTOR('',#298,6.);
#84=VECTOR('',#311,8.);
#85=VECTOR('',#318,7.5);
#86=VECTOR('',#323,8.);
#87=VECTOR('',#330,4.);
#88=VECTOR('',#337,10.);
#89=VECTOR('',#340,10.);
#90=VECTOR('',#343,10.);
#91=VECTOR('',#344,10.);
#92=VECTOR('',#345,10.);
#93=VECTOR('',#350,10.);
#94=VECTOR('',#353,10.);
#95=VECTOR('',#354,10.);
#96=CIRCLE('',#255,3.);
#97=CIRCLE('',#256,3.);
#98=CIRCLE('',#258,6.);
#99=CIRCLE('',#259,6.);
#100=CIRCLE('',#261,8.);
#101=CIRCLE('',#263,8.);
#102=CIRCLE('',#265,8.);
#103=CIRCLE('',#267,7.);
#104=CIRCLE('',#268,8.);
#105=CIRCLE('',#271,4.);
#106=CIRCLE('',#273,4.);
#107=CIRCLE('',#275,12.5);
#108=CIRCLE('',#276,7.);
#109=CIRCLE('',#279,7.);
#110=CIRCLE('',#282,12.5);
#111=VERTEX_POINT('',#365);
#112=VERTEX_POINT('',#367);
#113=VERTEX_POINT('',#371);
#114=VERTEX_POINT('',#373);
#115=VERTEX_POINT('',#377);
#116=VERTEX_POINT('',#380);
#117=VERTEX_POINT('',#383);
#118=VERTEX_POINT('',#387);
#119=VERTEX_POINT('',#389);
#120=VERTEX_POINT('',#395);
#121=VERTEX_POINT('',#398);
#122=VERTEX_POINT('',#402);
#123=VERTEX_POINT('',#403);
#124=VERTEX_POINT('',#405);
#125=VERTEX_POINT('',#407);
#126=VERTEX_POINT('',#411);
#127=VERTEX_POINT('',#412);
#128=VERTEX_POINT('',#417);
#129=VERTEX_POINT('',#421);
#130=EDGE_CURVE('',#111,#111,#96,.T.);
#131=EDGE_CURVE('',#111,#112,#68,.T.);
#132=EDGE_CURVE('',#112,#112,#97,.T.);
#133=EDGE_CURVE('',#113,#113,#98,.T.);
#134=EDGE_CURVE('',#113,#114,#69,.T.);
#135=EDGE_CURVE('',#114,#114,#99,.T.);
#136=EDGE_CURVE('',#115,#115,#100,.T.);
#137=EDGE_CURVE('',#116,#116,#101,.T.);
#138=EDGE_CURVE('',#116,#117,#70,.T.);
#139=EDGE_CURVE('',#117,#117,#102,.T.);
#140=EDGE_CURVE('',#118,#118,#103,.T.);
#141=EDGE_CURVE('',#118,#119,#71,.T.);
#142=EDGE_CURVE('',#119,#119,#104,.T.);
#143=EDGE_CURVE('',#119,#115,#72,.T.);
#144=EDGE_CURVE('',#120,#120,#105,.T.);
#145=EDGE_CURVE('',#120,#121,#73,.T.);
#146=EDGE_CURVE('',#121,#121,#106,.T.);
#147=EDGE_CURVE('',#122,#123,#107,.T.);
#148=EDGE_CURVE('',#123,#124,#74,.T.);
#149=EDGE_CURVE('',#124,#125,#108,.T.);
#150=EDGE_CURVE('',#125,#122,#75,.T.);
#151=EDGE_CURVE('',#126,#127,#76,.T.);
#152=EDGE_CURVE('',#126,#122,#77,.T.);
#153=EDGE_CURVE('',#127,#125,#78,.T.);
#154=EDGE_CURVE('',#128,#127,#109,.T.);
#155=EDGE_CURVE('',#128,#124,#79,.T.);
#156=EDGE_CURVE('',#128,#129,#80,.T.);
#157=EDGE_CURVE('',#129,#123,#81,.T.);
#158=EDGE_CURVE('',#126,#129,#110,.T.);
#159=ORIENTED_EDGE('',*,*,#130,.F.);
#160=ORIENTED_EDGE('',*,*,#131,.T.);
#161=ORIENTED_EDGE('',*,*,#132,.F.);
#162=ORIENTED_EDGE('',*,*,#131,.F.);
#163=ORIENTED_EDGE('',*,*,#133,.T.);
#164=ORIENTED_EDGE('',*,*,#134,.T.);
#165=ORIENTED_EDGE('',*,*,#135,.F.);
#166=ORIENTED_EDGE('',*,*,#134,.F.);
#167=ORIENTED_EDGE('',*,*,#136,.F.);
#168=ORIENTED_EDGE('',*,*,#133,.F.);
#169=ORIENTED_EDGE('',*,*,#137,.F.);
#170=ORIENTED_EDGE('',*,*,#135,.T.);
#171=ORIENTED_EDGE('',*,*,#137,.T.);
#172=ORIENTED_EDGE('',*,*,#138,.T.);
#173=ORIENTED_EDGE('',*,*,#139,.F.);
#174=ORIENTED_EDGE('',*,*,#138,.F.);
#175=ORIENTED_EDGE('',*,*,#140,.T.);
#176=ORIENTED_EDGE('',*,*,#141,.T.);
#177=ORIENTED_EDGE('',*,*,#142,.T.);
#178=ORIENTED_EDGE('',*,*,#141,.F.);
#179=ORIENTED_EDGE('',*,*,#142,.F.);
#180=ORIENTED_EDGE('',*,*,#143,.T.);
#181=ORIENTED_EDGE('',*,*,#136,.T.);
#182=ORIENTED_EDGE('',*,*,#143,.F.);
#183=ORIENTED_EDGE('',*,*,#140,.F.);
#184=ORIENTED_EDGE('',*,*,#144,.T.);
#185=ORIENTED_EDGE('',*,*,#144,.F.);
#186=ORIENTED_EDGE('',*,*,#145,.T.);
#187=ORIENTED_EDGE('',*,*,#146,.F.);
#188=ORIENTED_EDGE('',*,*,#145,.F.);
#189=ORIENTED_EDGE('',*,*,#147,.T.);
#190=ORIENTED_EDGE('',*,*,#148,.T.);
#191=ORIENTED_EDGE('',*,*,#149,.T.);
#192=ORIENTED_EDGE('',*,*,#150,.T.);
#193=ORIENTED_EDGE('',*,*,#132,.T.);
#194=ORIENTED_EDGE('',*,*,#139,.T.);
#195=ORIENTED_EDGE('',*,*,#151,.F.);
#196=ORIENTED_EDGE('',*,*,#152,.T.);
#197=ORIENTED_EDGE('',*,*,#150,.F.);
#198=ORIENTED_EDGE('',*,*,#153,.F.);
#199=ORIENTED_EDGE('',*,*,#154,.T.);
#200=ORIENTED_EDGE('',*,*,#153,.T.);
#201=ORIENTED_EDGE('',*,*,#149,.F.);
#202=ORIENTED_EDGE('',*,*,#155,.F.);
#203=ORIENTED_EDGE('',*,*,#156,.F.);
#204=ORIENTED_EDGE('',*,*,#155,.T.);
#205=ORIENTED_EDGE('',*,*,#148,.F.);
#206=ORIENTED_EDGE('',*,*,#157,.F.);
#207=ORIENTED_EDGE('',*,*,#158,.T.);
#208=ORIENTED_EDGE('',*,*,#157,.T.);
#209=ORIENTED_EDGE('',*,*,#147,.F.);
#210=ORIENTED_EDGE('',*,*,#152,.F.);
#211=ORIENTED_EDGE('',*,*,#146,.T.);
#212=ORIENTED_EDGE('',*,*,#158,.F.);
#213=ORIENTED_EDGE('',*,*,#151,.T.);
#214=ORIENTED_EDGE('',*,*,#154,.F.);
#215=ORIENTED_EDGE('',*,*,#156,.T.);
#216=ORIENTED_EDGE('',*,*,#130,.T.);
#217=CYLINDRICAL_SURFACE('',#254,3.);
#218=CYLINDRICAL_SURFACE('',#257,6.);
#219=CYLINDRICAL_SURFACE('',#264,8.);
#220=CYLINDRICAL_SURFACE('',#269,8.);
#221=CYLINDRICAL_SURFACE('',#272,4.);
#222=CYLINDRICAL_SURFACE('',#278,7.);
#223=CYLINDRICAL_SURFACE('',#281,12.5);
#224=ADVANCED_FACE('',(#30),#217,.F.);
#225=ADVANCED_FACE('',(#31),#218,.T.);
#226=ADVANCED_FACE('',(#32,#16),#22,.F.);
#227=ADVANCED_FACE('',(#33,#17),#23,.F.);
#228=ADVANCED_FACE('',(#34),#219,.T.);
#229=ADVANCED_FACE('',(#35),#15,.T.);
#230=ADVANCED_FACE('',(#36),#220,.T.);
#231=ADVANCED_FACE('',(#37,#18),#24,.T.);
#232=ADVANCED_FACE('',(#38),#221,.F.);
#233=ADVANCED_FACE('',(#39,#19,#20),#25,.T.);
#234=ADVANCED_FACE('',(#40),#26,.T.);
#235=ADVANCED_FACE('',(#41),#222,.T.);
#236=ADVANCED_FACE('',(#42),#27,.T.);
#237=ADVANCED_FACE('',(#43),#223,.T.);
#238=ADVANCED_FACE('',(#44),#28,.T.);
#239=ADVANCED_FACE('',(#45,#21),#29,.F.);
#240=CLOSED_SHELL('',(#224,#225,#226,#227,#228,#229,#230,#231,#232,#233,
#234,#235,#236,#237,#238,#239));
#241=DERIVED_UNIT_ELEMENT(#243,1.);
#242=DERIVED_UNIT_ELEMENT(#433,-3.);
#243=(
MASS_UNIT()
NAMED_UNIT(*)
SI_UNIT(.KILO.,.GRAM.)
);
#244=DERIVED_UNIT((#241,#242));
#245=MEASURE_REPRESENTATION_ITEM('density measure',
POSITIVE_RATIO_MEASURE(7850.),#244);
#246=PROPERTY_DEFINITION_REPRESENTATION(#251,#248);
#247=PROPERTY_DEFINITION_REPRESENTATION(#252,#249);
#248=REPRESENTATION('material name',(#250),#430);
#249=REPRESENTATION('density',(#245),#430);
#250=DESCRIPTIVE_REPRESENTATION_ITEM('Acier','Acier');
#251=PROPERTY_DEFINITION('material property','material name',#440);
#252=PROPERTY_DEFINITION('material property','density of part',#440);
#253=AXIS2_PLACEMENT_3D('placement',#363,#285,#286);
#254=AXIS2_PLACEMENT_3D('',#364,#287,#288);
#255=AXIS2_PLACEMENT_3D('',#366,#289,#290);
#256=AXIS2_PLACEMENT_3D('',#369,#292,#293);
#257=AXIS2_PLACEMENT_3D('',#370,#294,#295);
#258=AXIS2_PLACEMENT_3D('',#372,#296,#297);
#259=AXIS2_PLACEMENT_3D('',#375,#299,#300);
#260=AXIS2_PLACEMENT_3D('',#376,#301,#302);
#261=AXIS2_PLACEMENT_3D('',#378,#303,#304);
#262=AXIS2_PLACEMENT_3D('',#379,#305,#306);
#263=AXIS2_PLACEMENT_3D('',#381,#307,#308);
#264=AXIS2_PLACEMENT_3D('',#382,#309,#310);
#265=AXIS2_PLACEMENT_3D('',#385,#312,#313);
#266=AXIS2_PLACEMENT_3D('',#386,#314,#315);
#267=AXIS2_PLACEMENT_3D('',#388,#316,#317);
#268=AXIS2_PLACEMENT_3D('',#391,#319,#320);
#269=AXIS2_PLACEMENT_3D('',#392,#321,#322);
#270=AXIS2_PLACEMENT_3D('',#394,#324,#325);
#271=AXIS2_PLACEMENT_3D('',#396,#326,#327);
#272=AXIS2_PLACEMENT_3D('',#397,#328,#329);
#273=AXIS2_PLACEMENT_3D('',#400,#331,#332);
#274=AXIS2_PLACEMENT_3D('',#401,#333,#334);
#275=AXIS2_PLACEMENT_3D('',#404,#335,#336);
#276=AXIS2_PLACEMENT_3D('',#408,#338,#339);
#277=AXIS2_PLACEMENT_3D('',#410,#341,#342);
#278=AXIS2_PLACEMENT_3D('',#416,#346,#347);
#279=AXIS2_PLACEMENT_3D('',#418,#348,#349);
#280=AXIS2_PLACEMENT_3D('',#420,#351,#352);
#281=AXIS2_PLACEMENT_3D('',#424,#355,#356);
#282=AXIS2_PLACEMENT_3D('',#425,#357,#358);
#283=AXIS2_PLACEMENT_3D('',#426,#359,#360);
#284=AXIS2_PLACEMENT_3D('',#427,#361,#362);
#285=DIRECTION('axis',(0.,0.,1.));
#286=DIRECTION('refdir',(1.,0.,0.));
#287=DIRECTION('center_axis',(1.,0.,0.));
#288=DIRECTION('ref_axis',(0.,0.,1.));
#289=DIRECTION('center_axis',(1.,0.,0.));
#290=DIRECTION('ref_axis',(0.,0.,1.));
#291=DIRECTION('',(1.,0.,0.));
#292=DIRECTION('center_axis',(-1.,0.,0.));
#293=DIRECTION('ref_axis',(0.,0.,1.));
#294=DIRECTION('center_axis',(-1.,0.,0.));
#295=DIRECTION('ref_axis',(0.,0.,1.));
#296=DIRECTION('center_axis',(-1.,0.,0.));
#297=DIRECTION('ref_axis',(0.,0.,1.));
#298=DIRECTION('',(-1.,0.,0.));
#299=DIRECTION('center_axis',(-1.,0.,0.));
#300=DIRECTION('ref_axis',(0.,0.,1.));
#301=DIRECTION('center_axis',(1.,0.,0.));
#302=DIRECTION('ref_axis',(0.,0.,-1.));
#303=DIRECTION('center_axis',(1.,0.,0.));
#304=DIRECTION('ref_axis',(0.,0.,-1.));
#305=DIRECTION('center_axis',(-1.,0.,0.));
#306=DIRECTION('ref_axis',(0.,0.,1.));
#307=DIRECTION('center_axis',(-1.,0.,0.));
#308=DIRECTION('ref_axis',(0.,0.,-1.));
#309=DIRECTION('center_axis',(1.,0.,0.));
#310=DIRECTION('ref_axis',(0.,0.,-1.));
#311=DIRECTION('',(-1.,0.,0.));
#312=DIRECTION('center_axis',(-1.,0.,0.));
#313=DIRECTION('ref_axis',(0.,0.,-1.));
#314=DIRECTION('center_axis',(-1.,0.,0.));
#315=DIRECTION('ref_axis',(0.,0.,-1.));
#316=DIRECTION('center_axis',(-1.,0.,0.));
#317=DIRECTION('ref_axis',(0.,0.,-1.));
#318=DIRECTION('',(-0.707106781186548,-8.65956056235493E-17,0.707106781186547));
#319=DIRECTION('center_axis',(1.,0.,0.));
#320=DIRECTION('ref_axis',(0.,0.,-1.));
#321=DIRECTION('center_axis',(1.,0.,0.));
#322=DIRECTION('ref_axis',(0.,0.,-1.));
#323=DIRECTION('',(-1.,0.,0.));
#324=DIRECTION('center_axis',(1.,0.,0.));
#325=DIRECTION('ref_axis',(0.,0.,-1.));
#326=DIRECTION('center_axis',(-1.,0.,0.));
#327=DIRECTION('ref_axis',(0.,0.,-1.));
#328=DIRECTION('center_axis',(1.,0.,0.));
#329=DIRECTION('ref_axis',(0.,0.,-1.));
#330=DIRECTION('',(-1.,0.,0.));
#331=DIRECTION('center_axis',(1.,0.,0.));
#332=DIRECTION('ref_axis',(0.,0.,-1.));
#333=DIRECTION('center_axis',(1.,0.,0.));
#334=DIRECTION('ref_axis',(0.,0.,-1.));
#335=DIRECTION('center_axis',(1.,0.,0.));
#336=DIRECTION('ref_axis',(0.,0.96088871305876,-0.276934795784641));
#337=DIRECTION('',(0.,0.2730629743173,-0.961996160105117));
#338=DIRECTION('center_axis',(1.,0.,0.));
#339=DIRECTION('ref_axis',(0.,-0.961996160105117,-0.273062974317299));
#340=DIRECTION('',(0.,0.276934795784641,0.96088871305876));
#341=DIRECTION('center_axis',(0.,0.96088871305876,-0.276934795784641));
#342=DIRECTION('ref_axis',(0.,0.276934795784641,0.96088871305876));
#343=DIRECTION('',(0.,-0.276934795784641,-0.96088871305876));
#344=DIRECTION('',(1.,0.,0.));
#345=DIRECTION('',(1.,0.,0.));
#346=DIRECTION('center_axis',(1.,0.,0.));
#347=DIRECTION('ref_axis',(0.,-0.961996160105117,-0.273062974317299));
#348=DIRECTION('center_axis',(1.,0.,0.));
#349=DIRECTION('ref_axis',(0.,-0.961996160105117,-0.273062974317299));
#350=DIRECTION('',(1.,0.,0.));
#351=DIRECTION('center_axis',(0.,-0.961996160105117,-0.2730629743173));
#352=DIRECTION('ref_axis',(0.,0.2730629743173,-0.961996160105117));
#353=DIRECTION('',(0.,-0.2730629743173,0.961996160105117));
#354=DIRECTION('',(1.,0.,0.));
#355=DIRECTION('center_axis',(1.,0.,0.));
#356=DIRECTION('ref_axis',(0.,0.00201354416610697,0.999997972817891));
#357=DIRECTION('center_axis',(1.,0.,0.));
#358=DIRECTION('ref_axis',(0.,0.96088871305876,-0.276934795784641));
#359=DIRECTION('center_axis',(1.,0.,0.));
#360=DIRECTION('ref_axis',(0.,0.,-1.));
#361=DIRECTION('center_axis',(1.,0.,0.));
#362=DIRECTION('ref_axis',(0.,0.,-1.));
#363=CARTESIAN_POINT('',(0.,0.,0.));
#364=CARTESIAN_POINT('Origin',(0.,-0.0402709649587146,-20.));
#365=CARTESIAN_POINT('',(0.,-0.040270964958715,-23.));
#366=CARTESIAN_POINT('Origin',(0.,-0.0402709649587146,-20.));
#367=CARTESIAN_POINT('',(5.,-0.040270964958715,-23.));
#368=CARTESIAN_POINT('',(0.,-0.0402709649587143,-23.));
#369=CARTESIAN_POINT('Origin',(5.,-0.0402709649587146,-20.));
#370=CARTESIAN_POINT('Origin',(16.5,0.,0.));
#371=CARTESIAN_POINT('',(18.,-7.34788079488412E-16,-6.));
#372=CARTESIAN_POINT('Origin',(18.,0.,0.));
#373=CARTESIAN_POINT('',(15.,-7.34788079488412E-16,-6.));
#374=CARTESIAN_POINT('',(16.5,-7.34788079488412E-16,-6.));
#375=CARTESIAN_POINT('Origin',(15.,0.,0.));
#376=CARTESIAN_POINT('Origin',(18.,0.,8.));
#377=CARTESIAN_POINT('',(18.,0.,8.));
#378=CARTESIAN_POINT('Origin',(18.,0.,0.));
#379=CARTESIAN_POINT('Origin',(15.,0.,6.));
#380=CARTESIAN_POINT('',(15.,0.,8.));
#381=CARTESIAN_POINT('Origin',(15.,0.,0.));
#382=CARTESIAN_POINT('Origin',(5.,0.,0.));
#383=CARTESIAN_POINT('',(5.,-9.79717439317883E-16,8.));
#384=CARTESIAN_POINT('',(5.,-9.79717439317883E-16,8.));
#385=CARTESIAN_POINT('Origin',(5.,0.,0.));
#386=CARTESIAN_POINT('Origin',(26.5,0.,0.));
#387=CARTESIAN_POINT('',(27.,8.57252759403147E-16,7.));
#388=CARTESIAN_POINT('Origin',(27.,0.,0.));
#389=CARTESIAN_POINT('',(26.,-9.79717439317883E-16,8.));
#390=CARTESIAN_POINT('',(26.5,-9.18485099360515E-16,7.5));
#391=CARTESIAN_POINT('Origin',(26.,0.,0.));
#392=CARTESIAN_POINT('Origin',(5.,0.,0.));
#393=CARTESIAN_POINT('',(5.,-9.79717439317883E-16,8.));
#394=CARTESIAN_POINT('Origin',(27.,0.,0.));
#395=CARTESIAN_POINT('',(27.,-4.89858719658941E-16,4.));
#396=CARTESIAN_POINT('Origin',(27.,0.,0.));
#397=CARTESIAN_POINT('Origin',(5.,0.,0.));
#398=CARTESIAN_POINT('',(5.,-4.89858719658941E-16,4.));
#399=CARTESIAN_POINT('',(5.,-4.89858719658941E-16,4.));
#400=CARTESIAN_POINT('Origin',(5.,0.,0.));
#401=CARTESIAN_POINT('Origin',(5.,0.,-7.25));
#402=CARTESIAN_POINT('',(5.,12.0111089132345,-3.46168494730801));
#403=CARTESIAN_POINT('',(5.,-12.024952001314,-3.41328717896624));
#404=CARTESIAN_POINT('Origin',(5.,0.,0.));
#405=CARTESIAN_POINT('',(5.,-6.77424408569454,-21.9114408202211));
#406=CARTESIAN_POINT('',(5.,-6.77424408569454,-21.9114408202211));
#407=CARTESIAN_POINT('',(5.,6.68595002645261,-21.9385435704925));
#408=CARTESIAN_POINT('Origin',(5.,-0.0402709649587147,-20.));
#409=CARTESIAN_POINT('',(5.,12.0111089132345,-3.46168494730801));
#410=CARTESIAN_POINT('Origin',(0.,6.68595002645261,-21.9385435704925));
#411=CARTESIAN_POINT('',(0.,12.0111089132345,-3.46168494730801));
#412=CARTESIAN_POINT('',(0.,6.68595002645261,-21.9385435704925));
#413=CARTESIAN_POINT('',(0.,12.0111089132345,-3.46168494730801));
#414=CARTESIAN_POINT('',(0.,12.0111089132345,-3.46168494730801));
#415=CARTESIAN_POINT('',(0.,6.68595002645261,-21.9385435704925));
#416=CARTESIAN_POINT('Origin',(0.,-0.0402709649587147,-20.));
#417=CARTESIAN_POINT('',(0.,-6.77424408569454,-21.9114408202211));
#418=CARTESIAN_POINT('Origin',(0.,-0.0402709649587147,-20.));
#419=CARTESIAN_POINT('',(0.,-6.77424408569454,-21.9114408202211));
#420=CARTESIAN_POINT('Origin',(0.,-12.024952001314,-3.41328717896624));
#421=CARTESIAN_POINT('',(0.,-12.024952001314,-3.41328717896624));
#422=CARTESIAN_POINT('',(0.,-6.77424408569454,-21.9114408202211));
#423=CARTESIAN_POINT('',(0.,-12.024952001314,-3.41328717896624));
#424=CARTESIAN_POINT('Origin',(0.,0.,0.));
#425=CARTESIAN_POINT('Origin',(0.,0.,0.));
#426=CARTESIAN_POINT('Origin',(5.,0.,-7.25));
#427=CARTESIAN_POINT('Origin',(0.,0.,-7.25));
#428=UNCERTAINTY_MEASURE_WITH_UNIT(LENGTH_MEASURE(0.01),#432,
'DISTANCE_ACCURACY_VALUE',
'Maximum model space distance between geometric entities at asserted c
onnectivities');
#429=UNCERTAINTY_MEASURE_WITH_UNIT(LENGTH_MEASURE(0.01),#432,
'DISTANCE_ACCURACY_VALUE',
'Maximum model space distance between geometric entities at asserted c
onnectivities');
#430=(
GEOMETRIC_REPRESENTATION_CONTEXT(3)
GLOBAL_UNCERTAINTY_ASSIGNED_CONTEXT((#428))
GLOBAL_UNIT_ASSIGNED_CONTEXT((#432,#434,#435))
REPRESENTATION_CONTEXT('','3D')
);
#431=(
GEOMETRIC_REPRESENTATION_CONTEXT(3)
GLOBAL_UNCERTAINTY_ASSIGNED_CONTEXT((#429))
GLOBAL_UNIT_ASSIGNED_CONTEXT((#432,#434,#435))
REPRESENTATION_CONTEXT('','3D')
);
#432=(
LENGTH_UNIT()
NAMED_UNIT(*)
SI_UNIT(.MILLI.,.METRE.)
);
#433=(
LENGTH_UNIT()
NAMED_UNIT(*)
SI_UNIT($,.METRE.)
);
#434=(
NAMED_UNIT(*)
PLANE_ANGLE_UNIT()
SI_UNIT($,.RADIAN.)
);
#435=(
NAMED_UNIT(*)
SI_UNIT($,.STERADIAN.)
SOLID_ANGLE_UNIT()
);
#436=SHAPE_DEFINITION_REPRESENTATION(#437,#438);
#437=PRODUCT_DEFINITION_SHAPE('',$,#440);
#438=SHAPE_REPRESENTATION('',(#253),#430);
#439=PRODUCT_DEFINITION_CONTEXT('part definition',#444,'design');
#440=PRODUCT_DEFINITION('bouchon tachymetre am6',
'bouchon tachymetre am6 v1',#441,#439);
#441=PRODUCT_DEFINITION_FORMATION('',$,#446);
#442=PRODUCT_RELATED_PRODUCT_CATEGORY('bouchon tachymetre am6 v1',
'bouchon tachymetre am6 v1',(#446));
#443=APPLICATION_PROTOCOL_DEFINITION('international standard',
'automotive_design',2009,#444);
#444=APPLICATION_CONTEXT(
'Core Data for Automotive Mechanical Design Process');
#445=PRODUCT_CONTEXT('part definition',#444,'mechanical');
#446=PRODUCT('bouchon tachymetre am6','bouchon tachymetre am6 v1',$,(#445));
#447=PRESENTATION_STYLE_ASSIGNMENT((#448));
#448=SURFACE_STYLE_USAGE(.BOTH.,#449);
#449=SURFACE_SIDE_STYLE('',(#450));
#450=SURFACE_STYLE_FILL_AREA(#451);
#451=FILL_AREA_STYLE('Acier - Satin\X\E9',(#452));
#452=FILL_AREA_STYLE_COLOUR('Acier - Satin\X\E9',#453);
#453=COLOUR_RGB('Acier - Satin\X\E9',0.627450980392157,0.627450980392157,
0.627450980392157);
ENDSEC;
END-ISO-10303-21;
