ISO-10303-21;

HEADER;
FILE_DESCRIPTION((' '),'2;1');
FILE_NAME( 'TEY200013-15-A_But\X2\00E9\X0\e.stp',
           '2022-06-07T11:13:12',
           (' '),
           ('--- Datakit www.datakit.com---'),
           ' Datakit CrossCadWare V2019.1  Dec 28 2018',
           'DATAKIT 2022 (c)',
           ' ');
FILE_SCHEMA(('AP242_MANAGED_MODEL_BASED_3D_ENGINEERING_MIM_LF { 1 0 10303 442 1 1 4 }'));
ENDSEC;

DATA;
#1=APPLICATION_CONTEXT('Managed model based 3d engineering');
#2=APPLICATION_PROTOCOL_DEFINITION('international standard','ap242_managed_model_based_3d_engineering',2013,#1);
#3=(LENGTH_UNIT()NAMED_UNIT(*)SI_UNIT(.MILLI.,.METRE.));
#4=(NAMED_UNIT(*)PLANE_ANGLE_UNIT()SI_UNIT($,.RADIAN.));
#5=( GEOMETRIC_REPRESENTATION_CONTEXT(3)
       GLOBAL_UNCERTAINTY_ASSIGNED_CONTEXT((#6)) GLOBAL_UNIT_ASSIGNED_CONTEXT
  ((#3,#4)) REPRESENTATION_CONTEXT('Context #1',
  '3D Context with UNIT and UNCERTAINTY') );
#6=UNCERTAINTY_MEASURE_WITH_UNIT(LENGTH_MEASURE(0.005),#3,'distance_accuracy_value','Confusion accuracy');
#7=PRODUCT_CONTEXT('',#1,'mechanical');
#8=PRODUCT('TEY200013-15-A_But\X2\00E9\X0\e','','',(#7));
#9=PRODUCT_DEFINITION_FORMATION('','',#8);
#10=PRODUCT_DEFINITION_CONTEXT('part definition',#1,'design');
#11=PRODUCT_DEFINITION('design','',#9,#10);
#12=PRODUCT_DEFINITION_SHAPE('','',#11);
#13=PRODUCT_CATEGORY('part',$);
#14=PRODUCT_RELATED_PRODUCT_CATEGORY('part',$,(#8));
#15=PRODUCT_CATEGORY_RELATIONSHIP('','',#13,#14);
#16=CARTESIAN_POINT('',(30.0,-8.0,8.0));
#17=VERTEX_POINT('',#16);
#18=CARTESIAN_POINT('',(30.0,8.0,8.0));
#19=VERTEX_POINT('',#18);
#20=CARTESIAN_POINT('',(30.0,10.0,8.0));
#21=DIRECTION('',(0.0,1.0,0.0));
#22=VECTOR('',#21,1.0);
#23=LINE('',#20,#22);
#24=EDGE_CURVE('n° 237',#17,#19,#23,.T.);
#25=ORIENTED_EDGE('',*,*,#24,.F.);
#26=CARTESIAN_POINT('',(30.0,-8.0,0.0));
#27=VERTEX_POINT('',#26);
#28=CARTESIAN_POINT('',(30.0,-8.0,8.0));
#29=DIRECTION('',(0.0,0.0,-1.0));
#30=VECTOR('',#29,1.0);
#31=LINE('',#28,#30);
#32=EDGE_CURVE('n° 247',#17,#27,#31,.T.);
#33=ORIENTED_EDGE('',*,*,#32,.T.);
#34=CARTESIAN_POINT('',(30.0,8.0,0.0));
#35=VERTEX_POINT('',#34);
#36=CARTESIAN_POINT('',(30.0,10.0,0.0));
#37=DIRECTION('',(0.0,1.0,0.0));
#38=VECTOR('',#37,1.0);
#39=LINE('',#36,#38);
#40=EDGE_CURVE('n° 231',#27,#35,#39,.T.);
#41=ORIENTED_EDGE('',*,*,#40,.T.);
#42=CARTESIAN_POINT('',(30.0,8.0,8.0));
#43=DIRECTION('',(0.0,0.0,1.0));
#44=VECTOR('',#43,1.0);
#45=LINE('',#42,#44);
#46=EDGE_CURVE('n° 242',#35,#19,#45,.T.);
#47=ORIENTED_EDGE('',*,*,#46,.T.);
#48=EDGE_LOOP('',(#25,#33,#41,#47));
#49=FACE_OUTER_BOUND('',#48,.T.);
#50=CARTESIAN_POINT('',(30.0,10.0,8.0));
#51=DIRECTION('',(-1.0,0.0,0.0));
#52=DIRECTION('',(0.0,0.0,1.0));
#53=AXIS2_PLACEMENT_3D('',#50,#51,#52);
#54=PLANE('',#53);
#55=ADVANCED_FACE('n° 90',(#49),#54,.F.);
#56=CARTESIAN_POINT('',(28.0,10.0,8.0));
#57=VERTEX_POINT('',#56);
#58=CARTESIAN_POINT('',(-28.0,10.0,8.0));
#59=VERTEX_POINT('',#58);
#60=CARTESIAN_POINT('',(-30.0,10.0,8.0));
#61=DIRECTION('',(-1.0,0.0,0.0));
#62=VECTOR('',#61,1.0);
#63=LINE('',#60,#62);
#64=EDGE_CURVE('n° 307',#57,#59,#63,.T.);
#65=ORIENTED_EDGE('',*,*,#64,.F.);
#66=CARTESIAN_POINT('',(28.0,10.0,0.0));
#67=VERTEX_POINT('',#66);
#68=CARTESIAN_POINT('',(28.0,10.0,8.0));
#69=DIRECTION('',(0.0,0.0,-1.0));
#70=VECTOR('',#69,1.0);
#71=LINE('',#68,#70);
#72=EDGE_CURVE('n° 353',#57,#67,#71,.T.);
#73=ORIENTED_EDGE('',*,*,#72,.T.);
#74=CARTESIAN_POINT('',(-28.0,10.0,0.0));
#75=VERTEX_POINT('',#74);
#76=CARTESIAN_POINT('',(-30.0,10.0,0.0));
#77=DIRECTION('',(-1.0,0.0,0.0));
#78=VECTOR('',#77,1.0);
#79=LINE('',#76,#78);
#80=EDGE_CURVE('n° 265',#67,#75,#79,.T.);
#81=ORIENTED_EDGE('',*,*,#80,.T.);
#82=CARTESIAN_POINT('',(-28.0,10.0,8.0));
#83=DIRECTION('',(0.0,0.0,1.0));
#84=VECTOR('',#83,1.0);
#85=LINE('',#82,#84);
#86=EDGE_CURVE('n° 348',#75,#59,#85,.T.);
#87=ORIENTED_EDGE('',*,*,#86,.T.);
#88=EDGE_LOOP('',(#65,#73,#81,#87));
#89=FACE_OUTER_BOUND('',#88,.T.);
#90=CARTESIAN_POINT('',(-30.0,10.0,8.0));
#91=DIRECTION('',(0.0,-1.0,0.0));
#92=DIRECTION('',(0.0,-0.0,-1.0));
#93=AXIS2_PLACEMENT_3D('',#90,#91,#92);
#94=PLANE('',#93);
#95=ADVANCED_FACE('n° 88',(#89),#94,.F.);
#96=CARTESIAN_POINT('',(-30.0,8.0,0.0));
#97=VERTEX_POINT('',#96);
#98=CARTESIAN_POINT('',(-30.0,-8.0,0.0));
#99=VERTEX_POINT('',#98);
#100=CARTESIAN_POINT('',(-30.0,10.0,0.0));
#101=DIRECTION('',(0.0,-1.0,0.0));
#102=VECTOR('',#101,1.0);
#103=LINE('',#100,#102);
#104=EDGE_CURVE('n° 259',#97,#99,#103,.T.);
#105=ORIENTED_EDGE('',*,*,#104,.T.);
#106=CARTESIAN_POINT('',(-30.0,-8.0,8.0));
#107=VERTEX_POINT('',#106);
#108=CARTESIAN_POINT('',(-30.0,-8.0,8.0));
#109=DIRECTION('',(0.0,0.0,1.0));
#110=VECTOR('',#109,1.0);
#111=LINE('',#108,#110);
#112=EDGE_CURVE('n° 343',#99,#107,#111,.T.);
#113=ORIENTED_EDGE('',*,*,#112,.T.);
#114=CARTESIAN_POINT('',(-30.0,8.0,8.0));
#115=VERTEX_POINT('',#114);
#116=CARTESIAN_POINT('',(-30.0,10.0,8.0));
#117=DIRECTION('',(0.0,-1.0,0.0));
#118=VECTOR('',#117,1.0);
#119=LINE('',#116,#118);
#120=EDGE_CURVE('n° 313',#115,#107,#119,.T.);
#121=ORIENTED_EDGE('',*,*,#120,.F.);
#122=CARTESIAN_POINT('',(-30.0,8.0,8.0));
#123=DIRECTION('',(0.0,0.0,-1.0));
#124=VECTOR('',#123,1.0);
#125=LINE('',#122,#124);
#126=EDGE_CURVE('n° 338',#115,#97,#125,.T.);
#127=ORIENTED_EDGE('',*,*,#126,.T.);
#128=EDGE_LOOP('',(#105,#113,#121,#127));
#129=FACE_OUTER_BOUND('',#128,.T.);
#130=CARTESIAN_POINT('',(-30.0,10.0,8.0));
#131=DIRECTION('',(1.0,0.0,-0.0));
#132=DIRECTION('',(-0.0,0.0,-1.0));
#133=AXIS2_PLACEMENT_3D('',#130,#131,#132);
#134=PLANE('',#133);
#135=ADVANCED_FACE('n° 86',(#129),#134,.F.);
#136=CARTESIAN_POINT('',(-28.0,-10.0,0.0));
#137=VERTEX_POINT('',#136);
#138=CARTESIAN_POINT('',(28.0,-10.0,0.0));
#139=VERTEX_POINT('',#138);
#140=CARTESIAN_POINT('',(-30.0,-10.0,0.0));
#141=DIRECTION('',(1.0,0.0,0.0));
#142=VECTOR('',#141,1.0);
#143=LINE('',#140,#142);
#144=EDGE_CURVE('n° 253',#137,#139,#143,.T.);
#145=ORIENTED_EDGE('',*,*,#144,.T.);
#146=CARTESIAN_POINT('',(28.0,-10.0,8.0));
#147=VERTEX_POINT('',#146);
#148=CARTESIAN_POINT('',(28.0,-10.0,8.0));
#149=DIRECTION('',(0.0,0.0,1.0));
#150=VECTOR('',#149,1.0);
#151=LINE('',#148,#150);
#152=EDGE_CURVE('n° 301',#139,#147,#151,.T.);
#153=ORIENTED_EDGE('',*,*,#152,.T.);
#154=CARTESIAN_POINT('',(-28.0,-10.0,8.0));
#155=VERTEX_POINT('',#154);
#156=CARTESIAN_POINT('',(-30.0,-10.0,8.0));
#157=DIRECTION('',(1.0,0.0,0.0));
#158=VECTOR('',#157,1.0);
#159=LINE('',#156,#158);
#160=EDGE_CURVE('n° 291',#155,#147,#159,.T.);
#161=ORIENTED_EDGE('',*,*,#160,.F.);
#162=CARTESIAN_POINT('',(-28.0,-10.0,8.0));
#163=DIRECTION('',(0.0,0.0,-1.0));
#164=VECTOR('',#163,1.0);
#165=LINE('',#162,#164);
#166=EDGE_CURVE('n° 296',#155,#137,#165,.T.);
#167=ORIENTED_EDGE('',*,*,#166,.T.);
#168=EDGE_LOOP('',(#145,#153,#161,#167));
#169=FACE_OUTER_BOUND('',#168,.T.);
#170=CARTESIAN_POINT('',(-30.0,-10.0,8.0));
#171=DIRECTION('',(0.0,1.0,0.0));
#172=DIRECTION('',(0.0,-0.0,1.0));
#173=AXIS2_PLACEMENT_3D('',#170,#171,#172);
#174=PLANE('',#173);
#175=ADVANCED_FACE('n° 84',(#169),#174,.F.);
#176=CARTESIAN_POINT('',(-23.25,0.0,8.0));
#177=VERTEX_POINT('',#176);
#178=CARTESIAN_POINT('',(-20.0,0.0,8.0));
#179=DIRECTION('',(-0.0,-0.0,-1.0));
#180=DIRECTION('',(-1.0,0.0,0.0));
#181=AXIS2_PLACEMENT_3D('',#178,#179,#180);
#182=CIRCLE('',#181,3.25);
#183=EDGE_CURVE('n° 196',#177,#177,#182,.T.);
#184=ORIENTED_EDGE('',*,*,#183,.T.);
#185=EDGE_LOOP('',(#184));
#186=FACE_OUTER_BOUND('',#185,.T.);
#187=CARTESIAN_POINT('',(23.25,0.0,8.0));
#188=VERTEX_POINT('',#187);
#189=CARTESIAN_POINT('',(20.0,0.0,8.0));
#190=DIRECTION('',(0.0,0.0,1.0));
#191=DIRECTION('',(1.0,0.0,-0.0));
#192=AXIS2_PLACEMENT_3D('',#189,#190,#191);
#193=CIRCLE('',#192,3.25);
#194=EDGE_CURVE('n° 153',#188,#188,#193,.T.);
#195=ORIENTED_EDGE('',*,*,#194,.F.);
#196=EDGE_LOOP('',(#195));
#197=FACE_BOUND('',#196,.T.);
#198=ORIENTED_EDGE('',*,*,#160,.T.);
#199=CARTESIAN_POINT('',(19.0,-19.0,8.0));
#200=DIRECTION('',(0.7071067812,0.7071067812,0.0));
#201=VECTOR('',#200,1.0);
#202=LINE('',#199,#201);
#203=EDGE_CURVE('n° 333',#147,#17,#202,.T.);
#204=ORIENTED_EDGE('',*,*,#203,.T.);
#205=ORIENTED_EDGE('',*,*,#24,.T.);
#206=CARTESIAN_POINT('',(19.0,19.0,8.0));
#207=DIRECTION('',(-0.7071067812,0.7071067812,0.0));
#208=VECTOR('',#207,1.0);
#209=LINE('',#206,#208);
#210=EDGE_CURVE('n° 323',#19,#57,#209,.T.);
#211=ORIENTED_EDGE('',*,*,#210,.T.);
#212=ORIENTED_EDGE('',*,*,#64,.T.);
#213=CARTESIAN_POINT('',(-19.0,19.0,8.0));
#214=DIRECTION('',(-0.7071067812,-0.7071067812,0.0));
#215=VECTOR('',#214,1.0);
#216=LINE('',#213,#215);
#217=EDGE_CURVE('n° 318',#59,#115,#216,.T.);
#218=ORIENTED_EDGE('',*,*,#217,.T.);
#219=ORIENTED_EDGE('',*,*,#120,.T.);
#220=CARTESIAN_POINT('',(-19.0,-19.0,8.0));
#221=DIRECTION('',(0.7071067812,-0.7071067812,0.0));
#222=VECTOR('',#221,1.0);
#223=LINE('',#220,#222);
#224=EDGE_CURVE('n° 328',#107,#155,#223,.T.);
#225=ORIENTED_EDGE('',*,*,#224,.T.);
#226=EDGE_LOOP('',(#198,#204,#205,#211,#212,#218,#219,#225));
#227=FACE_BOUND('',#226,.T.);
#228=CARTESIAN_POINT('',(0.0,0.0,8.0));
#229=DIRECTION('',(-0.0,0.0,1.0));
#230=DIRECTION('',(1.0,0.0,0.0));
#231=AXIS2_PLACEMENT_3D('',#228,#229,#230);
#232=PLANE('',#231);
#233=ADVANCED_FACE('n° 1',(#186,#197,#227),#232,.T.);
#234=CARTESIAN_POINT('',(-23.25,0.0,0.0));
#235=VERTEX_POINT('',#234);
#236=CARTESIAN_POINT('',(-20.0,0.0,0.0));
#237=DIRECTION('',(-0.0,-0.0,-1.0));
#238=DIRECTION('',(-1.0,0.0,0.0));
#239=AXIS2_PLACEMENT_3D('',#236,#237,#238);
#240=CIRCLE('',#239,3.25);
#241=EDGE_CURVE('n° 199',#235,#235,#240,.T.);
#242=ORIENTED_EDGE('',*,*,#241,.F.);
#243=EDGE_LOOP('',(#242));
#244=FACE_OUTER_BOUND('',#243,.T.);
#245=CARTESIAN_POINT('',(23.25,0.0,0.0));
#246=VERTEX_POINT('',#245);
#247=CARTESIAN_POINT('',(20.0,0.0,0.0));
#248=DIRECTION('',(0.0,0.0,1.0));
#249=DIRECTION('',(1.0,0.0,-0.0));
#250=AXIS2_PLACEMENT_3D('',#247,#248,#249);
#251=CIRCLE('',#250,3.25);
#252=EDGE_CURVE('n° 150',#246,#246,#251,.T.);
#253=ORIENTED_EDGE('',*,*,#252,.T.);
#254=EDGE_LOOP('',(#253));
#255=FACE_BOUND('',#254,.T.);
#256=ORIENTED_EDGE('',*,*,#40,.F.);
#257=CARTESIAN_POINT('',(30.0,-8.0,0.0));
#258=DIRECTION('',(-0.7071067812,-0.7071067812,0.0));
#259=VECTOR('',#258,1.0);
#260=LINE('',#257,#259);
#261=EDGE_CURVE('n° 285',#27,#139,#260,.T.);
#262=ORIENTED_EDGE('',*,*,#261,.T.);
#263=ORIENTED_EDGE('',*,*,#144,.F.);
#264=CARTESIAN_POINT('',(-28.0,-10.0,0.0));
#265=DIRECTION('',(-0.7071067812,0.7071067812,0.0));
#266=VECTOR('',#265,1.0);
#267=LINE('',#264,#266);
#268=EDGE_CURVE('n° 280',#137,#99,#267,.T.);
#269=ORIENTED_EDGE('',*,*,#268,.T.);
#270=ORIENTED_EDGE('',*,*,#104,.F.);
#271=CARTESIAN_POINT('',(-30.0,8.0,0.0));
#272=DIRECTION('',(0.7071067812,0.7071067812,0.0));
#273=VECTOR('',#272,1.0);
#274=LINE('',#271,#273);
#275=EDGE_CURVE('n° 270',#97,#75,#274,.T.);
#276=ORIENTED_EDGE('',*,*,#275,.T.);
#277=ORIENTED_EDGE('',*,*,#80,.F.);
#278=CARTESIAN_POINT('',(28.0,10.0,0.0));
#279=DIRECTION('',(0.7071067812,-0.7071067812,0.0));
#280=VECTOR('',#279,1.0);
#281=LINE('',#278,#280);
#282=EDGE_CURVE('n° 275',#67,#35,#281,.T.);
#283=ORIENTED_EDGE('',*,*,#282,.T.);
#284=EDGE_LOOP('',(#256,#262,#263,#269,#270,#276,#277,#283));
#285=FACE_BOUND('',#284,.T.);
#286=CARTESIAN_POINT('',(-0.0,0.0,0.0));
#287=DIRECTION('',(-0.0,0.0,1.0));
#288=DIRECTION('',(1.0,0.0,0.0));
#289=AXIS2_PLACEMENT_3D('',#286,#287,#288);
#290=PLANE('',#289);
#291=ADVANCED_FACE('n° 48',(#244,#255,#285),#290,.F.);
#292=ORIENTED_EDGE('',*,*,#194,.T.);
#293=EDGE_LOOP('',(#292));
#294=FACE_OUTER_BOUND('',#293,.T.);
#295=ORIENTED_EDGE('',*,*,#252,.F.);
#296=EDGE_LOOP('',(#295));
#297=FACE_BOUND('',#296,.T.);
#298=CARTESIAN_POINT('',(20.0,0.0,8.0));
#299=DIRECTION('',(0.0,0.0,-1.0));
#300=DIRECTION('',(-1.0,0.0,-0.0));
#301=AXIS2_PLACEMENT_3D('',#298,#299,#300);
#302=CYLINDRICAL_SURFACE('',#301,3.25);
#303=ADVANCED_FACE('n° 156',(#294,#297),#302,.F.);
#304=ORIENTED_EDGE('',*,*,#183,.F.);
#305=EDGE_LOOP('',(#304));
#306=FACE_OUTER_BOUND('',#305,.T.);
#307=ORIENTED_EDGE('',*,*,#241,.T.);
#308=EDGE_LOOP('',(#307));
#309=FACE_BOUND('',#308,.T.);
#310=CARTESIAN_POINT('',(-20.0,0.0,8.0));
#311=DIRECTION('',(0.0,0.0,-1.0));
#312=DIRECTION('',(-1.0,0.0,-0.0));
#313=AXIS2_PLACEMENT_3D('',#310,#311,#312);
#314=CYLINDRICAL_SURFACE('',#313,3.25);
#315=ADVANCED_FACE('n° 202',(#306,#309),#314,.F.);
#316=ORIENTED_EDGE('',*,*,#203,.F.);
#317=ORIENTED_EDGE('',*,*,#152,.F.);
#318=ORIENTED_EDGE('',*,*,#261,.F.);
#319=ORIENTED_EDGE('',*,*,#32,.F.);
#320=EDGE_LOOP('',(#316,#317,#318,#319));
#321=FACE_OUTER_BOUND('',#320,.T.);
#322=CARTESIAN_POINT('',(30.0,-8.0,8.0));
#323=DIRECTION('',(-0.7071067812,0.7071067812,0.0));
#324=DIRECTION('',(0.0,0.0,-1.0));
#325=AXIS2_PLACEMENT_3D('',#322,#323,#324);
#326=PLANE('',#325);
#327=ADVANCED_FACE('n° 373',(#321),#326,.F.);
#328=ORIENTED_EDGE('',*,*,#224,.F.);
#329=ORIENTED_EDGE('',*,*,#112,.F.);
#330=ORIENTED_EDGE('',*,*,#268,.F.);
#331=ORIENTED_EDGE('',*,*,#166,.F.);
#332=EDGE_LOOP('',(#328,#329,#330,#331));
#333=FACE_OUTER_BOUND('',#332,.T.);
#334=CARTESIAN_POINT('',(-28.0,-10.0,8.0));
#335=DIRECTION('',(0.7071067812,0.7071067812,0.0));
#336=DIRECTION('',(-0.0,0.0,-1.0));
#337=AXIS2_PLACEMENT_3D('',#334,#335,#336);
#338=PLANE('',#337);
#339=ADVANCED_FACE('n° 394',(#333),#338,.F.);
#340=ORIENTED_EDGE('',*,*,#210,.F.);
#341=ORIENTED_EDGE('',*,*,#46,.F.);
#342=ORIENTED_EDGE('',*,*,#282,.F.);
#343=ORIENTED_EDGE('',*,*,#72,.F.);
#344=EDGE_LOOP('',(#340,#341,#342,#343));
#345=FACE_OUTER_BOUND('',#344,.T.);
#346=CARTESIAN_POINT('',(28.0,10.0,8.0));
#347=DIRECTION('',(-0.7071067812,-0.7071067812,-0.0));
#348=DIRECTION('',(0.0,0.0,-1.0));
#349=AXIS2_PLACEMENT_3D('',#346,#347,#348);
#350=PLANE('',#349);
#351=ADVANCED_FACE('n° 415',(#345),#350,.F.);
#352=ORIENTED_EDGE('',*,*,#217,.F.);
#353=ORIENTED_EDGE('',*,*,#86,.F.);
#354=ORIENTED_EDGE('',*,*,#275,.F.);
#355=ORIENTED_EDGE('',*,*,#126,.F.);
#356=EDGE_LOOP('',(#352,#353,#354,#355));
#357=FACE_OUTER_BOUND('',#356,.T.);
#358=CARTESIAN_POINT('',(-30.0,8.0,8.0));
#359=DIRECTION('',(0.7071067812,-0.7071067812,0.0));
#360=DIRECTION('',(0.0,0.0,-1.0));
#361=AXIS2_PLACEMENT_3D('',#358,#359,#360);
#362=PLANE('',#361);
#363=ADVANCED_FACE('n° 436',(#357),#362,.F.);
#364=CLOSED_SHELL('Sym\X2\00E9\X0\trie1',(
    #55,#95,#135,#175,#233,#291,#303,#315,#327,#339,
    #351,#363));
#365=MANIFOLD_SOLID_BREP('Sym\X2\00E9\X0\trie1',#364);
#366=COLOUR_RGB('',0.79216,0.81961,0.93333);
#367=FILL_AREA_STYLE_COLOUR('',#366);
#368=FILL_AREA_STYLE('',(#367));
#369=SURFACE_STYLE_FILL_AREA(#368);
#370=SURFACE_SIDE_STYLE('',(#369));
#371=SURFACE_STYLE_USAGE(.BOTH.,#370);
#372=PRESENTATION_STYLE_ASSIGNMENT((#371));
#373=STYLED_ITEM('',(#372),#365);
#374=CARTESIAN_POINT('',(0.0,0.0,0.0));
#375=DIRECTION('',(0.0,0.0,1.0));
#376=DIRECTION('',(1.0,0.0,0.0));
#377=AXIS2_PLACEMENT_3D('',#374,#375,#376);
#378=PLANE('Plan de face',#377);
#379=CARTESIAN_POINT('',(0.0,0.0,0.0));
#380=DIRECTION('',(0.0,1.0,0.0));
#381=DIRECTION('',(1.0,0.0,0.0));
#382=AXIS2_PLACEMENT_3D('',#379,#380,#381);
#383=PLANE('Plan de dessus',#382);
#384=CARTESIAN_POINT('',(0.0,0.0,0.0));
#385=DIRECTION('',(1.0,0.0,0.0));
#386=DIRECTION('',(0.0,0.0,-1.0));
#387=AXIS2_PLACEMENT_3D('',#384,#385,#386);
#388=PLANE('Plan de droite',#387);
#389=CARTESIAN_POINT('',(0.,0.,0.));
#390=DIRECTION('',(0.,0.,1.));
#391=DIRECTION('',(1.,0.,0.));
#392=AXIS2_PLACEMENT_3D('Reference Axes',#389,#390,#391);
#393=ADVANCED_BREP_SHAPE_REPRESENTATION('',(#392,#365),#5);
#394=SHAPE_DEFINITION_REPRESENTATION(#12,#393);
#395=CONSTRUCTIVE_GEOMETRY_REPRESENTATION('supplemental geometry',(#378,#383,#388),#5);
#396=CONSTRUCTIVE_GEOMETRY_REPRESENTATION_RELATIONSHIP('supplemental geometry','',#393,#395);
#397=MECHANICAL_DESIGN_GEOMETRIC_PRESENTATION_REPRESENTATION('',(#373),#5);
ENDSEC;
END-ISO-10303-21;
