ISO-10303-21;
HEADER;
/* Generated by software containing ST-Developer
 * from STEP Tools, Inc. (www.steptools.com) 
 */

FILE_DESCRIPTION(
/* description */ (''),
/* implementation_level */ '2;1');

FILE_NAME(
/* name */ 
'//192.168.0.6/homes/Benoit DAMBROSIO/Redirected Folders/Desktop/Entre
toise WB EK v1.0 v10.step',
/* time_stamp */ '2022-06-09T10:17:10+02:00',
/* author */ (''),
/* organization */ (''),
/* preprocessor_version */ 'ST-DEVELOPER v19',
/* originating_system */ 'Autodesk Translation Framework v11.7.0.108',
/* authorisation */ '');

FILE_SCHEMA (('AUTOMOTIVE_DESIGN { 1 0 10303 214 3 1 1 }'));
ENDSEC;

DATA;
#10=MECHANICAL_DESIGN_GEOMETRIC_PRESENTATION_REPRESENTATION('',(#13),#220);
#11=SHAPE_REPRESENTATION_RELATIONSHIP('SRR','None',#227,#12);
#12=ADVANCED_BREP_SHAPE_REPRESENTATION('',(#14),#219);
#13=STYLED_ITEM('',(#236),#14);
#14=MANIFOLD_SOLID_BREP('Corps1',#118);
#15=FACE_BOUND('',#35,.T.);
#16=FACE_BOUND('',#38,.T.);
#17=FACE_BOUND('',#42,.T.);
#18=PLANE('',#137);
#19=PLANE('',#142);
#20=PLANE('',#147);
#21=CYLINDRICAL_SURFACE('',#135,3.5);
#22=CYLINDRICAL_SURFACE('',#143,1.7);
#23=CYLINDRICAL_SURFACE('',#145,1.1);
#24=FACE_OUTER_BOUND('',#32,.T.);
#25=FACE_OUTER_BOUND('',#33,.T.);
#26=FACE_OUTER_BOUND('',#34,.T.);
#27=FACE_OUTER_BOUND('',#36,.T.);
#28=FACE_OUTER_BOUND('',#37,.T.);
#29=FACE_OUTER_BOUND('',#39,.T.);
#30=FACE_OUTER_BOUND('',#40,.T.);
#31=FACE_OUTER_BOUND('',#41,.T.);
#32=EDGE_LOOP('',(#82,#83,#84,#85));
#33=EDGE_LOOP('',(#86,#87,#88,#89));
#34=EDGE_LOOP('',(#90));
#35=EDGE_LOOP('',(#91));
#36=EDGE_LOOP('',(#92,#93,#94,#95));
#37=EDGE_LOOP('',(#96));
#38=EDGE_LOOP('',(#97));
#39=EDGE_LOOP('',(#98,#99,#100,#101));
#40=EDGE_LOOP('',(#102,#103,#104,#105));
#41=EDGE_LOOP('',(#106));
#42=EDGE_LOOP('',(#107));
#43=LINE('',#192,#48);
#44=LINE('',#196,#49);
#45=LINE('',#205,#50);
#46=LINE('',#210,#51);
#47=LINE('',#214,#52);
#48=VECTOR('',#154,3.15);
#49=VECTOR('',#159,3.5);
#50=VECTOR('',#170,1.8);
#51=VECTOR('',#177,1.7);
#52=VECTOR('',#182,1.1);
#53=CIRCLE('',#133,2.8);
#54=CIRCLE('',#134,3.5);
#55=CIRCLE('',#136,3.5);
#56=CIRCLE('',#138,1.1);
#57=CIRCLE('',#140,1.9);
#58=CIRCLE('',#141,1.7);
#59=CIRCLE('',#144,1.7);
#60=CIRCLE('',#146,1.1);
#61=VERTEX_POINT('',#189);
#62=VERTEX_POINT('',#191);
#63=VERTEX_POINT('',#195);
#64=VERTEX_POINT('',#199);
#65=VERTEX_POINT('',#202);
#66=VERTEX_POINT('',#204);
#67=VERTEX_POINT('',#209);
#68=VERTEX_POINT('',#213);
#69=EDGE_CURVE('',#61,#61,#53,.T.);
#70=EDGE_CURVE('',#61,#62,#43,.T.);
#71=EDGE_CURVE('',#62,#62,#54,.T.);
#72=EDGE_CURVE('',#62,#63,#44,.T.);
#73=EDGE_CURVE('',#63,#63,#55,.T.);
#74=EDGE_CURVE('',#64,#64,#56,.T.);
#75=EDGE_CURVE('',#65,#65,#57,.T.);
#76=EDGE_CURVE('',#65,#66,#45,.T.);
#77=EDGE_CURVE('',#66,#66,#58,.T.);
#78=EDGE_CURVE('',#66,#67,#46,.T.);
#79=EDGE_CURVE('',#67,#67,#59,.T.);
#80=EDGE_CURVE('',#64,#68,#47,.T.);
#81=EDGE_CURVE('',#68,#68,#60,.T.);
#82=ORIENTED_EDGE('',*,*,#69,.T.);
#83=ORIENTED_EDGE('',*,*,#70,.T.);
#84=ORIENTED_EDGE('',*,*,#71,.T.);
#85=ORIENTED_EDGE('',*,*,#70,.F.);
#86=ORIENTED_EDGE('',*,*,#71,.F.);
#87=ORIENTED_EDGE('',*,*,#72,.T.);
#88=ORIENTED_EDGE('',*,*,#73,.T.);
#89=ORIENTED_EDGE('',*,*,#72,.F.);
#90=ORIENTED_EDGE('',*,*,#69,.F.);
#91=ORIENTED_EDGE('',*,*,#74,.T.);
#92=ORIENTED_EDGE('',*,*,#75,.T.);
#93=ORIENTED_EDGE('',*,*,#76,.T.);
#94=ORIENTED_EDGE('',*,*,#77,.T.);
#95=ORIENTED_EDGE('',*,*,#76,.F.);
#96=ORIENTED_EDGE('',*,*,#73,.F.);
#97=ORIENTED_EDGE('',*,*,#75,.F.);
#98=ORIENTED_EDGE('',*,*,#77,.F.);
#99=ORIENTED_EDGE('',*,*,#78,.T.);
#100=ORIENTED_EDGE('',*,*,#79,.T.);
#101=ORIENTED_EDGE('',*,*,#78,.F.);
#102=ORIENTED_EDGE('',*,*,#74,.F.);
#103=ORIENTED_EDGE('',*,*,#80,.T.);
#104=ORIENTED_EDGE('',*,*,#81,.F.);
#105=ORIENTED_EDGE('',*,*,#80,.F.);
#106=ORIENTED_EDGE('',*,*,#79,.F.);
#107=ORIENTED_EDGE('',*,*,#81,.T.);
#108=CONICAL_SURFACE('',#132,3.15,0.785398163397448);
#109=CONICAL_SURFACE('',#139,1.8,0.785398163397448);
#110=ADVANCED_FACE('',(#24),#108,.T.);
#111=ADVANCED_FACE('',(#25),#21,.T.);
#112=ADVANCED_FACE('',(#26,#15),#18,.T.);
#113=ADVANCED_FACE('',(#27),#109,.T.);
#114=ADVANCED_FACE('',(#28,#16),#19,.F.);
#115=ADVANCED_FACE('',(#29),#22,.T.);
#116=ADVANCED_FACE('',(#30),#23,.F.);
#117=ADVANCED_FACE('',(#31,#17),#20,.F.);
#118=CLOSED_SHELL('',(#110,#111,#112,#113,#114,#115,#116,#117));
#119=DERIVED_UNIT_ELEMENT(#121,1.);
#120=DERIVED_UNIT_ELEMENT(#222,-3.);
#121=(
MASS_UNIT()
NAMED_UNIT(*)
SI_UNIT(.KILO.,.GRAM.)
);
#122=DERIVED_UNIT((#119,#120));
#123=MEASURE_REPRESENTATION_ITEM('density measure',
POSITIVE_RATIO_MEASURE(7850.),#122);
#124=PROPERTY_DEFINITION_REPRESENTATION(#129,#126);
#125=PROPERTY_DEFINITION_REPRESENTATION(#130,#127);
#126=REPRESENTATION('material name',(#128),#219);
#127=REPRESENTATION('density',(#123),#219);
#128=DESCRIPTIVE_REPRESENTATION_ITEM('Acier','Acier');
#129=PROPERTY_DEFINITION('material property','material name',#229);
#130=PROPERTY_DEFINITION('material property','density of part',#229);
#131=AXIS2_PLACEMENT_3D('placement',#187,#148,#149);
#132=AXIS2_PLACEMENT_3D('',#188,#150,#151);
#133=AXIS2_PLACEMENT_3D('',#190,#152,#153);
#134=AXIS2_PLACEMENT_3D('',#193,#155,#156);
#135=AXIS2_PLACEMENT_3D('',#194,#157,#158);
#136=AXIS2_PLACEMENT_3D('',#197,#160,#161);
#137=AXIS2_PLACEMENT_3D('',#198,#162,#163);
#138=AXIS2_PLACEMENT_3D('',#200,#164,#165);
#139=AXIS2_PLACEMENT_3D('',#201,#166,#167);
#140=AXIS2_PLACEMENT_3D('',#203,#168,#169);
#141=AXIS2_PLACEMENT_3D('',#206,#171,#172);
#142=AXIS2_PLACEMENT_3D('',#207,#173,#174);
#143=AXIS2_PLACEMENT_3D('',#208,#175,#176);
#144=AXIS2_PLACEMENT_3D('',#211,#178,#179);
#145=AXIS2_PLACEMENT_3D('',#212,#180,#181);
#146=AXIS2_PLACEMENT_3D('',#215,#183,#184);
#147=AXIS2_PLACEMENT_3D('',#216,#185,#186);
#148=DIRECTION('axis',(0.,0.,1.));
#149=DIRECTION('refdir',(1.,0.,0.));
#150=DIRECTION('center_axis',(-1.,0.,0.));
#151=DIRECTION('ref_axis',(0.,1.,0.));
#152=DIRECTION('center_axis',(-1.,0.,0.));
#153=DIRECTION('ref_axis',(0.,1.,0.));
#154=DIRECTION('',(-0.707106781186548,-0.707106781186547,-8.65956056235493E-17));
#155=DIRECTION('center_axis',(1.,0.,0.));
#156=DIRECTION('ref_axis',(0.,1.,0.));
#157=DIRECTION('center_axis',(1.,0.,0.));
#158=DIRECTION('ref_axis',(0.,1.,0.));
#159=DIRECTION('',(-1.,0.,0.));
#160=DIRECTION('center_axis',(1.,0.,0.));
#161=DIRECTION('ref_axis',(0.,1.,0.));
#162=DIRECTION('center_axis',(1.,0.,0.));
#163=DIRECTION('ref_axis',(0.,1.,0.));
#164=DIRECTION('center_axis',(-1.,0.,0.));
#165=DIRECTION('ref_axis',(0.,1.,0.));
#166=DIRECTION('center_axis',(1.,0.,0.));
#167=DIRECTION('ref_axis',(0.,1.,0.));
#168=DIRECTION('center_axis',(-1.,0.,0.));
#169=DIRECTION('ref_axis',(0.,1.,0.));
#170=DIRECTION('',(-0.707106781186547,0.707106781186547,8.65956056235493E-17));
#171=DIRECTION('center_axis',(1.,0.,0.));
#172=DIRECTION('ref_axis',(0.,1.,0.));
#173=DIRECTION('center_axis',(1.,0.,0.));
#174=DIRECTION('ref_axis',(0.,1.,0.));
#175=DIRECTION('center_axis',(1.,0.,0.));
#176=DIRECTION('ref_axis',(0.,1.,0.));
#177=DIRECTION('',(-1.,0.,0.));
#178=DIRECTION('center_axis',(1.,0.,0.));
#179=DIRECTION('ref_axis',(0.,1.,0.));
#180=DIRECTION('center_axis',(-1.,0.,0.));
#181=DIRECTION('ref_axis',(0.,1.,0.));
#182=DIRECTION('',(-1.,0.,0.));
#183=DIRECTION('center_axis',(1.,0.,0.));
#184=DIRECTION('ref_axis',(0.,1.,0.));
#185=DIRECTION('center_axis',(1.,0.,0.));
#186=DIRECTION('ref_axis',(0.,1.,0.));
#187=CARTESIAN_POINT('',(0.,0.,0.));
#188=CARTESIAN_POINT('Origin',(6.75,-25.,0.));
#189=CARTESIAN_POINT('',(7.1,-27.8,3.42901103761259E-16));
#190=CARTESIAN_POINT('Origin',(7.1,-25.,0.));
#191=CARTESIAN_POINT('',(6.4,-28.5,-4.28626379701574E-16));
#192=CARTESIAN_POINT('',(6.75,-28.15,-3.85763741731416E-16));
#193=CARTESIAN_POINT('Origin',(6.4,-25.,0.));
#194=CARTESIAN_POINT('Origin',(6.,-25.,0.));
#195=CARTESIAN_POINT('',(6.,-28.5,-4.28626379701574E-16));
#196=CARTESIAN_POINT('',(6.,-28.5,-4.28626379701574E-16));
#197=CARTESIAN_POINT('Origin',(6.,-25.,0.));
#198=CARTESIAN_POINT('Origin',(7.1,-25.,0.));
#199=CARTESIAN_POINT('',(7.1,-26.1,-1.34711147906209E-16));
#200=CARTESIAN_POINT('Origin',(7.1,-25.,0.));
#201=CARTESIAN_POINT('Origin',(5.9,-25.,0.));
#202=CARTESIAN_POINT('',(6.,-26.9,2.32682891837997E-16));
#203=CARTESIAN_POINT('Origin',(6.,-25.,0.));
#204=CARTESIAN_POINT('',(5.8,-26.7,-2.0818995585505E-16));
#205=CARTESIAN_POINT('',(5.9,-26.8,-2.20436423846523E-16));
#206=CARTESIAN_POINT('Origin',(5.8,-25.,0.));
#207=CARTESIAN_POINT('Origin',(6.,-25.,0.));
#208=CARTESIAN_POINT('Origin',(0.,-25.,0.));
#209=CARTESIAN_POINT('',(0.,-26.7,-2.0818995585505E-16));
#210=CARTESIAN_POINT('',(0.,-26.7,-2.0818995585505E-16));
#211=CARTESIAN_POINT('Origin',(0.,-25.,0.));
#212=CARTESIAN_POINT('Origin',(1.,-25.,0.));
#213=CARTESIAN_POINT('',(0.,-26.1,-1.34711147906209E-16));
#214=CARTESIAN_POINT('',(1.,-26.1,1.34711147906209E-16));
#215=CARTESIAN_POINT('Origin',(0.,-25.,0.));
#216=CARTESIAN_POINT('Origin',(0.,-25.,0.));
#217=UNCERTAINTY_MEASURE_WITH_UNIT(LENGTH_MEASURE(0.01),#221,
'DISTANCE_ACCURACY_VALUE',
'Maximum model space distance between geometric entities at asserted c
onnectivities');
#218=UNCERTAINTY_MEASURE_WITH_UNIT(LENGTH_MEASURE(0.01),#221,
'DISTANCE_ACCURACY_VALUE',
'Maximum model space distance between geometric entities at asserted c
onnectivities');
#219=(
GEOMETRIC_REPRESENTATION_CONTEXT(3)
GLOBAL_UNCERTAINTY_ASSIGNED_CONTEXT((#217))
GLOBAL_UNIT_ASSIGNED_CONTEXT((#221,#223,#224))
REPRESENTATION_CONTEXT('','3D')
);
#220=(
GEOMETRIC_REPRESENTATION_CONTEXT(3)
GLOBAL_UNCERTAINTY_ASSIGNED_CONTEXT((#218))
GLOBAL_UNIT_ASSIGNED_CONTEXT((#221,#223,#224))
REPRESENTATION_CONTEXT('','3D')
);
#221=(
LENGTH_UNIT()
NAMED_UNIT(*)
SI_UNIT(.MILLI.,.METRE.)
);
#222=(
LENGTH_UNIT()
NAMED_UNIT(*)
SI_UNIT($,.METRE.)
);
#223=(
NAMED_UNIT(*)
PLANE_ANGLE_UNIT()
SI_UNIT($,.RADIAN.)
);
#224=(
NAMED_UNIT(*)
SI_UNIT($,.STERADIAN.)
SOLID_ANGLE_UNIT()
);
#225=SHAPE_DEFINITION_REPRESENTATION(#226,#227);
#226=PRODUCT_DEFINITION_SHAPE('',$,#229);
#227=SHAPE_REPRESENTATION('',(#131),#219);
#228=PRODUCT_DEFINITION_CONTEXT('part definition',#233,'design');
#229=PRODUCT_DEFINITION('Entretoise WB EK v1.0',
'Entretoise WB EK v1.0 v10',#230,#228);
#230=PRODUCT_DEFINITION_FORMATION('',$,#235);
#231=PRODUCT_RELATED_PRODUCT_CATEGORY('Entretoise WB EK v1.0 v10',
'Entretoise WB EK v1.0 v10',(#235));
#232=APPLICATION_PROTOCOL_DEFINITION('international standard',
'automotive_design',2009,#233);
#233=APPLICATION_CONTEXT(
'Core Data for Automotive Mechanical Design Process');
#234=PRODUCT_CONTEXT('part definition',#233,'mechanical');
#235=PRODUCT('Entretoise WB EK v1.0','Entretoise WB EK v1.0 v10',$,(#234));
#236=PRESENTATION_STYLE_ASSIGNMENT((#237));
#237=SURFACE_STYLE_USAGE(.BOTH.,#238);
#238=SURFACE_SIDE_STYLE('',(#239));
#239=SURFACE_STYLE_FILL_AREA(#240);
#240=FILL_AREA_STYLE('Acier - Satin\X\E9',(#241));
#241=FILL_AREA_STYLE_COLOUR('Acier - Satin\X\E9',#242);
#242=COLOUR_RGB('Acier - Satin\X\E9',0.627450980392157,0.627450980392157,
0.627450980392157);
ENDSEC;
END-ISO-10303-21;
