ISO-10303-21;
HEADER;
/* Generated by software containing ST-Developer
 * from STEP Tools, Inc. (www.steptools.com) 
 */

FILE_DESCRIPTION(
/* description */ (''),
/* implementation_level */ '2;1');

FILE_NAME(
/* name */ 
'/Users/Mathis/Desktop/Robotique/M\X\E9canique/Plans pour usinage/Arbr
e_Roue.step',
/* time_stamp */ '2022-06-18T23:11:53+02:00',
/* author */ (''),
/* organization */ (''),
/* preprocessor_version */ 'ST-DEVELOPER v19',
/* originating_system */ 'Autodesk Translation Framework v11.7.0.108',
/* authorisation */ '');

FILE_SCHEMA (('AUTOMOTIVE_DESIGN { 1 0 10303 214 3 1 1 }'));
ENDSEC;

DATA;
#10=MECHANICAL_DESIGN_GEOMETRIC_PRESENTATION_REPRESENTATION('',(#13),#572);
#11=SHAPE_REPRESENTATION_RELATIONSHIP('SRR','None',#579,#12);
#12=ADVANCED_BREP_SHAPE_REPRESENTATION('',(#14),#571);
#13=STYLED_ITEM('',(#588),#14);
#14=MANIFOLD_SOLID_BREP('Body1',#317);
#15=FACE_BOUND('',#60,.T.);
#16=FACE_BOUND('',#63,.T.);
#17=FACE_BOUND('',#72,.T.);
#18=FACE_BOUND('',#76,.T.);
#19=FACE_BOUND('',#78,.T.);
#20=FACE_BOUND('',#80,.T.);
#21=FACE_BOUND('',#83,.T.);
#22=FACE_BOUND('',#85,.T.);
#23=CYLINDRICAL_SURFACE('',#337,3.);
#24=CYLINDRICAL_SURFACE('',#341,2.85);
#25=CYLINDRICAL_SURFACE('',#357,3.);
#26=CYLINDRICAL_SURFACE('',#361,2.85);
#27=CYLINDRICAL_SURFACE('',#366,3.);
#28=CYLINDRICAL_SURFACE('',#370,2.85);
#29=CYLINDRICAL_SURFACE('',#374,3.);
#30=CONICAL_SURFACE('',#335,1.,0.785398163397);
#31=CONICAL_SURFACE('',#354,1.,0.785398163398);
#32=FACE_OUTER_BOUND('',#55,.T.);
#33=FACE_OUTER_BOUND('',#56,.T.);
#34=FACE_OUTER_BOUND('',#57,.T.);
#35=FACE_OUTER_BOUND('',#58,.T.);
#36=FACE_OUTER_BOUND('',#59,.T.);
#37=FACE_OUTER_BOUND('',#61,.T.);
#38=FACE_OUTER_BOUND('',#62,.T.);
#39=FACE_OUTER_BOUND('',#64,.T.);
#40=FACE_OUTER_BOUND('',#65,.T.);
#41=FACE_OUTER_BOUND('',#66,.T.);
#42=FACE_OUTER_BOUND('',#67,.T.);
#43=FACE_OUTER_BOUND('',#68,.T.);
#44=FACE_OUTER_BOUND('',#69,.T.);
#45=FACE_OUTER_BOUND('',#70,.T.);
#46=FACE_OUTER_BOUND('',#71,.T.);
#47=FACE_OUTER_BOUND('',#73,.T.);
#48=FACE_OUTER_BOUND('',#74,.T.);
#49=FACE_OUTER_BOUND('',#75,.T.);
#50=FACE_OUTER_BOUND('',#77,.T.);
#51=FACE_OUTER_BOUND('',#79,.T.);
#52=FACE_OUTER_BOUND('',#81,.T.);
#53=FACE_OUTER_BOUND('',#82,.T.);
#54=FACE_OUTER_BOUND('',#84,.T.);
#55=EDGE_LOOP('',(#204,#205));
#56=EDGE_LOOP('',(#206));
#57=EDGE_LOOP('',(#207,#208,#209,#210));
#58=EDGE_LOOP('',(#211,#212,#213,#214));
#59=EDGE_LOOP('',(#215));
#60=EDGE_LOOP('',(#216));
#61=EDGE_LOOP('',(#217,#218,#219,#220));
#62=EDGE_LOOP('',(#221));
#63=EDGE_LOOP('',(#222));
#64=EDGE_LOOP('',(#223,#224,#225,#226));
#65=EDGE_LOOP('',(#227,#228));
#66=EDGE_LOOP('',(#229,#230));
#67=EDGE_LOOP('',(#231,#232));
#68=EDGE_LOOP('',(#233));
#69=EDGE_LOOP('',(#234,#235,#236,#237,#238));
#70=EDGE_LOOP('',(#239,#240,#241,#242,#243));
#71=EDGE_LOOP('',(#244));
#72=EDGE_LOOP('',(#245));
#73=EDGE_LOOP('',(#246,#247,#248,#249));
#74=EDGE_LOOP('',(#250,#251,#252,#253));
#75=EDGE_LOOP('',(#254));
#76=EDGE_LOOP('',(#255));
#77=EDGE_LOOP('',(#256,#257,#258,#259));
#78=EDGE_LOOP('',(#260,#261,#262,#263));
#79=EDGE_LOOP('',(#264));
#80=EDGE_LOOP('',(#265));
#81=EDGE_LOOP('',(#266,#267,#268,#269));
#82=EDGE_LOOP('',(#270));
#83=EDGE_LOOP('',(#271));
#84=EDGE_LOOP('',(#272,#273,#274,#275));
#85=EDGE_LOOP('',(#276,#277,#278,#279));
#86=LINE('',#487,#103);
#87=LINE('',#494,#104);
#88=LINE('',#497,#105);
#89=LINE('',#504,#106);
#90=LINE('',#511,#107);
#91=LINE('',#513,#108);
#92=LINE('',#514,#109);
#93=LINE('',#521,#110);
#94=LINE('',#525,#111);
#95=LINE('',#534,#112);
#96=LINE('',#539,#113);
#97=LINE('',#546,#114);
#98=LINE('',#548,#115);
#99=LINE('',#549,#116);
#100=LINE('',#556,#117);
#101=LINE('',#563,#118);
#102=LINE('',#568,#119);
#103=VECTOR('',#381,1.);
#104=VECTOR('',#390,1.);
#105=VECTOR('',#393,3.);
#106=VECTOR('',#402,2.85);
#107=VECTOR('',#411,1.);
#108=VECTOR('',#412,1.);
#109=VECTOR('',#413,1.);
#110=VECTOR('',#422,1.);
#111=VECTOR('',#425,1.);
#112=VECTOR('',#436,1.);
#113=VECTOR('',#443,3.);
#114=VECTOR('',#452,2.85);
#115=VECTOR('',#455,1.);
#116=VECTOR('',#456,1.);
#117=VECTOR('',#465,3.);
#118=VECTOR('',#474,2.85);
#119=VECTOR('',#481,3.);
#120=CIRCLE('',#332,3.);
#121=CIRCLE('',#334,2.);
#122=CIRCLE('',#336,3.);
#123=CIRCLE('',#338,3.);
#124=CIRCLE('',#340,2.85);
#125=CIRCLE('',#342,2.85);
#126=CIRCLE('',#344,3.);
#127=CIRCLE('',#347,3.);
#128=CIRCLE('',#349,3.);
#129=CIRCLE('',#351,3.);
#130=CIRCLE('',#353,2.);
#131=CIRCLE('',#355,3.);
#132=CIRCLE('',#356,3.);
#133=CIRCLE('',#358,3.);
#134=CIRCLE('',#360,2.85);
#135=CIRCLE('',#362,2.85);
#136=CIRCLE('',#365,3.);
#137=CIRCLE('',#367,3.);
#138=CIRCLE('',#369,2.85);
#139=CIRCLE('',#371,2.85);
#140=CIRCLE('',#373,3.);
#141=VERTEX_POINT('',#484);
#142=VERTEX_POINT('',#485);
#143=VERTEX_POINT('',#489);
#144=VERTEX_POINT('',#492);
#145=VERTEX_POINT('',#496);
#146=VERTEX_POINT('',#500);
#147=VERTEX_POINT('',#503);
#148=VERTEX_POINT('',#507);
#149=VERTEX_POINT('',#510);
#150=VERTEX_POINT('',#512);
#151=VERTEX_POINT('',#518);
#152=VERTEX_POINT('',#519);
#153=VERTEX_POINT('',#523);
#154=VERTEX_POINT('',#524);
#155=VERTEX_POINT('',#528);
#156=VERTEX_POINT('',#531);
#157=VERTEX_POINT('',#532);
#158=VERTEX_POINT('',#537);
#159=VERTEX_POINT('',#541);
#160=VERTEX_POINT('',#544);
#161=VERTEX_POINT('',#551);
#162=VERTEX_POINT('',#554);
#163=VERTEX_POINT('',#558);
#164=VERTEX_POINT('',#561);
#165=VERTEX_POINT('',#565);
#166=EDGE_CURVE('',#141,#142,#120,.T.);
#167=EDGE_CURVE('',#141,#142,#86,.T.);
#168=EDGE_CURVE('',#143,#143,#121,.T.);
#169=EDGE_CURVE('',#144,#144,#122,.T.);
#170=EDGE_CURVE('',#144,#143,#87,.T.);
#171=EDGE_CURVE('',#144,#145,#88,.T.);
#172=EDGE_CURVE('',#145,#145,#123,.T.);
#173=EDGE_CURVE('',#146,#146,#124,.T.);
#174=EDGE_CURVE('',#146,#147,#89,.T.);
#175=EDGE_CURVE('',#147,#147,#125,.T.);
#176=EDGE_CURVE('',#148,#148,#126,.T.);
#177=EDGE_CURVE('',#142,#149,#90,.F.);
#178=EDGE_CURVE('',#150,#149,#91,.T.);
#179=EDGE_CURVE('',#141,#150,#92,.F.);
#180=EDGE_CURVE('',#149,#150,#127,.T.);
#181=EDGE_CURVE('',#151,#152,#128,.F.);
#182=EDGE_CURVE('',#151,#152,#93,.T.);
#183=EDGE_CURVE('',#153,#154,#94,.T.);
#184=EDGE_CURVE('',#154,#153,#129,.T.);
#185=EDGE_CURVE('',#155,#155,#130,.T.);
#186=EDGE_CURVE('',#156,#157,#131,.T.);
#187=EDGE_CURVE('',#156,#155,#95,.T.);
#188=EDGE_CURVE('',#157,#156,#132,.T.);
#189=EDGE_CURVE('',#158,#158,#133,.T.);
#190=EDGE_CURVE('',#158,#157,#96,.T.);
#191=EDGE_CURVE('',#159,#159,#134,.T.);
#192=EDGE_CURVE('',#160,#160,#135,.T.);
#193=EDGE_CURVE('',#160,#159,#97,.T.);
#194=EDGE_CURVE('',#152,#154,#98,.F.);
#195=EDGE_CURVE('',#151,#153,#99,.F.);
#196=EDGE_CURVE('',#161,#161,#136,.T.);
#197=EDGE_CURVE('',#162,#162,#137,.T.);
#198=EDGE_CURVE('',#162,#161,#100,.T.);
#199=EDGE_CURVE('',#163,#163,#138,.T.);
#200=EDGE_CURVE('',#164,#164,#139,.T.);
#201=EDGE_CURVE('',#164,#163,#101,.T.);
#202=EDGE_CURVE('',#165,#165,#140,.T.);
#203=EDGE_CURVE('',#148,#165,#102,.T.);
#204=ORIENTED_EDGE('',*,*,#166,.T.);
#205=ORIENTED_EDGE('',*,*,#167,.F.);
#206=ORIENTED_EDGE('',*,*,#168,.T.);
#207=ORIENTED_EDGE('',*,*,#169,.T.);
#208=ORIENTED_EDGE('',*,*,#170,.T.);
#209=ORIENTED_EDGE('',*,*,#168,.F.);
#210=ORIENTED_EDGE('',*,*,#170,.F.);
#211=ORIENTED_EDGE('',*,*,#169,.F.);
#212=ORIENTED_EDGE('',*,*,#171,.T.);
#213=ORIENTED_EDGE('',*,*,#172,.T.);
#214=ORIENTED_EDGE('',*,*,#171,.F.);
#215=ORIENTED_EDGE('',*,*,#172,.F.);
#216=ORIENTED_EDGE('',*,*,#173,.T.);
#217=ORIENTED_EDGE('',*,*,#173,.F.);
#218=ORIENTED_EDGE('',*,*,#174,.T.);
#219=ORIENTED_EDGE('',*,*,#175,.T.);
#220=ORIENTED_EDGE('',*,*,#174,.F.);
#221=ORIENTED_EDGE('',*,*,#176,.T.);
#222=ORIENTED_EDGE('',*,*,#175,.F.);
#223=ORIENTED_EDGE('',*,*,#177,.T.);
#224=ORIENTED_EDGE('',*,*,#178,.F.);
#225=ORIENTED_EDGE('',*,*,#179,.F.);
#226=ORIENTED_EDGE('',*,*,#167,.T.);
#227=ORIENTED_EDGE('',*,*,#178,.T.);
#228=ORIENTED_EDGE('',*,*,#180,.T.);
#229=ORIENTED_EDGE('',*,*,#181,.T.);
#230=ORIENTED_EDGE('',*,*,#182,.F.);
#231=ORIENTED_EDGE('',*,*,#183,.T.);
#232=ORIENTED_EDGE('',*,*,#184,.T.);
#233=ORIENTED_EDGE('',*,*,#185,.F.);
#234=ORIENTED_EDGE('',*,*,#186,.F.);
#235=ORIENTED_EDGE('',*,*,#187,.T.);
#236=ORIENTED_EDGE('',*,*,#185,.T.);
#237=ORIENTED_EDGE('',*,*,#187,.F.);
#238=ORIENTED_EDGE('',*,*,#188,.F.);
#239=ORIENTED_EDGE('',*,*,#189,.F.);
#240=ORIENTED_EDGE('',*,*,#190,.T.);
#241=ORIENTED_EDGE('',*,*,#188,.T.);
#242=ORIENTED_EDGE('',*,*,#186,.T.);
#243=ORIENTED_EDGE('',*,*,#190,.F.);
#244=ORIENTED_EDGE('',*,*,#189,.T.);
#245=ORIENTED_EDGE('',*,*,#191,.F.);
#246=ORIENTED_EDGE('',*,*,#192,.F.);
#247=ORIENTED_EDGE('',*,*,#193,.T.);
#248=ORIENTED_EDGE('',*,*,#191,.T.);
#249=ORIENTED_EDGE('',*,*,#193,.F.);
#250=ORIENTED_EDGE('',*,*,#182,.T.);
#251=ORIENTED_EDGE('',*,*,#194,.T.);
#252=ORIENTED_EDGE('',*,*,#183,.F.);
#253=ORIENTED_EDGE('',*,*,#195,.F.);
#254=ORIENTED_EDGE('',*,*,#196,.F.);
#255=ORIENTED_EDGE('',*,*,#192,.T.);
#256=ORIENTED_EDGE('',*,*,#197,.F.);
#257=ORIENTED_EDGE('',*,*,#198,.T.);
#258=ORIENTED_EDGE('',*,*,#196,.T.);
#259=ORIENTED_EDGE('',*,*,#198,.F.);
#260=ORIENTED_EDGE('',*,*,#181,.F.);
#261=ORIENTED_EDGE('',*,*,#195,.T.);
#262=ORIENTED_EDGE('',*,*,#184,.F.);
#263=ORIENTED_EDGE('',*,*,#194,.F.);
#264=ORIENTED_EDGE('',*,*,#197,.T.);
#265=ORIENTED_EDGE('',*,*,#199,.F.);
#266=ORIENTED_EDGE('',*,*,#200,.F.);
#267=ORIENTED_EDGE('',*,*,#201,.T.);
#268=ORIENTED_EDGE('',*,*,#199,.T.);
#269=ORIENTED_EDGE('',*,*,#201,.F.);
#270=ORIENTED_EDGE('',*,*,#202,.F.);
#271=ORIENTED_EDGE('',*,*,#200,.T.);
#272=ORIENTED_EDGE('',*,*,#176,.F.);
#273=ORIENTED_EDGE('',*,*,#203,.T.);
#274=ORIENTED_EDGE('',*,*,#202,.T.);
#275=ORIENTED_EDGE('',*,*,#203,.F.);
#276=ORIENTED_EDGE('',*,*,#179,.T.);
#277=ORIENTED_EDGE('',*,*,#180,.F.);
#278=ORIENTED_EDGE('',*,*,#177,.F.);
#279=ORIENTED_EDGE('',*,*,#166,.F.);
#280=PLANE('',#331);
#281=PLANE('',#333);
#282=PLANE('',#339);
#283=PLANE('',#343);
#284=PLANE('',#345);
#285=PLANE('',#346);
#286=PLANE('',#348);
#287=PLANE('',#350);
#288=PLANE('',#352);
#289=PLANE('',#359);
#290=PLANE('',#363);
#291=PLANE('',#364);
#292=PLANE('',#368);
#293=PLANE('',#372);
#294=ADVANCED_FACE('',(#32),#280,.T.);
#295=ADVANCED_FACE('',(#33),#281,.T.);
#296=ADVANCED_FACE('',(#34),#30,.T.);
#297=ADVANCED_FACE('',(#35),#23,.T.);
#298=ADVANCED_FACE('',(#36,#15),#282,.F.);
#299=ADVANCED_FACE('',(#37),#24,.T.);
#300=ADVANCED_FACE('',(#38,#16),#283,.T.);
#301=ADVANCED_FACE('',(#39),#284,.F.);
#302=ADVANCED_FACE('',(#40),#285,.T.);
#303=ADVANCED_FACE('',(#41),#286,.T.);
#304=ADVANCED_FACE('',(#42),#287,.T.);
#305=ADVANCED_FACE('',(#43),#288,.F.);
#306=ADVANCED_FACE('',(#44),#31,.T.);
#307=ADVANCED_FACE('',(#45),#25,.T.);
#308=ADVANCED_FACE('',(#46,#17),#289,.T.);
#309=ADVANCED_FACE('',(#47),#26,.T.);
#310=ADVANCED_FACE('',(#48),#290,.F.);
#311=ADVANCED_FACE('',(#49,#18),#291,.F.);
#312=ADVANCED_FACE('',(#50,#19),#27,.T.);
#313=ADVANCED_FACE('',(#51,#20),#292,.T.);
#314=ADVANCED_FACE('',(#52),#28,.T.);
#315=ADVANCED_FACE('',(#53,#21),#293,.F.);
#316=ADVANCED_FACE('',(#54,#22),#29,.T.);
#317=CLOSED_SHELL('',(#294,#295,#296,#297,#298,#299,#300,#301,#302,#303,
#304,#305,#306,#307,#308,#309,#310,#311,#312,#313,#314,#315,#316));
#318=DERIVED_UNIT_ELEMENT(#320,1.);
#319=DERIVED_UNIT_ELEMENT(#574,-3.);
#320=(
MASS_UNIT()
NAMED_UNIT(*)
SI_UNIT(.KILO.,.GRAM.)
);
#321=DERIVED_UNIT((#318,#319));
#322=MEASURE_REPRESENTATION_ITEM('density measure',
POSITIVE_RATIO_MEASURE(7850.),#321);
#323=PROPERTY_DEFINITION_REPRESENTATION(#328,#325);
#324=PROPERTY_DEFINITION_REPRESENTATION(#329,#326);
#325=REPRESENTATION('material name',(#327),#571);
#326=REPRESENTATION('density',(#322),#571);
#327=DESCRIPTIVE_REPRESENTATION_ITEM('Steel','Steel');
#328=PROPERTY_DEFINITION('material property','material name',#581);
#329=PROPERTY_DEFINITION('material property','density of part',#581);
#330=AXIS2_PLACEMENT_3D('placement',#482,#375,#376);
#331=AXIS2_PLACEMENT_3D('',#483,#377,#378);
#332=AXIS2_PLACEMENT_3D('',#486,#379,#380);
#333=AXIS2_PLACEMENT_3D('',#488,#382,#383);
#334=AXIS2_PLACEMENT_3D('',#490,#384,#385);
#335=AXIS2_PLACEMENT_3D('',#491,#386,#387);
#336=AXIS2_PLACEMENT_3D('',#493,#388,#389);
#337=AXIS2_PLACEMENT_3D('',#495,#391,#392);
#338=AXIS2_PLACEMENT_3D('',#498,#394,#395);
#339=AXIS2_PLACEMENT_3D('',#499,#396,#397);
#340=AXIS2_PLACEMENT_3D('',#501,#398,#399);
#341=AXIS2_PLACEMENT_3D('',#502,#400,#401);
#342=AXIS2_PLACEMENT_3D('',#505,#403,#404);
#343=AXIS2_PLACEMENT_3D('',#506,#405,#406);
#344=AXIS2_PLACEMENT_3D('',#508,#407,#408);
#345=AXIS2_PLACEMENT_3D('',#509,#409,#410);
#346=AXIS2_PLACEMENT_3D('',#515,#414,#415);
#347=AXIS2_PLACEMENT_3D('',#516,#416,#417);
#348=AXIS2_PLACEMENT_3D('',#517,#418,#419);
#349=AXIS2_PLACEMENT_3D('',#520,#420,#421);
#350=AXIS2_PLACEMENT_3D('',#522,#423,#424);
#351=AXIS2_PLACEMENT_3D('',#526,#426,#427);
#352=AXIS2_PLACEMENT_3D('',#527,#428,#429);
#353=AXIS2_PLACEMENT_3D('',#529,#430,#431);
#354=AXIS2_PLACEMENT_3D('',#530,#432,#433);
#355=AXIS2_PLACEMENT_3D('',#533,#434,#435);
#356=AXIS2_PLACEMENT_3D('',#535,#437,#438);
#357=AXIS2_PLACEMENT_3D('',#536,#439,#440);
#358=AXIS2_PLACEMENT_3D('',#538,#441,#442);
#359=AXIS2_PLACEMENT_3D('',#540,#444,#445);
#360=AXIS2_PLACEMENT_3D('',#542,#446,#447);
#361=AXIS2_PLACEMENT_3D('',#543,#448,#449);
#362=AXIS2_PLACEMENT_3D('',#545,#450,#451);
#363=AXIS2_PLACEMENT_3D('',#547,#453,#454);
#364=AXIS2_PLACEMENT_3D('',#550,#457,#458);
#365=AXIS2_PLACEMENT_3D('',#552,#459,#460);
#366=AXIS2_PLACEMENT_3D('',#553,#461,#462);
#367=AXIS2_PLACEMENT_3D('',#555,#463,#464);
#368=AXIS2_PLACEMENT_3D('',#557,#466,#467);
#369=AXIS2_PLACEMENT_3D('',#559,#468,#469);
#370=AXIS2_PLACEMENT_3D('',#560,#470,#471);
#371=AXIS2_PLACEMENT_3D('',#562,#472,#473);
#372=AXIS2_PLACEMENT_3D('',#564,#475,#476);
#373=AXIS2_PLACEMENT_3D('',#566,#477,#478);
#374=AXIS2_PLACEMENT_3D('',#567,#479,#480);
#375=DIRECTION('axis',(0.,0.,1.));
#376=DIRECTION('refdir',(1.,0.,0.));
#377=DIRECTION('center_axis',(0.,-1.,0.));
#378=DIRECTION('ref_axis',(0.,0.,1.));
#379=DIRECTION('center_axis',(0.,-1.,0.));
#380=DIRECTION('ref_axis',(0.,0.,1.));
#381=DIRECTION('',(-1.,0.,0.));
#382=DIRECTION('center_axis',(0.,1.,0.));
#383=DIRECTION('ref_axis',(-1.,0.,0.));
#384=DIRECTION('center_axis',(0.,1.,0.));
#385=DIRECTION('ref_axis',(0.,0.,-1.));
#386=DIRECTION('center_axis',(3.81916720471E-14,-1.,-1.06803454969E-13));
#387=DIRECTION('ref_axis',(-1.,-3.81916720471E-14,-8.67994189298996E-17));
#388=DIRECTION('center_axis',(2.36847578587E-15,1.,1.06803454969E-13));
#389=DIRECTION('ref_axis',(0.,1.06803454969E-13,-1.));
#390=DIRECTION('',(-0.707106781186258,0.707106781186838,7.5373475199414E-14));
#391=DIRECTION('center_axis',(0.,1.,0.));
#392=DIRECTION('ref_axis',(-1.,0.,0.));
#393=DIRECTION('',(0.,-1.,0.));
#394=DIRECTION('center_axis',(0.,1.,0.));
#395=DIRECTION('ref_axis',(0.,0.,-1.));
#396=DIRECTION('center_axis',(0.,1.,0.));
#397=DIRECTION('ref_axis',(1.,0.,0.));
#398=DIRECTION('center_axis',(0.,1.,0.));
#399=DIRECTION('ref_axis',(0.,0.,-1.));
#400=DIRECTION('center_axis',(0.,1.,0.));
#401=DIRECTION('ref_axis',(0.479425538604204,0.,0.877582561890373));
#402=DIRECTION('',(0.,-1.,0.));
#403=DIRECTION('center_axis',(0.,1.,0.));
#404=DIRECTION('ref_axis',(0.,0.,-1.));
#405=DIRECTION('center_axis',(0.,1.,0.));
#406=DIRECTION('ref_axis',(1.,0.,0.));
#407=DIRECTION('center_axis',(0.,1.,0.));
#408=DIRECTION('ref_axis',(0.,0.,-1.));
#409=DIRECTION('center_axis',(0.,0.,-1.));
#410=DIRECTION('ref_axis',(0.,-1.,0.));
#411=DIRECTION('',(0.,1.,0.));
#412=DIRECTION('',(-1.,0.,0.));
#413=DIRECTION('',(0.,1.,0.));
#414=DIRECTION('center_axis',(0.,1.,0.));
#415=DIRECTION('ref_axis',(0.,0.,-1.));
#416=DIRECTION('center_axis',(0.,1.,0.));
#417=DIRECTION('ref_axis',(0.,0.,-1.));
#418=DIRECTION('center_axis',(0.,-1.,0.));
#419=DIRECTION('ref_axis',(0.,0.,1.));
#420=DIRECTION('center_axis',(0.,1.,0.));
#421=DIRECTION('ref_axis',(0.,0.,-1.));
#422=DIRECTION('',(-1.,0.,0.));
#423=DIRECTION('center_axis',(0.,1.,0.));
#424=DIRECTION('ref_axis',(0.,0.,-1.));
#425=DIRECTION('',(-1.,0.,0.));
#426=DIRECTION('center_axis',(0.,1.,0.));
#427=DIRECTION('ref_axis',(0.,0.,-1.));
#428=DIRECTION('center_axis',(0.,1.,0.));
#429=DIRECTION('ref_axis',(-1.,0.,0.));
#430=DIRECTION('center_axis',(5.19952131158E-16,1.,-2.03494531804E-15));
#431=DIRECTION('ref_axis',(0.,-2.03494531804E-15,-1.));
#432=DIRECTION('center_axis',(-1.27082916922E-13,1.,-3.46389583683E-14));
#433=DIRECTION('ref_axis',(0.968873001652723,1.317023684585E-13,0.247558289435929));
#434=DIRECTION('center_axis',(0.,1.,0.));
#435=DIRECTION('ref_axis',(0.,0.,-1.));
#436=DIRECTION('',(0.685096669577673,-0.707106781186064,0.175050145199209));
#437=DIRECTION('center_axis',(0.,1.,0.));
#438=DIRECTION('ref_axis',(0.,0.,-1.));
#439=DIRECTION('center_axis',(0.,1.,0.));
#440=DIRECTION('ref_axis',(-1.,0.,0.));
#441=DIRECTION('center_axis',(0.,1.,0.));
#442=DIRECTION('ref_axis',(0.,0.,-1.));
#443=DIRECTION('',(0.,-1.,0.));
#444=DIRECTION('center_axis',(0.,1.,0.));
#445=DIRECTION('ref_axis',(1.,0.,0.));
#446=DIRECTION('center_axis',(0.,1.,0.));
#447=DIRECTION('ref_axis',(0.,0.,-1.));
#448=DIRECTION('center_axis',(0.,1.,0.));
#449=DIRECTION('ref_axis',(0.479425538604204,0.,0.877582561890373));
#450=DIRECTION('center_axis',(0.,1.,0.));
#451=DIRECTION('ref_axis',(0.,0.,-1.));
#452=DIRECTION('',(0.,-1.,0.));
#453=DIRECTION('center_axis',(0.,0.,-1.));
#454=DIRECTION('ref_axis',(0.,-1.,0.));
#455=DIRECTION('',(0.,1.,0.));
#456=DIRECTION('',(0.,1.,0.));
#457=DIRECTION('center_axis',(0.,1.,0.));
#458=DIRECTION('ref_axis',(1.,0.,0.));
#459=DIRECTION('center_axis',(0.,1.,0.));
#460=DIRECTION('ref_axis',(0.,0.,-1.));
#461=DIRECTION('center_axis',(0.,1.,0.));
#462=DIRECTION('ref_axis',(-1.,0.,0.));
#463=DIRECTION('center_axis',(0.,1.,0.));
#464=DIRECTION('ref_axis',(0.,0.,-1.));
#465=DIRECTION('',(0.,-1.,0.));
#466=DIRECTION('center_axis',(0.,1.,0.));
#467=DIRECTION('ref_axis',(1.,0.,0.));
#468=DIRECTION('center_axis',(0.,1.,0.));
#469=DIRECTION('ref_axis',(0.,0.,-1.));
#470=DIRECTION('center_axis',(0.,1.,0.));
#471=DIRECTION('ref_axis',(0.479425538604204,0.,0.877582561890373));
#472=DIRECTION('center_axis',(0.,1.,0.));
#473=DIRECTION('ref_axis',(0.,0.,-1.));
#474=DIRECTION('',(0.,-1.,0.));
#475=DIRECTION('center_axis',(0.,1.,0.));
#476=DIRECTION('ref_axis',(1.,0.,0.));
#477=DIRECTION('center_axis',(0.,1.,0.));
#478=DIRECTION('ref_axis',(0.,0.,-1.));
#479=DIRECTION('center_axis',(0.,1.,0.));
#480=DIRECTION('ref_axis',(-1.,0.,0.));
#481=DIRECTION('',(0.,-1.,0.));
#482=CARTESIAN_POINT('',(0.,0.,0.));
#483=CARTESIAN_POINT('Origin',(0.,63.1,2.));
#484=CARTESIAN_POINT('',(2.2360679775,63.1,2.));
#485=CARTESIAN_POINT('',(-2.2360679775,63.1,2.));
#486=CARTESIAN_POINT('Origin',(0.,63.1,4.4408920985E-16));
#487=CARTESIAN_POINT('',(4.4408920985E-16,63.1,2.));
#488=CARTESIAN_POINT('Origin',(0.,68.9,0.));
#489=CARTESIAN_POINT('',(2.,68.9,2.38383926066E-7));
#490=CARTESIAN_POINT('Origin',(-5.37347943919E-14,68.9,-2.77555756156E-15));
#491=CARTESIAN_POINT('Origin',(-7.63833440938658E-14,69.8999999999991,2.14050999147904E-13));
#492=CARTESIAN_POINT('',(3.,67.9,3.67381906147E-16));
#493=CARTESIAN_POINT('Origin',(-4.67005655891E-27,67.9,4.44089209863E-16));
#494=CARTESIAN_POINT('',(0.999999999999924,69.8999999999991,2.14260263246749E-13));
#495=CARTESIAN_POINT('Origin',(0.,39.45,0.));
#496=CARTESIAN_POINT('',(3.,67.4,-3.67394039744206E-16));
#497=CARTESIAN_POINT('',(3.,39.45,-3.67394039744206E-16));
#498=CARTESIAN_POINT('Origin',(0.,67.4,0.));
#499=CARTESIAN_POINT('Origin',(0.,67.4,3.));
#500=CARTESIAN_POINT('',(-1.36636278502,67.4,-2.50111030139));
#501=CARTESIAN_POINT('Origin',(0.,67.4,0.));
#502=CARTESIAN_POINT('Origin',(0.,11.90000000037,0.));
#503=CARTESIAN_POINT('',(-1.36636278502,66.6,-2.50111030139));
#504=CARTESIAN_POINT('',(-1.36636278502198,11.90000000037,-2.50111030138756));
#505=CARTESIAN_POINT('Origin',(0.,66.6,0.));
#506=CARTESIAN_POINT('Origin',(0.,66.6,2.85));
#507=CARTESIAN_POINT('',(3.,66.6,-3.67394039744206E-16));
#508=CARTESIAN_POINT('Origin',(0.,66.6,0.));
#509=CARTESIAN_POINT('Origin',(0.,20.3,2.));
#510=CARTESIAN_POINT('',(-2.2360679775,47.1,2.));
#511=CARTESIAN_POINT('',(-2.2360679775,29.45,2.));
#512=CARTESIAN_POINT('',(2.2360679775,47.1,2.));
#513=CARTESIAN_POINT('',(4.4408920985E-16,47.1,2.));
#514=CARTESIAN_POINT('',(2.2360679775,39.45,2.));
#515=CARTESIAN_POINT('Origin',(0.,47.1,3.));
#516=CARTESIAN_POINT('Origin',(0.,47.1,0.));
#517=CARTESIAN_POINT('Origin',(0.,20.3,2.));
#518=CARTESIAN_POINT('',(2.2360679775,20.3,2.));
#519=CARTESIAN_POINT('',(-2.2360679775,20.3,2.));
#520=CARTESIAN_POINT('Origin',(0.,20.3,0.));
#521=CARTESIAN_POINT('',(4.4408920985E-16,20.3,2.));
#522=CARTESIAN_POINT('Origin',(0.,10.3,3.));
#523=CARTESIAN_POINT('',(2.2360679775,10.3,2.));
#524=CARTESIAN_POINT('',(-2.2360679775,10.3,2.));
#525=CARTESIAN_POINT('',(0.,10.3,2.));
#526=CARTESIAN_POINT('Origin',(0.,10.3,0.));
#527=CARTESIAN_POINT('Origin',(0.,0.,0.));
#528=CARTESIAN_POINT('',(-1.9377460033061,-1.66006097757077E-12,-0.495116578872026));
#529=CARTESIAN_POINT('Origin',(1.2748865248E-13,-2.9709568139E-13,3.28626015289E-14));
#530=CARTESIAN_POINT('Origin',(2.5457156940214E-13,-1.0000000000011,6.75015598977382E-14));
#531=CARTESIAN_POINT('',(-2.90661900495998,0.999999999998167,-0.742674868308252));
#532=CARTESIAN_POINT('',(3.,1.,-3.67394039744206E-16));
#533=CARTESIAN_POINT('Origin',(0.,1.,0.));
#534=CARTESIAN_POINT('',(-0.968873001652468,-1.00000000000124,-0.247558289435862));
#535=CARTESIAN_POINT('Origin',(0.,1.,0.));
#536=CARTESIAN_POINT('Origin',(0.,29.45,0.));
#537=CARTESIAN_POINT('',(3.,1.5,-3.67394039744206E-16));
#538=CARTESIAN_POINT('Origin',(0.,1.5,0.));
#539=CARTESIAN_POINT('',(3.,29.45,-3.67394039744206E-16));
#540=CARTESIAN_POINT('Origin',(0.,1.5,3.));
#541=CARTESIAN_POINT('',(-1.36636278502198,1.5,-2.50111030138756));
#542=CARTESIAN_POINT('Origin',(0.,1.5,0.));
#543=CARTESIAN_POINT('Origin',(0.,1.90000000037,0.));
#544=CARTESIAN_POINT('',(-1.36636278502198,2.3,-2.50111030138756));
#545=CARTESIAN_POINT('Origin',(0.,2.3,0.));
#546=CARTESIAN_POINT('',(-1.36636278502198,1.90000000037,-2.50111030138756));
#547=CARTESIAN_POINT('Origin',(0.,20.3,2.));
#548=CARTESIAN_POINT('',(-2.2360679775,29.45,2.));
#549=CARTESIAN_POINT('',(2.2360679775,29.45,2.));
#550=CARTESIAN_POINT('Origin',(0.,2.3,2.85));
#551=CARTESIAN_POINT('',(3.,2.3,-3.67394039744206E-16));
#552=CARTESIAN_POINT('Origin',(0.,2.3,0.));
#553=CARTESIAN_POINT('Origin',(0.,29.45,0.));
#554=CARTESIAN_POINT('',(3.,44.3,-3.67394039744206E-16));
#555=CARTESIAN_POINT('Origin',(0.,44.3,0.));
#556=CARTESIAN_POINT('',(3.,29.45,-3.67394039744206E-16));
#557=CARTESIAN_POINT('Origin',(0.,44.3,3.));
#558=CARTESIAN_POINT('',(-1.36636278502198,44.3,-2.50111030138756));
#559=CARTESIAN_POINT('Origin',(0.,44.3,0.));
#560=CARTESIAN_POINT('Origin',(0.,1.90000000037,0.));
#561=CARTESIAN_POINT('',(-1.36636278502198,45.1,-2.50111030138756));
#562=CARTESIAN_POINT('Origin',(0.,45.1,0.));
#563=CARTESIAN_POINT('',(-1.36636278502198,1.90000000037,-2.50111030138756));
#564=CARTESIAN_POINT('Origin',(0.,45.1,2.85));
#565=CARTESIAN_POINT('',(3.,45.1,-3.67394039744206E-16));
#566=CARTESIAN_POINT('Origin',(0.,45.1,0.));
#567=CARTESIAN_POINT('Origin',(0.,29.45,0.));
#568=CARTESIAN_POINT('',(3.,29.45,-3.67394039744206E-16));
#569=UNCERTAINTY_MEASURE_WITH_UNIT(LENGTH_MEASURE(0.01),#573,
'DISTANCE_ACCURACY_VALUE',
'Maximum model space distance between geometric entities at asserted c
onnectivities');
#570=UNCERTAINTY_MEASURE_WITH_UNIT(LENGTH_MEASURE(0.01),#573,
'DISTANCE_ACCURACY_VALUE',
'Maximum model space distance between geometric entities at asserted c
onnectivities');
#571=(
GEOMETRIC_REPRESENTATION_CONTEXT(3)
GLOBAL_UNCERTAINTY_ASSIGNED_CONTEXT((#569))
GLOBAL_UNIT_ASSIGNED_CONTEXT((#573,#575,#576))
REPRESENTATION_CONTEXT('','3D')
);
#572=(
GEOMETRIC_REPRESENTATION_CONTEXT(3)
GLOBAL_UNCERTAINTY_ASSIGNED_CONTEXT((#570))
GLOBAL_UNIT_ASSIGNED_CONTEXT((#573,#575,#576))
REPRESENTATION_CONTEXT('','3D')
);
#573=(
LENGTH_UNIT()
NAMED_UNIT(*)
SI_UNIT(.MILLI.,.METRE.)
);
#574=(
LENGTH_UNIT()
NAMED_UNIT(*)
SI_UNIT($,.METRE.)
);
#575=(
NAMED_UNIT(*)
PLANE_ANGLE_UNIT()
SI_UNIT($,.RADIAN.)
);
#576=(
NAMED_UNIT(*)
SI_UNIT($,.STERADIAN.)
SOLID_ANGLE_UNIT()
);
#577=SHAPE_DEFINITION_REPRESENTATION(#578,#579);
#578=PRODUCT_DEFINITION_SHAPE('',$,#581);
#579=SHAPE_REPRESENTATION('',(#330),#571);
#580=PRODUCT_DEFINITION_CONTEXT('part definition',#585,'design');
#581=PRODUCT_DEFINITION('Arbre_Roue','Arbre_Roue v2',#582,#580);
#582=PRODUCT_DEFINITION_FORMATION('',$,#587);
#583=PRODUCT_RELATED_PRODUCT_CATEGORY('Arbre_Roue v2','Arbre_Roue v2',(#587));
#584=APPLICATION_PROTOCOL_DEFINITION('international standard',
'automotive_design',2009,#585);
#585=APPLICATION_CONTEXT(
'Core Data for Automotive Mechanical Design Process');
#586=PRODUCT_CONTEXT('part definition',#585,'mechanical');
#587=PRODUCT('Arbre_Roue','Arbre_Roue v2',$,(#586));
#588=PRESENTATION_STYLE_ASSIGNMENT((#589));
#589=SURFACE_STYLE_USAGE(.BOTH.,#590);
#590=SURFACE_SIDE_STYLE('',(#591));
#591=SURFACE_STYLE_FILL_AREA(#592);
#592=FILL_AREA_STYLE('Steel - Satin',(#593));
#593=FILL_AREA_STYLE_COLOUR('Steel - Satin',#594);
#594=COLOUR_RGB('Steel - Satin',0.627450980392157,0.627450980392157,0.627450980392157);
ENDSEC;
END-ISO-10303-21;
