ISO-10303-21;
HEADER;
FILE_DESCRIPTION (( 'STEP AP203' ),
    '1' );
FILE_NAME ('crachoir.STEP',
    '2022-01-25T13:22:46',
    ( '' ),
    ( '' ),
    'SwSTEP 2.0',
    'SolidWorks 2021',
    '' );
FILE_SCHEMA (( 'CONFIG_CONTROL_DESIGN' ));
ENDSEC;

DATA;
#1 = MECHANICAL_CONTEXT ( 'NONE', #233, 'mechanical' ) ;
#2 = APPROVAL_STATUS ( 'not_yet_approved' ) ;
#3 = ORIENTED_EDGE ( 'NONE', *, *, #153, .T. ) ;
#4 = MANIFOLD_SOLID_BREP ( 'Enlèv. mat.-Surface1', #213 ) ;
#5 = PERSON_AND_ORGANIZATION ( #110, #173 ) ;
#6 = ORIENTED_EDGE ( 'NONE', *, *, #183, .F. ) ;
#7 = AXIS2_PLACEMENT_3D ( 'NONE', #10, #179, #12 ) ;
#8 = FACE_OUTER_BOUND ( 'NONE', #174, .T. ) ;
#9 = DIRECTION ( 'NONE',  ( 0.000000000000000000, 0.000000000000000000, -1.000000000000000000 ) ) ;
#10 = CARTESIAN_POINT ( 'NONE',  ( 0.000000000000000000, -1.193310006346448281E-14, 0.000000000000000000 ) ) ;
#11 =( GEOMETRIC_REPRESENTATION_CONTEXT ( 3 ) GLOBAL_UNCERTAINTY_ASSIGNED_CONTEXT ( ( #78 ) ) GLOBAL_UNIT_ASSIGNED_CONTEXT ( ( #142, #203, #90 ) ) REPRESENTATION_CONTEXT ( 'NONE', 'WORKASPACE' ) );
#12 = DIRECTION ( 'NONE',  ( 0.000000000000000000, 0.000000000000000000, -1.000000000000000000 ) ) ;
#13 = ADVANCED_FACE ( 'NONE', ( #167, #147 ), #56, .T. ) ;
#14 = VERTEX_POINT ( 'NONE', #88 ) ;
#15 = AXIS2_PLACEMENT_3D ( 'NONE', #68, #82, #83 ) ;
#16 = VERTEX_POINT ( 'NONE', #37 ) ;
#17 = CIRCLE ( 'NONE', #145, 91.61439835220609496 ) ;
#18 = COORDINATED_UNIVERSAL_TIME_OFFSET ( 1, 0, .AHEAD. ) ;
#19 = PERSON_AND_ORGANIZATION_ROLE ( 'classification_officer' ) ;
#20 = EDGE_LOOP ( 'NONE', ( #111 ) ) ;
#21 = CIRCLE ( 'NONE', #15, 33.77901081746497880 ) ;
#22 = CC_DESIGN_PERSON_AND_ORGANIZATION_ASSIGNMENT ( #130, #62, ( #52 ) ) ;
#23 = ORIENTED_EDGE ( 'NONE', *, *, #232, .T. ) ;
#24 = PERSON_AND_ORGANIZATION_ROLE ( 'design_owner' ) ;
#25 = ORIENTED_EDGE ( 'NONE', *, *, #232, .F. ) ;
#26 = EDGE_LOOP ( 'NONE', ( #63 ) ) ;
#27 = ORIENTED_EDGE ( 'NONE', *, *, #35, .T. ) ;
#28 = CC_DESIGN_PERSON_AND_ORGANIZATION_ASSIGNMENT ( #5, #19, ( #71 ) ) ;
#29 = PLANE ( 'NONE',  #227 ) ;
#30 = APPROVAL_PERSON_ORGANIZATION ( #92, #72, #91 ) ;
#31 = DIRECTION ( 'NONE',  ( 0.000000000000000000, 0.000000000000000000, -1.000000000000000000 ) ) ;
#32 = DIRECTION ( 'NONE',  ( 0.000000000000000000, -0.000000000000000000, 1.000000000000000000 ) ) ;
#33 = FACE_OUTER_BOUND ( 'NONE', #42, .T. ) ;
#34 = DIRECTION ( 'NONE',  ( 0.000000000000000000, 0.000000000000000000, -1.000000000000000000 ) ) ;
#35 = EDGE_CURVE ( 'NONE', #86, #86, #202, .T. ) ;
#36 = CC_DESIGN_APPROVAL ( #72, ( #71 ) ) ;
#37 = CARTESIAN_POINT ( 'NONE',  ( 0.000000000000000000, 1.699999999999989742, -97.58189964521341153 ) ) ;
#38 = COORDINATED_UNIVERSAL_TIME_OFFSET ( 1, 0, .AHEAD. ) ;
#39 = LOCAL_TIME ( 14, 22, 46.00000000000000000, #185 ) ;
#40 = ADVANCED_FACE ( 'NONE', ( #77, #208 ), #230, .T. ) ;
#41 = DATE_TIME_ROLE ( 'creation_date' ) ;
#42 = EDGE_LOOP ( 'NONE', ( #94 ) ) ;
#43 = DESIGN_CONTEXT ( 'detailed design', #127, 'design' ) ;
#44 = COORDINATED_UNIVERSAL_TIME_OFFSET ( 1, 0, .AHEAD. ) ;
#45 = ORIENTED_EDGE ( 'NONE', *, *, #59, .T. ) ;
#46 = FACE_OUTER_BOUND ( 'NONE', #96, .T. ) ;
#47 = AXIS2_PLACEMENT_3D ( 'NONE', #151, #152, #237 ) ;
#48 = PRODUCT_DEFINITION_SHAPE ( 'NONE', 'NONE',  #186 ) ;
#49 = DIRECTION ( 'NONE',  ( 0.000000000000000000, 0.000000000000000000, -1.000000000000000000 ) ) ;
#50 = CARTESIAN_POINT ( 'NONE',  ( 0.000000000000000000, 1.699999999999989742, 0.000000000000000000 ) ) ;
#51 = FACE_OUTER_BOUND ( 'NONE', #228, .T. ) ;
#52 = PRODUCT_DEFINITION_FORMATION_WITH_SPECIFIED_SOURCE ( 'ANY', '', #196, .NOT_KNOWN. ) ;
#53 = CARTESIAN_POINT ( 'NONE',  ( 0.000000000000000000, 2.671873845529165514, -91.61439835220609496 ) ) ;
#54 = AXIS2_PLACEMENT_3D ( 'NONE', #229, #143, #170 ) ;
#55 = EDGE_CURVE ( 'NONE', #14, #14, #182, .T. ) ;
#56 = TOROIDAL_SURFACE ( 'NONE', #47, 97.58189964521341153, 8.000000000000000000 ) ;
#57 = DATE_AND_TIME ( #106, #246 ) ;
#58 = ORIENTED_EDGE ( 'NONE', *, *, #183, .T. ) ;
#59 = EDGE_CURVE ( 'NONE', #70, #70, #109, .T. ) ;
#60 = SHAPE_DEFINITION_REPRESENTATION ( #48, #157 ) ;
#61 = DATE_TIME_ROLE ( 'classification_date' ) ;
#62 = PERSON_AND_ORGANIZATION_ROLE ( 'design_supplier' ) ;
#63 = ORIENTED_EDGE ( 'NONE', *, *, #204, .T. ) ;
#64 = PERSON_AND_ORGANIZATION ( #110, #173 ) ;
#65 = CARTESIAN_POINT ( 'NONE',  ( 0.000000000000000000, 3.804100653354216099, 0.000000000000000000 ) ) ;
#66 = CARTESIAN_POINT ( 'NONE',  ( 0.000000000000000000, 0.000000000000000000, 0.000000000000000000 ) ) ;
#67 = DIRECTION ( 'NONE',  ( 0.000000000000000000, 0.000000000000000000, -1.000000000000000000 ) ) ;
#68 = CARTESIAN_POINT ( 'NONE',  ( 0.000000000000000000, 70.00000000000000000, 0.000000000000000000 ) ) ;
#69 = DIRECTION ( 'NONE',  ( 0.000000000000000000, 0.000000000000000000, -1.000000000000000000 ) ) ;
#70 = VERTEX_POINT ( 'NONE', #140 ) ;
#71 = SECURITY_CLASSIFICATION ( '', '', #95 ) ;
#72 = APPROVAL ( #211, 'UNSPECIFIED' ) ;
#73 = PERSON_AND_ORGANIZATION_ROLE ( 'creator' ) ;
#74 = AXIS2_PLACEMENT_3D ( 'NONE', #129, #210, #241 ) ;
#75 = ORIENTED_EDGE ( 'NONE', *, *, #201, .F. ) ;
#76 = APPROVAL_DATE_TIME ( #57, #214 ) ;
#77 = FACE_BOUND ( 'NONE', #26, .T. ) ;
#78 = UNCERTAINTY_MEASURE_WITH_UNIT (LENGTH_MEASURE( 1.000000000000000082E-05 ), #142, 'distance_accuracy_value', 'NONE');
#79 = CC_DESIGN_DATE_AND_TIME_ASSIGNMENT ( #236, #61, ( #71 ) ) ;
#80 = CALENDAR_DATE ( 2022, 25, 1 ) ;
#81 = EDGE_LOOP ( 'NONE', ( #235 ) ) ;
#82 = DIRECTION ( 'NONE',  ( -0.000000000000000000, -1.000000000000000000, -0.000000000000000000 ) ) ;
#83 = DIRECTION ( 'NONE',  ( 0.000000000000000000, 0.000000000000000000, 1.000000000000000000 ) ) ;
#84 = CARTESIAN_POINT ( 'NONE',  ( 0.000000000000000000, 7.999999999999989342, 0.000000000000000000 ) ) ;
#85 = AXIS2_PLACEMENT_3D ( 'NONE', #66, #180, #34 ) ;
#86 = VERTEX_POINT ( 'NONE', #158 ) ;
#87 = ADVANCED_FACE ( 'NONE', ( #200, #46 ), #29, .T. ) ;
#88 = CARTESIAN_POINT ( 'NONE',  ( 0.000000000000000000, 70.00000000000000000, -31.50000000000000000 ) ) ;
#89 = AXIS2_PLACEMENT_3D ( 'NONE', #118, #221, #176 ) ;
#90 =( NAMED_UNIT ( * ) SI_UNIT ( $, .STERADIAN. ) SOLID_ANGLE_UNIT ( ) );
#91 = APPROVAL_ROLE ( '' ) ;
#92 = PERSON_AND_ORGANIZATION ( #110, #173 ) ;
#93 = ORIENTED_EDGE ( 'NONE', *, *, #55, .T. ) ;
#94 = ORIENTED_EDGE ( 'NONE', *, *, #35, .F. ) ;
#95 = SECURITY_CLASSIFICATION_LEVEL ( 'unclassified' ) ;
#96 = EDGE_LOOP ( 'NONE', ( #133 ) ) ;
#97 = FACE_BOUND ( 'NONE', #171, .T. ) ;
#98 = LOCAL_TIME ( 14, 22, 46.00000000000000000, #44 ) ;
#99 = DIRECTION ( 'NONE',  ( -0.000000000000000000, -1.000000000000000000, -0.000000000000000000 ) ) ;
#100 = DIRECTION ( 'NONE',  ( -0.000000000000000000, -1.000000000000000000, -0.000000000000000000 ) ) ;
#101 = CARTESIAN_POINT ( 'NONE',  ( -106.0000000000000000, -5.966550031732241406E-15, 0.000000000000000000 ) ) ;
#102 = VERTEX_POINT ( 'NONE', #245 ) ;
#103 = AXIS2_PLACEMENT_3D ( 'NONE', #199, #136, #9 ) ;
#104 = ADVANCED_FACE ( 'NONE', ( #195, #51 ), #198, .F. ) ;
#105 = PERSON_AND_ORGANIZATION ( #110, #173 ) ;
#106 = CALENDAR_DATE ( 2022, 25, 1 ) ;
#107 = EDGE_LOOP ( 'NONE', ( #27 ) ) ;
#108 = CIRCLE ( 'NONE', #7, 97.58189964521341153 ) ;
#109 = CIRCLE ( 'NONE', #103, 106.0000000000000000 ) ;
#110 = PERSON ( 'UNSPECIFIED', 'UNSPECIFIED', 'UNSPECIFIED', ('UNSPECIFIED'), ('UNSPECIFIED'), ('UNSPECIFIED') ) ;
#111 = ORIENTED_EDGE ( 'NONE', *, *, #204, .F. ) ;
#112 = DIRECTION ( 'NONE',  ( 0.000000000000000000, 0.000000000000000000, -1.000000000000000000 ) ) ;
#113 = CONICAL_SURFACE ( 'NONE', #244, 91.61439835220609496, 0.7288547264526308300 ) ;
#114 = AXIS2_PLACEMENT_3D ( 'NONE', #119, #139, #238 ) ;
#115 = DIRECTION ( 'NONE',  ( -0.000000000000000000, -1.000000000000000000, -0.000000000000000000 ) ) ;
#116 = CARTESIAN_POINT ( 'NONE',  ( 0.000000000000000000, 2.671873845529165514, 0.000000000000000000 ) ) ;
#117 = ADVANCED_FACE ( 'NONE', ( #33, #97 ), #126, .T. ) ;
#118 = CARTESIAN_POINT ( 'NONE',  ( 0.000000000000000000, 70.00000000000000000, 0.000000000000000000 ) ) ;
#119 = CARTESIAN_POINT ( 'NONE',  ( 0.000000000000000000, 3.804100653354216099, 0.000000000000000000 ) ) ;
#120 = APPROVAL ( #187, 'UNSPECIFIED' ) ;
#121 = CARTESIAN_POINT ( 'NONE',  ( 0.000000000000000000, 1.699999999999999956, 0.000000000000000000 ) ) ;
#122 = VERTEX_POINT ( 'NONE', #181 ) ;
#123 = AXIS2_PLACEMENT_3D ( 'NONE', #50, #197, #31 ) ;
#124 = AXIS2_PLACEMENT_3D ( 'NONE', #101, #225, #32 ) ;
#125 = VERTEX_POINT ( 'NONE', #249 ) ;
#126 = CONICAL_SURFACE ( 'NONE', #114, 92.88249237697014848, 0.7288547264526308300 ) ;
#127 = APPLICATION_CONTEXT ( 'configuration controlled 3d designs of mechanical parts and assemblies' ) ;
#128 = PERSON_AND_ORGANIZATION ( #110, #173 ) ;
#129 = CARTESIAN_POINT ( 'NONE',  ( -106.0000000000000000, 1.699999999999994849, 0.000000000000000000 ) ) ;
#130 = PERSON_AND_ORGANIZATION ( #110, #173 ) ;
#131 = EDGE_LOOP ( 'NONE', ( #23 ) ) ;
#132 = APPROVAL_DATE_TIME ( #146, #72 ) ;
#133 = ORIENTED_EDGE ( 'NONE', *, *, #153, .F. ) ;
#134 = PERSON_AND_ORGANIZATION ( #110, #173 ) ;
#135 = EDGE_LOOP ( 'NONE', ( #190 ) ) ;
#136 = DIRECTION ( 'NONE',  ( -0.000000000000000000, -1.000000000000000000, -0.000000000000000000 ) ) ;
#137 = CARTESIAN_POINT ( 'NONE',  ( 0.000000000000000000, 2.671873845529165514, 0.000000000000000000 ) ) ;
#138 = APPROVAL_PERSON_ORGANIZATION ( #192, #120, #234 ) ;
#139 = DIRECTION ( 'NONE',  ( -0.000000000000000000, -1.000000000000000000, -0.000000000000000000 ) ) ;
#140 = CARTESIAN_POINT ( 'NONE',  ( 0.000000000000000000, 0.000000000000000000, -106.0000000000000000 ) ) ;
#141 = CC_DESIGN_DATE_AND_TIME_ASSIGNMENT ( #164, #41, ( #186 ) ) ;
#142 =( LENGTH_UNIT ( ) NAMED_UNIT ( * ) SI_UNIT ( .MILLI., .METRE. ) );
#143 = DIRECTION ( 'NONE',  ( 0.000000000000000000, 0.000000000000000000, 1.000000000000000000 ) ) ;
#144 = EDGE_LOOP ( 'NONE', ( #93 ) ) ;
#145 = AXIS2_PLACEMENT_3D ( 'NONE', #116, #100, #69 ) ;
#146 = DATE_AND_TIME ( #165, #162 ) ;
#147 = FACE_OUTER_BOUND ( 'NONE', #131, .T. ) ;
#148 = CC_DESIGN_PERSON_AND_ORGANIZATION_ASSIGNMENT ( #128, #207, ( #52 ) ) ;
#149 = CALENDAR_DATE ( 2022, 25, 1 ) ;
#150 = APPLICATION_PROTOCOL_DEFINITION ( 'international standard', 'config_control_design', 1994, #127 ) ;
#151 = CARTESIAN_POINT ( 'NONE',  ( 0.000000000000000000, 7.999999999999989342, 0.000000000000000000 ) ) ;
#152 = DIRECTION ( 'NONE',  ( -0.000000000000000000, -1.000000000000000000, -0.000000000000000000 ) ) ;
#153 = EDGE_CURVE ( 'NONE', #102, #102, #21, .T. ) ;
#154 = FACE_OUTER_BOUND ( 'NONE', #135, .T. ) ;
#155 = FACE_OUTER_BOUND ( 'NONE', #212, .T. ) ;
#156 = FACE_OUTER_BOUND ( 'NONE', #20, .T. ) ;
#157 = ADVANCED_BREP_SHAPE_REPRESENTATION ( 'crachoir', ( #4, #54 ), #11 ) ;
#158 = CARTESIAN_POINT ( 'NONE',  ( 0.000000000000000000, 3.804100653354216099, -92.88249237697014848 ) ) ;
#159 = FACE_OUTER_BOUND ( 'NONE', #107, .T. ) ;
#160 = AXIS2_PLACEMENT_3D ( 'NONE', #121, #115, #67 ) ;
#161 = APPLICATION_PROTOCOL_DEFINITION ( 'international standard', 'config_control_design', 1994, #233 ) ;
#162 = LOCAL_TIME ( 14, 22, 46.00000000000000000, #215 ) ;
#163 = LOCAL_TIME ( 14, 22, 46.00000000000000000, #18 ) ;
#164 = DATE_AND_TIME ( #189, #163 ) ;
#165 = CALENDAR_DATE ( 2022, 25, 1 ) ;
#166 = ADVANCED_FACE ( 'NONE', ( #155, #8 ), #240, .T. ) ;
#167 = FACE_OUTER_BOUND ( 'NONE', #172, .T. ) ;
#168 = CC_DESIGN_SECURITY_CLASSIFICATION ( #71, ( #52 ) ) ;
#169 = DATE_AND_TIME ( #149, #39 ) ;
#170 = DIRECTION ( 'NONE',  ( 1.000000000000000000, 0.000000000000000000, 0.000000000000000000 ) ) ;
#171 = EDGE_LOOP ( 'NONE', ( #3 ) ) ;
#172 = EDGE_LOOP ( 'NONE', ( #75 ) ) ;
#173 = ORGANIZATION ( 'UNSPECIFIED', 'UNSPECIFIED', '' ) ;
#174 = EDGE_LOOP ( 'NONE', ( #231 ) ) ;
#175 = CC_DESIGN_APPROVAL ( #214, ( #186 ) ) ;
#176 = DIRECTION ( 'NONE',  ( 0.000000000000000000, 0.000000000000000000, -1.000000000000000000 ) ) ;
#177 = DIRECTION ( 'NONE',  ( 0.000000000000000000, 0.000000000000000000, -1.000000000000000000 ) ) ;
#178 = AXIS2_PLACEMENT_3D ( 'NONE', #84, #99, #177 ) ;
#179 = DIRECTION ( 'NONE',  ( -0.000000000000000000, -1.000000000000000000, -0.000000000000000000 ) ) ;
#180 = DIRECTION ( 'NONE',  ( -0.000000000000000000, -1.000000000000000000, -0.000000000000000000 ) ) ;
#181 = CARTESIAN_POINT ( 'NONE',  ( 0.000000000000000000, -1.193310006346448281E-14, -97.58189964521341153 ) ) ;
#182 = CIRCLE ( 'NONE', #89, 31.50000000000000000 ) ;
#183 = EDGE_CURVE ( 'NONE', #125, #125, #191, .T. ) ;
#184 = VERTEX_POINT ( 'NONE', #53 ) ;
#185 = COORDINATED_UNIVERSAL_TIME_OFFSET ( 1, 0, .AHEAD. ) ;
#186 = PRODUCT_DEFINITION ( 'UNKNOWN', '', #52, #43 ) ;
#187 = APPROVAL_STATUS ( 'not_yet_approved' ) ;
#188 = EDGE_LOOP ( 'NONE', ( #25 ) ) ;
#189 = CALENDAR_DATE ( 2022, 25, 1 ) ;
#190 = ORIENTED_EDGE ( 'NONE', *, *, #201, .T. ) ;
#191 = CIRCLE ( 'NONE', #160, 106.0000000000000000 ) ;
#192 = PERSON_AND_ORGANIZATION ( #110, #173 ) ;
#193 = EDGE_LOOP ( 'NONE', ( #6 ) ) ;
#194 = ADVANCED_FACE ( 'NONE', ( #223, #154 ), #113, .F. ) ;
#195 = FACE_BOUND ( 'NONE', #188, .T. ) ;
#196 = PRODUCT ( 'crachoir', 'crachoir', '', ( #1 ) ) ;
#197 = DIRECTION ( 'NONE',  ( -0.000000000000000000, -1.000000000000000000, -0.000000000000000000 ) ) ;
#198 = PLANE ( 'NONE',  #124 ) ;
#199 = CARTESIAN_POINT ( 'NONE',  ( 0.000000000000000000, 0.000000000000000000, 0.000000000000000000 ) ) ;
#200 = FACE_BOUND ( 'NONE', #144, .T. ) ;
#201 = EDGE_CURVE ( 'NONE', #184, #184, #17, .T. ) ;
#202 = CIRCLE ( 'NONE', #219, 92.88249237697014848 ) ;
#203 =( NAMED_UNIT ( * ) PLANE_ANGLE_UNIT ( ) SI_UNIT ( $, .RADIAN. ) );
#204 = EDGE_CURVE ( 'NONE', #16, #16, #224, .T. ) ;
#205 = CC_DESIGN_APPROVAL ( #120, ( #52 ) ) ;
#206 = CC_DESIGN_PERSON_AND_ORGANIZATION_ASSIGNMENT ( #105, #24, ( #196 ) ) ;
#207 = PERSON_AND_ORGANIZATION_ROLE ( 'creator' ) ;
#208 = FACE_OUTER_BOUND ( 'NONE', #193, .T. ) ;
#209 = APPROVAL_DATE_TIME ( #169, #120 ) ;
#210 = DIRECTION ( 'NONE',  ( 0.000000000000000000, 1.000000000000000000, 0.000000000000000000 ) ) ;
#211 = APPROVAL_STATUS ( 'not_yet_approved' ) ;
#212 = EDGE_LOOP ( 'NONE', ( #58 ) ) ;
#213 = CLOSED_SHELL ( 'NONE', ( #117, #194, #222, #40, #166, #104, #13, #87 ) ) ;
#214 = APPROVAL ( #2, 'UNSPECIFIED' ) ;
#215 = COORDINATED_UNIVERSAL_TIME_OFFSET ( 1, 0, .AHEAD. ) ;
#216 = DIRECTION ( 'NONE',  ( -0.000000000000000000, -1.000000000000000000, -0.000000000000000000 ) ) ;
#217 = DIRECTION ( 'NONE',  ( 0.000000000000000000, 1.000000000000000000, 0.000000000000000000 ) ) ;
#218 = TOROIDAL_SURFACE ( 'NONE', #178, 97.58189964521341153, 6.299999999999999822 ) ;
#219 = AXIS2_PLACEMENT_3D ( 'NONE', #65, #216, #112 ) ;
#220 = DIRECTION ( 'NONE',  ( -0.000000000000000000, -1.000000000000000000, -0.000000000000000000 ) ) ;
#221 = DIRECTION ( 'NONE',  ( -0.000000000000000000, -1.000000000000000000, -0.000000000000000000 ) ) ;
#222 = ADVANCED_FACE ( 'NONE', ( #159, #156 ), #218, .F. ) ;
#223 = FACE_BOUND ( 'NONE', #81, .T. ) ;
#224 = CIRCLE ( 'NONE', #123, 97.58189964521341153 ) ;
#225 = DIRECTION ( 'NONE',  ( 0.000000000000000000, 1.000000000000000000, 0.000000000000000000 ) ) ;
#226 = APPROVAL_ROLE ( '' ) ;
#227 = AXIS2_PLACEMENT_3D ( 'NONE', #242, #217, #243 ) ;
#228 = EDGE_LOOP ( 'NONE', ( #45 ) ) ;
#229 = CARTESIAN_POINT ( 'NONE',  ( 0.000000000000000000, 0.000000000000000000, 0.000000000000000000 ) ) ;
#230 = PLANE ( 'NONE',  #74 ) ;
#231 = ORIENTED_EDGE ( 'NONE', *, *, #59, .F. ) ;
#232 = EDGE_CURVE ( 'NONE', #122, #122, #108, .T. ) ;
#233 = APPLICATION_CONTEXT ( 'configuration controlled 3d designs of mechanical parts and assemblies' ) ;
#234 = APPROVAL_ROLE ( '' ) ;
#235 = ORIENTED_EDGE ( 'NONE', *, *, #55, .F. ) ;
#236 = DATE_AND_TIME ( #80, #98 ) ;
#237 = DIRECTION ( 'NONE',  ( 0.000000000000000000, 0.000000000000000000, -1.000000000000000000 ) ) ;
#238 = DIRECTION ( 'NONE',  ( 0.000000000000000000, 0.000000000000000000, -1.000000000000000000 ) ) ;
#239 = CC_DESIGN_PERSON_AND_ORGANIZATION_ASSIGNMENT ( #134, #73, ( #186 ) ) ;
#240 = CYLINDRICAL_SURFACE ( 'NONE', #85, 106.0000000000000000 ) ;
#241 = DIRECTION ( 'NONE',  ( 0.000000000000000000, -0.000000000000000000, 1.000000000000000000 ) ) ;
#242 = CARTESIAN_POINT ( 'NONE',  ( 0.000000000000000000, 70.00000000000000000, 0.000000000000000000 ) ) ;
#243 = DIRECTION ( 'NONE',  ( 0.000000000000000000, -0.000000000000000000, 1.000000000000000000 ) ) ;
#244 = AXIS2_PLACEMENT_3D ( 'NONE', #137, #220, #49 ) ;
#245 = CARTESIAN_POINT ( 'NONE',  ( 0.000000000000000000, 70.00000000000000000, 33.77901081746497880 ) ) ;
#246 = LOCAL_TIME ( 14, 22, 46.00000000000000000, #38 ) ;
#247 = PRODUCT_RELATED_PRODUCT_CATEGORY ( 'detail', '', ( #196 ) ) ;
#248 = APPROVAL_PERSON_ORGANIZATION ( #64, #214, #226 ) ;
#249 = CARTESIAN_POINT ( 'NONE',  ( 0.000000000000000000, 1.699999999999999956, -106.0000000000000000 ) ) ;
ENDSEC;
END-ISO-10303-21;
