ISO-10303-21;
HEADER;
FILE_DESCRIPTION (( 'STEP AP214' ),
    '1' );
FILE_NAME ('000012-03.STEP',
    '2022-07-17T12:58:48',
    ( '' ),
    ( '' ),
    'SwSTEP 2.0',
    'SolidWorks 2014',
    '' );
FILE_SCHEMA (( 'AUTOMOTIVE_DESIGN' ));
ENDSEC;

DATA;
#1 = DIRECTION ( 'NONE',  ( 0.0000000000000000000, 0.0000000000000000000, -1.000000000000000000 ) ) ;
#2 =( NAMED_UNIT ( * ) SI_UNIT ( $, .STERADIAN. ) SOLID_ANGLE_UNIT ( ) );
#3 = DIRECTION ( 'NONE',  ( 0.0000000000000000000, 0.0000000000000000000, 1.000000000000000000 ) ) ;
#4 = VERTEX_POINT ( 'NONE', #208 ) ;
#5 = FILL_AREA_STYLE ('',( #191 ) ) ;
#6 = CARTESIAN_POINT ( 'NONE',  ( 1.959434878635764700E-015, 49.53375124641246400, -15.99999999999999600 ) ) ;
#7 = CARTESIAN_POINT ( 'NONE',  ( 0.0000000000000000000, 49.53375124641246400, 0.0000000000000000000 ) ) ;
#8 = UNCERTAINTY_MEASURE_WITH_UNIT (LENGTH_MEASURE( 1.000000000000000100E-005 ), #63, 'distance_accuracy_value', 'NONE');
#9 = APPLICATION_CONTEXT ( 'automotive_design' ) ;
#10 = VERTEX_POINT ( 'NONE', #268 ) ;
#11 = CARTESIAN_POINT ( 'NONE',  ( 0.0000000000000000000, 11.00000000000000400, 0.0000000000000000000 ) ) ;
#12 = ADVANCED_FACE ( 'NONE', ( #236 ), #238, .F. ) ;
#13 = DIRECTION ( 'NONE',  ( -0.0000000000000000000, 1.000000000000000000, -0.0000000000000000000 ) ) ;
#14 = SURFACE_STYLE_USAGE ( .BOTH. , #222 ) ;
#15 =( NAMED_UNIT ( * ) PLANE_ANGLE_UNIT ( ) SI_UNIT ( $, .RADIAN. ) );
#16 = CARTESIAN_POINT ( 'NONE',  ( 0.0000000000000000000, 6.938893903907228400E-015, 8.999999999999994700 ) ) ;
#17 = AXIS2_PLACEMENT_3D ( 'NONE', #210, #280, #358 ) ;
#18 = CONICAL_SURFACE ( 'NONE', #177, 15.99999999999999600, 0.7853981633974517200 ) ;
#19 = CARTESIAN_POINT ( 'NONE',  ( 0.0000000000000000000, 49.53375124641246400, 8.999999999999996400 ) ) ;
#20 = AXIS2_PLACEMENT_3D ( 'NONE', #224, #86, #77 ) ;
#21 = CARTESIAN_POINT ( 'NONE',  ( 1.959434878635764300E-015, 1.499999999999994400, -15.99999999999999600 ) ) ;
#22 = FILL_AREA_STYLE_COLOUR ( '', #141 ) ;
#23 =( GEOMETRIC_REPRESENTATION_CONTEXT ( 3 ) GLOBAL_UNCERTAINTY_ASSIGNED_CONTEXT ( ( #62 ) ) GLOBAL_UNIT_ASSIGNED_CONTEXT ( ( #151, #41, #2 ) ) REPRESENTATION_CONTEXT ( 'NONE', 'WORKASPACE' ) );
#24 = PRESENTATION_STYLE_ASSIGNMENT (( #52 ) ) ;
#25 = DIRECTION ( 'NONE',  ( -0.0000000000000000000, 1.000000000000000000, -0.0000000000000000000 ) ) ;
#26 = EDGE_CURVE ( 'NONE', #315, #338, #235, .T. ) ;
#27 = DIRECTION ( 'NONE',  ( 0.0000000000000000000, 0.0000000000000000000, 1.000000000000000000 ) ) ;
#28 = DIRECTION ( 'NONE',  ( 0.0000000000000000000, 0.0000000000000000000, 1.000000000000000000 ) ) ;
#29 = EDGE_CURVE ( 'NONE', #291, #275, #84, .T. ) ;
#30 = DIRECTION ( 'NONE',  ( -0.0000000000000000000, 1.000000000000000000, -0.0000000000000000000 ) ) ;
#31 = CARTESIAN_POINT ( 'NONE',  ( 3.469446951953614200E-015, 13.00000000000000000, 0.0000000000000000000 ) ) ;
#32 = PRODUCT_RELATED_PRODUCT_CATEGORY ( 'part', '', ( #169 ) ) ;
#33 =( NAMED_UNIT ( * ) SI_UNIT ( $, .STERADIAN. ) SOLID_ANGLE_UNIT ( ) );
#34 = CARTESIAN_POINT ( 'NONE',  ( 0.0000000000000000000, 4.325324213551265700, 0.0000000000000000000 ) ) ;
#35 = ADVANCED_FACE ( 'NONE', ( #243 ), #231, .T. ) ;
#36 = DIRECTION ( 'NONE',  ( 0.0000000000000000000, 0.0000000000000000000, 1.000000000000000000 ) ) ;
#37 = CARTESIAN_POINT ( 'NONE',  ( 0.0000000000000000000, 6.938893903907228400E-015, 0.0000000000000000000 ) ) ;
#38 = CARTESIAN_POINT ( 'NONE',  ( 0.0000000000000000000, 1.499999999999994400, 0.0000000000000000000 ) ) ;
#39 = CARTESIAN_POINT ( 'NONE',  ( 1.910449006669870100E-015, 11.00000000000000000, 15.19999999999998900 ) ) ;
#40 = EDGE_LOOP ( 'NONE', ( #152, #260, #314, #49, #310 ) ) ;
#41 =( NAMED_UNIT ( * ) PLANE_ANGLE_UNIT ( ) SI_UNIT ( $, .RADIAN. ) );
#42 = CARTESIAN_POINT ( 'NONE',  ( 1.867586368699712600E-015, 3.759796386924695900E-015, -14.49999999999999500 ) ) ;
#43 = PRODUCT_DEFINITION_FORMATION_WITH_SPECIFIED_SOURCE ( 'ANY', '', #169, .NOT_KNOWN. ) ;
#44 = PRESENTATION_LAYER_ASSIGNMENT (  '', '', ( #340 ) ) ;
#45 = CARTESIAN_POINT ( 'NONE',  ( 0.0000000000000000000, 3.759796386924695900E-015, 14.49999999999999500 ) ) ;
#46 = AXIS2_PLACEMENT_3D ( 'NONE', #322, #25, #378 ) ;
#47 = DIRECTION ( 'NONE',  ( 0.0000000000000000000, 0.0000000000000000000, -1.000000000000000000 ) ) ;
#48 = UNCERTAINTY_MEASURE_WITH_UNIT (LENGTH_MEASURE( 1.000000000000000100E-005 ), #363, 'distance_accuracy_value', 'NONE');
#49 = ORIENTED_EDGE ( 'NONE', *, *, #85, .F. ) ;
#50 = DIRECTION ( 'NONE',  ( -0.0000000000000000000, -0.0000000000000000000, -1.000000000000000000 ) ) ;
#51 = DIRECTION ( 'NONE',  ( -0.0000000000000000000, 1.000000000000000000, -0.0000000000000000000 ) ) ;
#52 = SURFACE_STYLE_USAGE ( .BOTH. , #98 ) ;
#53 = ADVANCED_FACE ( 'NONE', ( #91 ), #219, .T. ) ;
#54 = PRODUCT_DEFINITION ( 'UNKNOWN', '', #43, #201 ) ;
#55 = PRODUCT_CONTEXT ( 'NONE', #102, 'mechanical' ) ;
#56 = CIRCLE ( 'NONE', #321, 12.33896267925306300 ) ;
#57 = CARTESIAN_POINT ( 'NONE',  ( 1.102182119232617500E-015, 4.325324213551265700, -8.999999999999998200 ) ) ;
#58 = APPLICATION_PROTOCOL_DEFINITION ( 'draft international standard', 'automotive_design', 1998, #9 ) ;
#59 = DIRECTION ( 'NONE',  ( 0.0000000000000000000, 0.0000000000000000000, 1.000000000000000000 ) ) ;
#60 = AXIS2_PLACEMENT_3D ( 'NONE', #182, #50, #323 ) ;
#61 = AXIS2_PLACEMENT_3D ( 'NONE', #350, #344, #339 ) ;
#62 = UNCERTAINTY_MEASURE_WITH_UNIT (LENGTH_MEASURE( 1.000000000000000100E-005 ), #151, 'distance_accuracy_value', 'NONE');
#63 =( LENGTH_UNIT ( ) NAMED_UNIT ( * ) SI_UNIT ( .MILLI., .METRE. ) );
#64 = DIRECTION ( 'NONE',  ( 0.0000000000000000000, -1.000000000000000000, 0.0000000000000000000 ) ) ;
#65 = DIRECTION ( 'NONE',  ( -0.0000000000000000000, 1.000000000000000000, -0.0000000000000000000 ) ) ;
#66 = CIRCLE ( 'NONE', #107, 8.999999999999998200 ) ;
#67 = AXIS2_PLACEMENT_3D ( 'NONE', #245, #234, #381 ) ;
#68 = APPLICATION_PROTOCOL_DEFINITION ( 'draft international standard', 'automotive_design', 1998, #102 ) ;
#69 = CIRCLE ( 'NONE', #130, 14.49999999999999500 ) ;
#70 = VECTOR ( 'NONE', #30, 1000.000000000000000 ) ;
#71 = CIRCLE ( 'NONE', #67, 15.99999999999999600 ) ;
#72 = DIRECTION ( 'NONE',  ( -0.0000000000000000000, 1.000000000000000000, -0.0000000000000000000 ) ) ;
#73 = FACE_OUTER_BOUND ( 'NONE', #242, .T. ) ;
#74 = EDGE_CURVE ( 'NONE', #281, #4, #221, .T. ) ;
#75 = CARTESIAN_POINT ( 'NONE',  ( 0.0000000000000000000, 10.19999999999999400, 15.99999999999999600 ) ) ;
#76 = LINE ( 'NONE', #6, #70 ) ;
#77 = DIRECTION ( 'NONE',  ( 0.0000000000000000000, 0.0000000000000000000, -1.000000000000000000 ) ) ;
#78 = AXIS2_PLACEMENT_3D ( 'NONE', #37, #181, #264 ) ;
#79 = FACE_OUTER_BOUND ( 'NONE', #261, .T. ) ;
#80 = CARTESIAN_POINT ( 'NONE',  ( -8.999999999999998200, 4.325324213551265700, 0.0000000000000000000 ) ) ;
#81 = CARTESIAN_POINT ( 'NONE',  ( 0.0000000000000000000, 1.499999999999994400, 0.0000000000000000000 ) ) ;
#82 = CIRCLE ( 'NONE', #20, 14.49999999999999500 ) ;
#83 = CARTESIAN_POINT ( 'NONE',  ( 0.0000000000000000000, 1.499999999999994400, 0.0000000000000000000 ) ) ;
#84 = CIRCLE ( 'NONE', #78, 8.999999999999994700 ) ;
#85 = EDGE_CURVE ( 'NONE', #315, #10, #225, .T. ) ;
#86 = DIRECTION ( 'NONE',  ( 0.0000000000000000000, -1.000000000000000000, 0.0000000000000000000 ) ) ;
#87 = COLOUR_RGB ( '',0.7764705882352941300, 0.7568627450980391900, 0.7372549019607843600 ) ;
#88 = CARTESIAN_POINT ( 'NONE',  ( 0.0000000000000000000, 4.325324213551265700, 0.0000000000000000000 ) ) ;
#89 = ORIENTED_EDGE ( 'NONE', *, *, #121, .F. ) ;
#90 = DIRECTION ( 'NONE',  ( -0.0000000000000000000, 1.000000000000000000, -0.0000000000000000000 ) ) ;
#91 = FACE_OUTER_BOUND ( 'NONE', #254, .T. ) ;
#92 = VERTEX_POINT ( 'NONE', #57 ) ;
#93 =( NAMED_UNIT ( * ) SI_UNIT ( $, .STERADIAN. ) SOLID_ANGLE_UNIT ( ) );
#94 = AXIS2_PLACEMENT_3D ( 'NONE', #296, #351, #265 ) ;
#95 = DIRECTION ( 'NONE',  ( -0.0000000000000000000, 1.000000000000000000, -0.0000000000000000000 ) ) ;
#96 = EDGE_CURVE ( 'NONE', #319, #380, #244, .T. ) ;
#97 = ORIENTED_EDGE ( 'NONE', *, *, #305, .T. ) ;
#98 = SURFACE_SIDE_STYLE ('',( #154 ) ) ;
#99 = DIRECTION ( 'NONE',  ( 0.0000000000000000000, 0.0000000000000000000, -1.000000000000000000 ) ) ;
#100 = VECTOR ( 'NONE', #176, 1000.000000000000000 ) ;
#101 = AXIS2_PLACEMENT_3D ( 'NONE', #220, #165, #334 ) ;
#102 = APPLICATION_CONTEXT ( 'automotive_design' ) ;
#103 = DIRECTION ( 'NONE',  ( 1.000000000000000000, 0.0000000000000000000, 1.224646799147353200E-016 ) ) ;
#104 = CONICAL_SURFACE ( 'NONE', #211, 15.19999999999999200, 0.7853981633974503900 ) ;
#105 = VECTOR ( 'NONE', #168, 1000.000000000000100 ) ;
#106 = ADVANCED_FACE ( 'NONE', ( #79 ), #204, .F. ) ;
#107 = AXIS2_PLACEMENT_3D ( 'NONE', #34, #124, #27 ) ;
#108 = EDGE_LOOP ( 'NONE', ( #368, #97, #373, #332, #318 ) ) ;
#109 = FACE_OUTER_BOUND ( 'NONE', #108, .T. ) ;
#110 = LINE ( 'NONE', #114, #105 ) ;
#111 = CARTESIAN_POINT ( 'NONE',  ( 1.959434878635764700E-015, 1.499999999999994400, -15.99999999999999600 ) ) ;
#112 = CIRCLE ( 'NONE', #128, 15.99999999999999600 ) ;
#113 = CARTESIAN_POINT ( 'NONE',  ( 0.0000000000000000000, 10.19999999999999400, 0.0000000000000000000 ) ) ;
#114 = CARTESIAN_POINT ( 'NONE',  ( 1.861463134703975900E-015, 10.99999999999999600, 15.19999999999999200 ) ) ;
#115 = CARTESIAN_POINT ( 'NONE',  ( 0.0000000000000000000, 1.499999999999994400, 15.99999999999999600 ) ) ;
#116 = EDGE_CURVE ( 'NONE', #4, #10, #173, .T. ) ;
#117 = VERTEX_POINT ( 'NONE', #367 ) ;
#118 = ORIENTED_EDGE ( 'NONE', *, *, #250, .F. ) ;
#119 = EDGE_CURVE ( 'NONE', #338, #281, #230, .T. ) ;
#120 = CARTESIAN_POINT ( 'NONE',  ( 3.469446951953614200E-015, 13.00000000000000000, 0.0000000000000000000 ) ) ;
#121 = EDGE_CURVE ( 'NONE', #380, #319, #175, .T. ) ;
#122 = CYLINDRICAL_SURFACE ( 'NONE', #223, 8.999999999999996400 ) ;
#123 = SPHERICAL_SURFACE ( 'NONE', #196, 12.50000000000000000 ) ;
#124 = DIRECTION ( 'NONE',  ( -0.0000000000000000000, 1.000000000000000000, -0.0000000000000000000 ) ) ;
#125 = CARTESIAN_POINT ( 'NONE',  ( 3.469446951953614200E-015, 13.00000000000000000, 0.0000000000000000000 ) ) ;
#126 = EDGE_CURVE ( 'NONE', #275, #291, #203, .T. ) ;
#127 = DIRECTION ( 'NONE',  ( -1.000000000000000000, 0.0000000000000000000, 0.0000000000000000000 ) ) ;
#128 = AXIS2_PLACEMENT_3D ( 'NONE', #38, #369, #99 ) ;
#129 = DIRECTION ( 'NONE',  ( -1.000000000000000000, 0.0000000000000000000, 0.0000000000000000000 ) ) ;
#130 = AXIS2_PLACEMENT_3D ( 'NONE', #371, #64, #1 ) ;
#131 = AXIS2_PLACEMENT_3D ( 'NONE', #287, #277, #333 ) ;
#132 = EDGE_LOOP ( 'NONE', ( #194, #89, #349, #200 ) ) ;
#133 = EDGE_CURVE ( 'NONE', #380, #117, #199, .T. ) ;
#134 = CYLINDRICAL_SURFACE ( 'NONE', #375, 15.99999999999999600 ) ;
#135 = ADVANCED_FACE ( 'NONE', ( #73, #195 ), #174, .T. ) ;
#136 = VECTOR ( 'NONE', #90, 1000.000000000000000 ) ;
#137 = PRESENTATION_LAYER_ASSIGNMENT (  '', '', ( #187 ) ) ;
#138 = ADVANCED_FACE ( 'NONE', ( #188, #212 ), #217, .T. ) ;
#139 = ADVANCED_FACE ( 'NONE', ( #213 ), #134, .T. ) ;
#140 = EDGE_CURVE ( 'NONE', #306, #171, #209, .T. ) ;
#141 = COLOUR_RGB ( '',0.7764705882352941300, 0.7568627450980391900, 0.7372549019607843600 ) ;
#142 = ORIENTED_EDGE ( 'NONE', *, *, #26, .F. ) ;
#143 = DIRECTION ( 'NONE',  ( -0.0000000000000000000, 1.000000000000000000, -0.0000000000000000000 ) ) ;
#144 = ADVANCED_FACE ( 'NONE', ( #205 ), #104, .T. ) ;
#145 = DIRECTION ( 'NONE',  ( -0.0000000000000000000, 1.000000000000000000, -0.0000000000000000000 ) ) ;
#146 = ADVANCED_FACE ( 'NONE', ( #218 ), #123, .F. ) ;
#147 = CIRCLE ( 'NONE', #215, 15.99999999999999600 ) ;
#148 = SURFACE_STYLE_FILL_AREA ( #365 ) ;
#149 = EDGE_CURVE ( 'NONE', #319, #285, #110, .T. ) ;
#150 = DIRECTION ( 'NONE',  ( 0.0000000000000000000, 0.0000000000000000000, 1.000000000000000000 ) ) ;
#151 =( LENGTH_UNIT ( ) NAMED_UNIT ( * ) SI_UNIT ( .MILLI., .METRE. ) );
#152 = ORIENTED_EDGE ( 'NONE', *, *, #246, .F. ) ;
#153 = DIRECTION ( 'NONE',  ( 0.0000000000000000000, -1.000000000000000000, 0.0000000000000000000 ) ) ;
#154 = SURFACE_STYLE_FILL_AREA ( #5 ) ;
#155 = DIRECTION ( 'NONE',  ( 0.0000000000000000000, -0.0000000000000000000, -1.000000000000000000 ) ) ;
#156 = DIRECTION ( 'NONE',  ( 0.0000000000000000000, 0.0000000000000000000, 1.000000000000000000 ) ) ;
#157 = ORIENTED_EDGE ( 'NONE', *, *, #251, .T. ) ;
#158 = MECHANICAL_DESIGN_GEOMETRIC_PRESENTATION_REPRESENTATION (  '', ( #187 ), #23 ) ;
#159 = CARTESIAN_POINT ( 'NONE',  ( -15.99999999999999300, 11.00000000000000000, 0.0000000000000000000 ) ) ;
#160 = AXIS2_PLACEMENT_3D ( 'NONE', #113, #269, #28 ) ;
#161 = CARTESIAN_POINT ( 'NONE',  ( 1.102182119232617300E-015, 6.938893903907228400E-015, -8.999999999999994700 ) ) ;
#162 = CIRCLE ( 'NONE', #160, 15.99999999999999600 ) ;
#163 = ORIENTED_EDGE ( 'NONE', *, *, #251, .F. ) ;
#164 = CARTESIAN_POINT ( 'NONE',  ( 8.999999999999998200, 4.325324213551265700, 1.306634617113604700E-015 ) ) ;
#165 = DIRECTION ( 'NONE',  ( 0.0000000000000000000, -1.000000000000000000, 0.0000000000000000000 ) ) ;
#166 = EDGE_LOOP ( 'NONE', ( #331, #304, #247, #163 ) ) ;
#167 = EDGE_CURVE ( 'NONE', #285, #117, #71, .T. ) ;
#168 = DIRECTION ( 'NONE',  ( 8.659560562354951300E-017, -0.7071067811865460200, 0.7071067811865489100 ) ) ;
#169 = PRODUCT ( '000012-03', '000012-03', '', ( #55 ) ) ;
#170 = AXIS2_PLACEMENT_3D ( 'NONE', #273, #272, #156 ) ;
#171 = VERTEX_POINT ( 'NONE', #115 ) ;
#172 = DIRECTION ( 'NONE',  ( 0.0000000000000000000, 0.0000000000000000000, 1.000000000000000000 ) ) ;
#173 = CIRCLE ( 'NONE', #61, 12.33896267925306300 ) ;
#174 = PLANE ( 'NONE',  #228 ) ;
#175 = CIRCLE ( 'NONE', #94, 15.19999999999998900 ) ;
#176 = DIRECTION ( 'NONE',  ( 8.659560562354961200E-017, 0.7071067811865450200, -0.7071067811865500200 ) ) ;
#177 = AXIS2_PLACEMENT_3D ( 'NONE', #83, #13, #36 ) ;
#178 = DIRECTION ( 'NONE',  ( -0.0000000000000000000, 1.000000000000000000, -0.0000000000000000000 ) ) ;
#179 = ORIENTED_EDGE ( 'NONE', *, *, #233, .F. ) ;
#180 = EDGE_LOOP ( 'NONE', ( #179, #372, #157, #325 ) ) ;
#181 = DIRECTION ( 'NONE',  ( -0.0000000000000000000, 1.000000000000000000, -0.0000000000000000000 ) ) ;
#182 = CARTESIAN_POINT ( 'NONE',  ( 3.469446951953614200E-015, 13.00000000000000000, 0.0000000000000000000 ) ) ;
#183 = CARTESIAN_POINT ( 'NONE',  ( 0.0000000000000000000, 1.499999999999994400, 15.99999999999999600 ) ) ;
#184 = SHAPE_DEFINITION_REPRESENTATION ( #262, #329 ) ;
#185 = DIRECTION ( 'NONE',  ( -0.0000000000000000000, 1.000000000000000000, -0.0000000000000000000 ) ) ;
#186 = DIRECTION ( 'NONE',  ( 0.0000000000000000000, 0.7071067811865450200, 0.7071067811865500200 ) ) ;
#187 = STYLED_ITEM ( 'NONE', ( #24 ), #329 ) ;
#188 = FACE_OUTER_BOUND ( 'NONE', #366, .T. ) ;
#189 = ADVANCED_FACE ( 'NONE', ( #109 ), #122, .F. ) ;
#190 = DIRECTION ( 'NONE',  ( 0.0000000000000000000, -1.000000000000000000, 0.0000000000000000000 ) ) ;
#191 = FILL_AREA_STYLE_COLOUR ( '', #87 ) ;
#192 = VECTOR ( 'NONE', #258, 1000.000000000000100 ) ;
#193 = DIRECTION ( 'NONE',  ( 0.0000000000000000000, 0.0000000000000000000, 1.000000000000000000 ) ) ;
#194 = ORIENTED_EDGE ( 'NONE', *, *, #149, .F. ) ;
#195 = FACE_BOUND ( 'NONE', #337, .T. ) ;
#196 = AXIS2_PLACEMENT_3D ( 'NONE', #125, #237, #129 ) ;
#197 = DIRECTION ( 'NONE',  ( 0.0000000000000000000, 0.0000000000000000000, 1.000000000000000000 ) ) ;
#198 = ORIENTED_EDGE ( 'NONE', *, *, #305, .F. ) ;
#199 = LINE ( 'NONE', #256, #192 ) ;
#200 = ORIENTED_EDGE ( 'NONE', *, *, #167, .F. ) ;
#201 = PRODUCT_DEFINITION_CONTEXT ( 'detailed design', #9, 'design' ) ;
#202 = CARTESIAN_POINT ( 'NONE',  ( 0.0000000000000000000, 49.53375124641246400, 0.0000000000000000000 ) ) ;
#203 = CIRCLE ( 'NONE', #170, 8.999999999999994700 ) ;
#204 = CYLINDRICAL_SURFACE ( 'NONE', #370, 8.999999999999996400 ) ;
#205 = FACE_OUTER_BOUND ( 'NONE', #132, .T. ) ;
#206 = EDGE_CURVE ( 'NONE', #341, #279, #355, .T. ) ;
#207 = CYLINDRICAL_SURFACE ( 'NONE', #46, 15.99999999999999600 ) ;
#208 = CARTESIAN_POINT ( 'NONE',  ( 12.33896267925306700, 11.00000000000000400, 1.511087114994591400E-015 ) ) ;
#209 = LINE ( 'NONE', #183, #214 ) ;
#210 = CARTESIAN_POINT ( 'NONE',  ( 0.0000000000000000000, 0.0000000000000000000, 0.0000000000000000000 ) ) ;
#211 = AXIS2_PLACEMENT_3D ( 'NONE', #229, #190, #241 ) ;
#212 = FACE_BOUND ( 'NONE', #342, .T. ) ;
#213 = FACE_OUTER_BOUND ( 'NONE', #166, .T. ) ;
#214 = VECTOR ( 'NONE', #186, 1000.000000000000000 ) ;
#215 = AXIS2_PLACEMENT_3D ( 'NONE', #81, #51, #47 ) ;
#216 = LINE ( 'NONE', #364, #353 ) ;
#217 = PLANE ( 'NONE',  #239 ) ;
#218 = FACE_OUTER_BOUND ( 'NONE', #40, .T. ) ;
#219 = CONICAL_SURFACE ( 'NONE', #101, 15.19999999999999200, 0.7853981633974503900 ) ;
#220 = CARTESIAN_POINT ( 'NONE',  ( 0.0000000000000000000, 10.99999999999999600, 0.0000000000000000000 ) ) ;
#221 = CIRCLE ( 'NONE', #354, 12.50000000000000000 ) ;
#222 = SURFACE_SIDE_STYLE ('',( #148 ) ) ;
#223 = AXIS2_PLACEMENT_3D ( 'NONE', #7, #145, #150 ) ;
#224 = CARTESIAN_POINT ( 'NONE',  ( 0.0000000000000000000, 3.759796386924695900E-015, 0.0000000000000000000 ) ) ;
#225 = CIRCLE ( 'NONE', #60, 12.50000000000000000 ) ;
#226 = ORIENTED_EDGE ( 'NONE', *, *, #96, .F. ) ;
#227 = ORIENTED_EDGE ( 'NONE', *, *, #140, .F. ) ;
#228 = AXIS2_PLACEMENT_3D ( 'NONE', #248, #153, #155 ) ;
#229 = CARTESIAN_POINT ( 'NONE',  ( 0.0000000000000000000, 10.99999999999999600, 0.0000000000000000000 ) ) ;
#230 = CIRCLE ( 'NONE', #383, 8.999999999999998200 ) ;
#231 = CONICAL_SURFACE ( 'NONE', #131, 15.99999999999999600, 0.7853981633974517200 ) ;
#232 = ORIENTED_EDGE ( 'NONE', *, *, #133, .F. ) ;
#233 = EDGE_CURVE ( 'NONE', #279, #117, #76, .T. ) ;
#234 = DIRECTION ( 'NONE',  ( 0.0000000000000000000, -1.000000000000000000, 0.0000000000000000000 ) ) ;
#235 = CIRCLE ( 'NONE', #276, 8.999999999999998200 ) ;
#236 = FACE_OUTER_BOUND ( 'NONE', #303, .T. ) ;
#237 = DIRECTION ( 'NONE',  ( 0.0000000000000000000, 0.0000000000000000000, 1.000000000000000000 ) ) ;
#238 = SPHERICAL_SURFACE ( 'NONE', #316, 12.50000000000000000 ) ;
#239 = AXIS2_PLACEMENT_3D ( 'NONE', #159, #293, #197 ) ;
#240 = DIRECTION ( 'NONE',  ( 0.0000000000000000000, 0.0000000000000000000, 1.000000000000000000 ) ) ;
#241 = DIRECTION ( 'NONE',  ( 0.0000000000000000000, 0.0000000000000000000, -1.000000000000000000 ) ) ;
#242 = EDGE_LOOP ( 'NONE', ( #290, #266 ) ) ;
#243 = FACE_OUTER_BOUND ( 'NONE', #374, .T. ) ;
#244 = CIRCLE ( 'NONE', #352, 15.19999999999998900 ) ;
#245 = CARTESIAN_POINT ( 'NONE',  ( 0.0000000000000000000, 10.19999999999999400, 0.0000000000000000000 ) ) ;
#246 = EDGE_CURVE ( 'NONE', #281, #92, #66, .T. ) ;
#247 = ORIENTED_EDGE ( 'NONE', *, *, #259, .T. ) ;
#248 = CARTESIAN_POINT ( 'NONE',  ( -8.999999999999994700, 3.759796386924695900E-015, 0.0000000000000000000 ) ) ;
#249 = ORIENTED_EDGE ( 'NONE', *, *, #29, .T. ) ;
#250 = EDGE_CURVE ( 'NONE', #171, #279, #112, .T. ) ;
#251 = EDGE_CURVE ( 'NONE', #171, #285, #335, .T. ) ;
#252 = DIRECTION ( 'NONE',  ( -0.0000000000000000000, 1.000000000000000000, -0.0000000000000000000 ) ) ;
#253 = ORIENTED_EDGE ( 'NONE', *, *, #85, .T. ) ;
#254 = EDGE_LOOP ( 'NONE', ( #226, #360, #348, #232 ) ) ;
#255 = DIRECTION ( 'NONE',  ( 0.0000000000000000000, 0.0000000000000000000, 1.000000000000000000 ) ) ;
#256 = CARTESIAN_POINT ( 'NONE',  ( 0.0000000000000000000, 10.99999999999999600, -15.19999999999999200 ) ) ;
#257 = DIRECTION ( 'NONE',  ( 0.0000000000000000000, 0.0000000000000000000, 1.000000000000000000 ) ) ;
#258 = DIRECTION ( 'NONE',  ( 0.0000000000000000000, -0.7071067811865460200, -0.7071067811865489100 ) ) ;
#259 = EDGE_CURVE ( 'NONE', #117, #285, #162, .T. ) ;
#260 = ORIENTED_EDGE ( 'NONE', *, *, #74, .T. ) ;
#261 = EDGE_LOOP ( 'NONE', ( #198, #274, #278, #361, #284 ) ) ;
#262 = PRODUCT_DEFINITION_SHAPE ( 'NONE', 'NONE',  #54 ) ;
#263 = ADVANCED_FACE ( 'NONE', ( #267 ), #207, .T. ) ;
#264 = DIRECTION ( 'NONE',  ( 0.0000000000000000000, 0.0000000000000000000, 1.000000000000000000 ) ) ;
#265 = DIRECTION ( 'NONE',  ( 0.0000000000000000000, 0.0000000000000000000, 1.000000000000000000 ) ) ;
#266 = ORIENTED_EDGE ( 'NONE', *, *, #345, .T. ) ;
#267 = FACE_OUTER_BOUND ( 'NONE', #180, .T. ) ;
#268 = CARTESIAN_POINT ( 'NONE',  ( -12.33896267925306300, 11.00000000000000400, 0.0000000000000000000 ) ) ;
#269 = DIRECTION ( 'NONE',  ( 0.0000000000000000000, -1.000000000000000000, 0.0000000000000000000 ) ) ;
#270 =( GEOMETRIC_REPRESENTATION_CONTEXT ( 3 ) GLOBAL_UNCERTAINTY_ASSIGNED_CONTEXT ( ( #8 ) ) GLOBAL_UNIT_ASSIGNED_CONTEXT ( ( #63, #15, #33 ) ) REPRESENTATION_CONTEXT ( 'NONE', 'WORKASPACE' ) );
#271 = MANIFOLD_SOLID_BREP ( 'Chanfrein2', #357 ) ;
#272 = DIRECTION ( 'NONE',  ( -0.0000000000000000000, 1.000000000000000000, -0.0000000000000000000 ) ) ;
#273 = CARTESIAN_POINT ( 'NONE',  ( 0.0000000000000000000, 6.938893903907228400E-015, 0.0000000000000000000 ) ) ;
#274 = ORIENTED_EDGE ( 'NONE', *, *, #126, .F. ) ;
#275 = VERTEX_POINT ( 'NONE', #16 ) ;
#276 = AXIS2_PLACEMENT_3D ( 'NONE', #88, #95, #172 ) ;
#277 = DIRECTION ( 'NONE',  ( -0.0000000000000000000, 1.000000000000000000, -0.0000000000000000000 ) ) ;
#278 = ORIENTED_EDGE ( 'NONE', *, *, #313, .T. ) ;
#279 = VERTEX_POINT ( 'NONE', #111 ) ;
#280 = DIRECTION ( 'NONE',  ( 0.0000000000000000000, 0.0000000000000000000, 1.000000000000000000 ) ) ;
#281 = VERTEX_POINT ( 'NONE', #164 ) ;
#282 = AXIS2_PLACEMENT_3D ( 'NONE', #376, #185, #59 ) ;
#283 = EDGE_CURVE ( 'NONE', #306, #341, #82, .T. ) ;
#284 = ORIENTED_EDGE ( 'NONE', *, *, #246, .T. ) ;
#285 = VERTEX_POINT ( 'NONE', #75 ) ;
#286 = EDGE_CURVE ( 'NONE', #279, #171, #147, .T. ) ;
#287 = CARTESIAN_POINT ( 'NONE',  ( 0.0000000000000000000, 1.499999999999994400, 0.0000000000000000000 ) ) ;
#288 = ORIENTED_EDGE ( 'NONE', *, *, #116, .F. ) ;
#289 =( NAMED_UNIT ( * ) PLANE_ANGLE_UNIT ( ) SI_UNIT ( $, .RADIAN. ) );
#290 = ORIENTED_EDGE ( 'NONE', *, *, #283, .T. ) ;
#291 = VERTEX_POINT ( 'NONE', #161 ) ;
#292 = EDGE_CURVE ( 'NONE', #10, #4, #56, .T. ) ;
#293 = DIRECTION ( 'NONE',  ( -0.0000000000000000000, 1.000000000000000000, 0.0000000000000000000 ) ) ;
#294 = CARTESIAN_POINT ( 'NONE',  ( 0.0000000000000000000, 4.325324213551265700, 0.0000000000000000000 ) ) ;
#295 = ORIENTED_EDGE ( 'NONE', *, *, #286, .F. ) ;
#296 = CARTESIAN_POINT ( 'NONE',  ( 0.0000000000000000000, 11.00000000000000000, 0.0000000000000000000 ) ) ;
#297 = ORIENTED_EDGE ( 'NONE', *, *, #206, .F. ) ;
#298 = CARTESIAN_POINT ( 'NONE',  ( 0.0000000000000000000, 4.325324213551265700, 8.999999999999998200 ) ) ;
#299 =( GEOMETRIC_REPRESENTATION_CONTEXT ( 3 ) GLOBAL_UNCERTAINTY_ASSIGNED_CONTEXT ( ( #48 ) ) GLOBAL_UNIT_ASSIGNED_CONTEXT ( ( #363, #289, #93 ) ) REPRESENTATION_CONTEXT ( 'NONE', 'WORKASPACE' ) );
#300 = CARTESIAN_POINT ( 'NONE',  ( 0.0000000000000000000, 11.00000000000000000, -15.19999999999998900 ) ) ;
#301 = DIRECTION ( 'NONE',  ( -0.0000000000000000000, 1.000000000000000000, -0.0000000000000000000 ) ) ;
#302 = ORIENTED_EDGE ( 'NONE', *, *, #74, .F. ) ;
#303 = EDGE_LOOP ( 'NONE', ( #302, #384, #142, #253, #307 ) ) ;
#304 = ORIENTED_EDGE ( 'NONE', *, *, #233, .T. ) ;
#305 = EDGE_CURVE ( 'NONE', #291, #92, #216, .T. ) ;
#306 = VERTEX_POINT ( 'NONE', #45 ) ;
#307 = ORIENTED_EDGE ( 'NONE', *, *, #292, .T. ) ;
#308 = DIRECTION ( 'NONE',  ( 0.0000000000000000000, 0.0000000000000000000, 1.000000000000000000 ) ) ;
#309 = ORIENTED_EDGE ( 'NONE', *, *, #140, .T. ) ;
#310 = ORIENTED_EDGE ( 'NONE', *, *, #346, .F. ) ;
#311 = ORIENTED_EDGE ( 'NONE', *, *, #345, .F. ) ;
#312 = LINE ( 'NONE', #19, #377 ) ;
#313 = EDGE_CURVE ( 'NONE', #275, #338, #312, .T. ) ;
#314 = ORIENTED_EDGE ( 'NONE', *, *, #116, .T. ) ;
#315 = VERTEX_POINT ( 'NONE', #80 ) ;
#316 = AXIS2_PLACEMENT_3D ( 'NONE', #120, #257, #127 ) ;
#317 = DIRECTION ( 'NONE',  ( -0.0000000000000000000, 1.000000000000000000, -0.0000000000000000000 ) ) ;
#318 = ORIENTED_EDGE ( 'NONE', *, *, #313, .F. ) ;
#319 = VERTEX_POINT ( 'NONE', #39 ) ;
#320 = ORIENTED_EDGE ( 'NONE', *, *, #96, .T. ) ;
#321 = AXIS2_PLACEMENT_3D ( 'NONE', #11, #65, #3 ) ;
#322 = CARTESIAN_POINT ( 'NONE',  ( 0.0000000000000000000, 49.53375124641246400, 0.0000000000000000000 ) ) ;
#323 = DIRECTION ( 'NONE',  ( -1.000000000000000000, 0.0000000000000000000, 0.0000000000000000000 ) ) ;
#324 = ORIENTED_EDGE ( 'NONE', *, *, #292, .F. ) ;
#325 = ORIENTED_EDGE ( 'NONE', *, *, #167, .T. ) ;
#326 = ORIENTED_EDGE ( 'NONE', *, *, #126, .T. ) ;
#327 = MECHANICAL_DESIGN_GEOMETRIC_PRESENTATION_REPRESENTATION (  '', ( #340 ), #299 ) ;
#328 = ADVANCED_FACE ( 'NONE', ( #382 ), #18, .T. ) ;
#329 = ADVANCED_BREP_SHAPE_REPRESENTATION ( '000012-03', ( #271, #17 ), #270 ) ;
#330 = PRESENTATION_STYLE_ASSIGNMENT (( #14 ) ) ;
#331 = ORIENTED_EDGE ( 'NONE', *, *, #250, .T. ) ;
#332 = ORIENTED_EDGE ( 'NONE', *, *, #26, .T. ) ;
#333 = DIRECTION ( 'NONE',  ( 0.0000000000000000000, 0.0000000000000000000, 1.000000000000000000 ) ) ;
#334 = DIRECTION ( 'NONE',  ( 0.0000000000000000000, 0.0000000000000000000, -1.000000000000000000 ) ) ;
#335 = LINE ( 'NONE', #347, #136 ) ;
#336 = CARTESIAN_POINT ( 'NONE',  ( 0.0000000000000000000, 11.00000000000000000, 0.0000000000000000000 ) ) ;
#337 = EDGE_LOOP ( 'NONE', ( #326, #249 ) ) ;
#338 = VERTEX_POINT ( 'NONE', #298 ) ;
#339 = DIRECTION ( 'NONE',  ( 0.0000000000000000000, 0.0000000000000000000, 1.000000000000000000 ) ) ;
#340 = STYLED_ITEM ( 'NONE', ( #330 ), #271 ) ;
#341 = VERTEX_POINT ( 'NONE', #42 ) ;
#342 = EDGE_LOOP ( 'NONE', ( #324, #288 ) ) ;
#343 = DIRECTION ( 'NONE',  ( -1.224646799147353200E-016, 0.0000000000000000000, 1.000000000000000000 ) ) ;
#344 = DIRECTION ( 'NONE',  ( -0.0000000000000000000, 1.000000000000000000, -0.0000000000000000000 ) ) ;
#345 = EDGE_CURVE ( 'NONE', #341, #306, #69, .T. ) ;
#346 = EDGE_CURVE ( 'NONE', #92, #315, #386, .T. ) ;
#347 = CARTESIAN_POINT ( 'NONE',  ( 0.0000000000000000000, 49.53375124641246400, 15.99999999999999600 ) ) ;
#348 = ORIENTED_EDGE ( 'NONE', *, *, #259, .F. ) ;
#349 = ORIENTED_EDGE ( 'NONE', *, *, #133, .T. ) ;
#350 = CARTESIAN_POINT ( 'NONE',  ( 0.0000000000000000000, 11.00000000000000400, 0.0000000000000000000 ) ) ;
#351 = DIRECTION ( 'NONE',  ( -0.0000000000000000000, 1.000000000000000000, -0.0000000000000000000 ) ) ;
#352 = AXIS2_PLACEMENT_3D ( 'NONE', #336, #301, #308 ) ;
#353 = VECTOR ( 'NONE', #143, 1000.000000000000000 ) ;
#354 = AXIS2_PLACEMENT_3D ( 'NONE', #31, #343, #103 ) ;
#355 = LINE ( 'NONE', #21, #100 ) ;
#356 = ORIENTED_EDGE ( 'NONE', *, *, #121, .T. ) ;
#357 = CLOSED_SHELL ( 'NONE', ( #53, #35, #139, #146, #189, #106, #12, #138, #263, #135, #328, #144 ) ) ;
#358 = DIRECTION ( 'NONE',  ( 1.000000000000000000, 0.0000000000000000000, 0.0000000000000000000 ) ) ;
#359 = CARTESIAN_POINT ( 'NONE',  ( 0.0000000000000000000, 49.53375124641246400, 0.0000000000000000000 ) ) ;
#360 = ORIENTED_EDGE ( 'NONE', *, *, #149, .T. ) ;
#361 = ORIENTED_EDGE ( 'NONE', *, *, #119, .T. ) ;
#362 = ORIENTED_EDGE ( 'NONE', *, *, #283, .F. ) ;
#363 =( LENGTH_UNIT ( ) NAMED_UNIT ( * ) SI_UNIT ( .MILLI., .METRE. ) );
#364 = CARTESIAN_POINT ( 'NONE',  ( 1.102182119232617300E-015, 49.53375124641246400, -8.999999999999996400 ) ) ;
#365 = FILL_AREA_STYLE ('',( #22 ) ) ;
#366 = EDGE_LOOP ( 'NONE', ( #356, #320 ) ) ;
#367 = CARTESIAN_POINT ( 'NONE',  ( 1.959434878635764700E-015, 10.19999999999999400, -15.99999999999999600 ) ) ;
#368 = ORIENTED_EDGE ( 'NONE', *, *, #29, .F. ) ;
#369 = DIRECTION ( 'NONE',  ( -0.0000000000000000000, 1.000000000000000000, -0.0000000000000000000 ) ) ;
#370 = AXIS2_PLACEMENT_3D ( 'NONE', #359, #317, #240 ) ;
#371 = CARTESIAN_POINT ( 'NONE',  ( 0.0000000000000000000, 3.759796386924695900E-015, 0.0000000000000000000 ) ) ;
#372 = ORIENTED_EDGE ( 'NONE', *, *, #286, .T. ) ;
#373 = ORIENTED_EDGE ( 'NONE', *, *, #346, .T. ) ;
#374 = EDGE_LOOP ( 'NONE', ( #311, #379, #118, #227 ) ) ;
#375 = AXIS2_PLACEMENT_3D ( 'NONE', #202, #178, #193 ) ;
#376 = CARTESIAN_POINT ( 'NONE',  ( 0.0000000000000000000, 4.325324213551265700, 0.0000000000000000000 ) ) ;
#377 = VECTOR ( 'NONE', #72, 1000.000000000000000 ) ;
#378 = DIRECTION ( 'NONE',  ( 0.0000000000000000000, 0.0000000000000000000, 1.000000000000000000 ) ) ;
#379 = ORIENTED_EDGE ( 'NONE', *, *, #206, .T. ) ;
#380 = VERTEX_POINT ( 'NONE', #300 ) ;
#381 = DIRECTION ( 'NONE',  ( 0.0000000000000000000, 0.0000000000000000000, 1.000000000000000000 ) ) ;
#382 = FACE_OUTER_BOUND ( 'NONE', #385, .T. ) ;
#383 = AXIS2_PLACEMENT_3D ( 'NONE', #294, #252, #255 ) ;
#384 = ORIENTED_EDGE ( 'NONE', *, *, #119, .F. ) ;
#385 = EDGE_LOOP ( 'NONE', ( #297, #362, #309, #295 ) ) ;
#386 = CIRCLE ( 'NONE', #282, 8.999999999999998200 ) ;
ENDSEC;
END-ISO-10303-21;
