ISO-10303-21;
HEADER;
FILE_DESCRIPTION(('CATIA V5 STEP'),'2;1');

FILE_NAME('X:\\SIC - Groupe Atlantic\\210030 - GABARIT DE POINTAGE GAMME 4000\\3D\\STEP\\210030 04 026 - 0 - TOUCHE D.stp','2022-07-28T12:46:00+00:00',('none'),('none'),'CATIA Version 5 Release 19 SP 5 (IN-10)','CATIA V5 STEP AP203 Edition 2','none');

FILE_SCHEMA(('AP203_CONFIGURATION_CONTROLLED_3D_DESIGN_OF_MECHANICAL_PARTS_AND_ASSEMBLIES_MIM_LF  { 1 0 10303 403 2 1 2}'));

ENDSEC;
/* file written by CATIA V5R19 */
DATA;
#5=PRODUCT('210030 04 026 - TOUCHE D','','',(#2)) ;
#2=PRODUCT_CONTEXT(' ',#1,'mechanical') ;
#1=APPLICATION_CONTEXT('configuration controlled 3D design of mechanical parts and assemblies') ;
#14=PRODUCT_DEFINITION('',' ',#6,#3) ;
#3=PRODUCT_DEFINITION_CONTEXT('part definition',#1,' ') ;
#15=PRODUCT_DEFINITION_SHAPE(' ',' ',#14) ;
#509=SHAPE_REPRESENTATION_RELATIONSHIP(' ',' ',#24,#508) ;
#34=STYLED_ITEM(' ',(#33),#26) ;
#33=PRESENTATION_STYLE_ASSIGNMENT((#32)) ;
#32=SURFACE_STYLE_USAGE(.BOTH.,#31) ;
#31=SURFACE_SIDE_STYLE(' ',(#30)) ;
#30=SURFACE_STYLE_FILL_AREA(#29) ;
#29=FILL_AREA_STYLE(' ',(#28)) ;
#28=FILL_AREA_STYLE_COLOUR(' ',#27) ;
#43=VECTOR('Line Direction',#42,1.) ;
#59=VECTOR('Line Direction',#58,1.) ;
#100=VECTOR('Line Direction',#99,1.) ;
#109=VECTOR('Line Direction',#108,1.) ;
#116=VECTOR('Line Direction',#115,1.) ;
#123=VECTOR('Line Direction',#122,1.) ;
#130=VECTOR('Line Direction',#129,1.) ;
#137=VECTOR('Line Direction',#136,1.) ;
#144=VECTOR('Line Direction',#143,1.) ;
#151=VECTOR('Line Direction',#150,1.) ;
#172=VECTOR('Line Direction',#171,1.) ;
#179=VECTOR('Line Direction',#178,1.) ;
#186=VECTOR('Line Direction',#185,1.) ;
#203=VECTOR('Line Direction',#202,1.) ;
#210=VECTOR('Line Direction',#209,1.) ;
#217=VECTOR('Line Direction',#216,1.) ;
#238=VECTOR('Line Direction',#237,1.) ;
#247=VECTOR('Line Direction',#246,1.) ;
#252=VECTOR('Line Direction',#251,1.) ;
#273=VECTOR('Line Direction',#272,1.) ;
#280=VECTOR('Line Direction',#279,1.) ;
#287=VECTOR('Line Direction',#286,1.) ;
#304=VECTOR('Line Direction',#303,1.) ;
#313=VECTOR('Line Direction',#312,1.) ;
#318=VECTOR('Line Direction',#317,1.) ;
#336=VECTOR('Line Direction',#335,1.) ;
#343=VECTOR('Line Direction',#342,1.) ;
#360=VECTOR('Line Direction',#359,1.) ;
#367=VECTOR('Line Direction',#366,1.) ;
#387=VECTOR('Line Direction',#386,1.) ;
#399=VECTOR('Line Direction',#398,1.) ;
#408=VECTOR('Line Direction',#407,1.) ;
#413=VECTOR('Line Direction',#412,1.) ;
#430=VECTOR('Line Direction',#429,1.) ;
#437=VECTOR('Line Direction',#436,1.) ;
#455=VECTOR('Line Direction',#454,1.) ;
#462=VECTOR('Line Direction',#461,1.) ;
#482=VECTOR('Line Direction',#481,1.) ;
#37=DIRECTION('Axis2P3D Direction',(-0.,1.,0.)) ;
#38=DIRECTION('Axis2P3D XDirection',(0.87758256189,0.,-0.479425538604)) ;
#42=DIRECTION('Vector Direction',(0.,1.,0.)) ;
#51=DIRECTION('Axis2P3D Direction',(-0.,1.,0.)) ;
#58=DIRECTION('Vector Direction',(0.,1.,0.)) ;
#65=DIRECTION('Axis2P3D Direction',(-0.,1.,0.)) ;
#77=DIRECTION('Axis2P3D Direction',(-0.,1.,0.)) ;
#82=DIRECTION('Axis2P3D Direction',(-0.,1.,0.)) ;
#94=DIRECTION('Axis2P3D Direction',(0.766044443119,0.642787609687,0.)) ;
#95=DIRECTION('Axis2P3D XDirection',(0.642787609687,-0.766044443119,0.)) ;
#99=DIRECTION('Vector Direction',(-0.642787609687,0.766044443119,0.)) ;
#108=DIRECTION('Vector Direction',(0.,0.,-1.)) ;
#115=DIRECTION('Vector Direction',(-0.642787609687,0.766044443119,2.26794714303E-016)) ;
#122=DIRECTION('Vector Direction',(0.,0.,-1.)) ;
#129=DIRECTION('Vector Direction',(0.642787609687,-0.766044443119,0.)) ;
#136=DIRECTION('Vector Direction',(0.,0.,-1.)) ;
#143=DIRECTION('Vector Direction',(0.642787609687,-0.766044443119,0.)) ;
#150=DIRECTION('Vector Direction',(0.,0.,-1.)) ;
#166=DIRECTION('Axis2P3D Direction',(1.,0.,0.)) ;
#167=DIRECTION('Axis2P3D XDirection',(0.,-1.,0.)) ;
#171=DIRECTION('Vector Direction',(0.,-1.,0.)) ;
#178=DIRECTION('Vector Direction',(0.,-1.,0.)) ;
#185=DIRECTION('Vector Direction',(0.,0.,-1.)) ;
#197=DIRECTION('Axis2P3D Direction',(0.,1.,0.)) ;
#198=DIRECTION('Axis2P3D XDirection',(0.,0.,-1.)) ;
#202=DIRECTION('Vector Direction',(-1.,0.,0.)) ;
#209=DIRECTION('Vector Direction',(0.,0.,-1.)) ;
#216=DIRECTION('Vector Direction',(-1.,0.,0.)) ;
#232=DIRECTION('Axis2P3D Direction',(-0.,-1.,-0.)) ;
#233=DIRECTION('Axis2P3D XDirection',(-1.,0.,0.)) ;
#237=DIRECTION('Vector Direction',(0.,0.,-1.)) ;
#246=DIRECTION('Vector Direction',(-1.,0.,0.)) ;
#251=DIRECTION('Vector Direction',(-1.,0.,0.)) ;
#267=DIRECTION('Axis2P3D Direction',(-0.707106781187,-0.707106781187,-0.)) ;
#268=DIRECTION('Axis2P3D XDirection',(0.,0.,-1.)) ;
#272=DIRECTION('Vector Direction',(0.707106781187,-0.707106781187,0.)) ;
#279=DIRECTION('Vector Direction',(0.,0.,-1.)) ;
#286=DIRECTION('Vector Direction',(0.707106781187,-0.707106781187,0.)) ;
#298=DIRECTION('Axis2P3D Direction',(0.,-0.,1.)) ;
#299=DIRECTION('Axis2P3D XDirection',(0.,1.,0.)) ;
#303=DIRECTION('Vector Direction',(0.707106781187,0.707106781187,0.)) ;
#312=DIRECTION('Vector Direction',(-1.,0.,0.)) ;
#317=DIRECTION('Vector Direction',(0.,1.,0.)) ;
#330=DIRECTION('Axis2P3D Direction',(-0.,1.,0.)) ;
#331=DIRECTION('Axis2P3D XDirection',(1.,0.,0.)) ;
#335=DIRECTION('Vector Direction',(0.,0.,1.)) ;
#342=DIRECTION('Vector Direction',(1.,0.,0.)) ;
#354=DIRECTION('Axis2P3D Direction',(0.,0.,1.)) ;
#355=DIRECTION('Axis2P3D XDirection',(1.,0.,0.)) ;
#359=DIRECTION('Vector Direction',(0.,1.,0.)) ;
#366=DIRECTION('Vector Direction',(-0.707106781187,-0.707106781187,0.)) ;
#381=DIRECTION('Axis2P3D Direction',(-0.707106781187,0.707106781187,0.)) ;
#382=DIRECTION('Axis2P3D XDirection',(0.,0.,1.)) ;
#386=DIRECTION('Vector Direction',(0.,0.,1.)) ;
#398=DIRECTION('Vector Direction',(0.,0.,1.)) ;
#407=DIRECTION('Vector Direction',(-1.,0.,0.)) ;
#412=DIRECTION('Vector Direction',(1.,0.,0.)) ;
#424=DIRECTION('Axis2P3D Direction',(-0.,-0.,-1.)) ;
#425=DIRECTION('Axis2P3D XDirection',(0.,-1.,0.)) ;
#429=DIRECTION('Vector Direction',(0.707106781187,0.707106781187,0.)) ;
#436=DIRECTION('Vector Direction',(0.,-1.,0.)) ;
#449=DIRECTION('Axis2P3D Direction',(0.,0.,1.)) ;
#450=DIRECTION('Axis2P3D XDirection',(1.,0.,0.)) ;
#454=DIRECTION('Vector Direction',(-0.707106781187,-0.707106781187,0.)) ;
#461=DIRECTION('Vector Direction',(0.,1.,0.)) ;
#476=DIRECTION('Axis2P3D Direction',(-1.,0.,0.)) ;
#477=DIRECTION('Axis2P3D XDirection',(0.,1.,0.)) ;
#481=DIRECTION('Vector Direction',(0.,0.,1.)) ;
#497=DIRECTION('Axis2P3D Direction',(-0.707106781187,0.707106781187,0.)) ;
#498=DIRECTION('Axis2P3D XDirection',(0.,0.,1.)) ;
#22=CARTESIAN_POINT(' ',(0.,0.,0.)) ;
#36=CARTESIAN_POINT('Axis2P3D Location',(-202.,-175.9,-1.38777878078E-017)) ;
#41=CARTESIAN_POINT('Line Origine',(-203.422561333,-175.,0.777148798077)) ;
#45=CARTESIAN_POINT('Vertex',(-203.422561333,-168.,0.777148798077)) ;
#47=CARTESIAN_POINT('Vertex',(-203.422561333,-176.,0.777148798077)) ;
#50=CARTESIAN_POINT('Axis2P3D Location',(-202.,-168.,-1.38777878078E-017)) ;
#54=CARTESIAN_POINT('Vertex',(-200.577438667,-168.,-0.777148798077)) ;
#57=CARTESIAN_POINT('Line Origine',(-200.577438667,-175.,-0.777148798077)) ;
#61=CARTESIAN_POINT('Vertex',(-200.577438667,-176.,-0.777148798077)) ;
#64=CARTESIAN_POINT('Axis2P3D Location',(-202.,-176.,-1.38777878078E-017)) ;
#76=CARTESIAN_POINT('Axis2P3D Location',(-202.,-168.,-1.38777878078E-017)) ;
#81=CARTESIAN_POINT('Axis2P3D Location',(-202.,-176.,-1.38777878078E-017)) ;
#93=CARTESIAN_POINT('Axis2P3D Location',(-215.,-170.082464074,0.)) ;
#98=CARTESIAN_POINT('Line Origine',(-207.517298894,-179.,-6.)) ;
#102=CARTESIAN_POINT('Vertex',(-205.,-182.,-6.)) ;
#104=CARTESIAN_POINT('Vertex',(-210.034597787,-176.,-6.)) ;
#107=CARTESIAN_POINT('Line Origine',(-210.034597787,-176.,4.26325641456E-014)) ;
#111=CARTESIAN_POINT('Vertex',(-210.034597787,-176.,6.)) ;
#114=CARTESIAN_POINT('Line Origine',(-207.517298894,-179.,6.)) ;
#118=CARTESIAN_POINT('Vertex',(-205.,-182.,6.)) ;
#121=CARTESIAN_POINT('Line Origine',(-205.,-182.,8.)) ;
#125=CARTESIAN_POINT('Vertex',(-205.,-182.,10.)) ;
#128=CARTESIAN_POINT('Line Origine',(-210.,-176.041232037,10.)) ;
#132=CARTESIAN_POINT('Vertex',(-215.,-170.082464074,10.)) ;
#135=CARTESIAN_POINT('Line Origine',(-215.,-170.082464074,-2.)) ;
#139=CARTESIAN_POINT('Vertex',(-215.,-170.082464074,-14.)) ;
#142=CARTESIAN_POINT('Line Origine',(-210.,-176.041232037,-14.)) ;
#146=CARTESIAN_POINT('Vertex',(-205.,-182.,-14.)) ;
#149=CARTESIAN_POINT('Line Origine',(-205.,-182.,-10.)) ;
#165=CARTESIAN_POINT('Axis2P3D Location',(-215.,-168.,0.)) ;
#170=CARTESIAN_POINT('Line Origine',(-215.,-169.041232037,-14.)) ;
#174=CARTESIAN_POINT('Vertex',(-215.,-168.,-14.)) ;
#177=CARTESIAN_POINT('Line Origine',(-215.,-169.041232037,10.)) ;
#181=CARTESIAN_POINT('Vertex',(-215.,-168.,10.)) ;
#184=CARTESIAN_POINT('Line Origine',(-215.,-168.,-2.)) ;
#196=CARTESIAN_POINT('Axis2P3D Location',(-197.,-176.,6.)) ;
#201=CARTESIAN_POINT('Line Origine',(-203.517298894,-176.,-6.)) ;
#205=CARTESIAN_POINT('Vertex',(-197.,-176.,-6.)) ;
#208=CARTESIAN_POINT('Line Origine',(-197.,-176.,4.26325641456E-014)) ;
#212=CARTESIAN_POINT('Vertex',(-197.,-176.,6.)) ;
#215=CARTESIAN_POINT('Line Origine',(-203.517298894,-176.,6.)) ;
#231=CARTESIAN_POINT('Axis2P3D Location',(-197.,-168.,0.)) ;
#236=CARTESIAN_POINT('Line Origine',(-199.,-168.,-2.)) ;
#240=CARTESIAN_POINT('Vertex',(-199.,-168.,10.)) ;
#242=CARTESIAN_POINT('Vertex',(-199.,-168.,-14.)) ;
#245=CARTESIAN_POINT('Line Origine',(-207.,-168.,-14.)) ;
#250=CARTESIAN_POINT('Line Origine',(-207.,-168.,10.)) ;
#266=CARTESIAN_POINT('Axis2P3D Location',(-199.,-168.,14.8)) ;
#271=CARTESIAN_POINT('Line Origine',(-198.,-169.,10.)) ;
#275=CARTESIAN_POINT('Vertex',(-197.,-170.,10.)) ;
#278=CARTESIAN_POINT('Line Origine',(-197.,-170.,-2.)) ;
#282=CARTESIAN_POINT('Vertex',(-197.,-170.,-14.)) ;
#285=CARTESIAN_POINT('Line Origine',(-198.,-169.,-14.)) ;
#297=CARTESIAN_POINT('Axis2P3D Location',(-197.,-182.,6.)) ;
#302=CARTESIAN_POINT('Line Origine',(-198.,-181.,6.)) ;
#306=CARTESIAN_POINT('Vertex',(-199.,-182.,6.)) ;
#308=CARTESIAN_POINT('Vertex',(-197.,-180.,6.)) ;
#311=CARTESIAN_POINT('Line Origine',(-202.,-182.,6.)) ;
#316=CARTESIAN_POINT('Line Origine',(-197.,-178.,6.)) ;
#329=CARTESIAN_POINT('Axis2P3D Location',(-205.,-182.,0.)) ;
#334=CARTESIAN_POINT('Line Origine',(-199.,-182.,8.)) ;
#338=CARTESIAN_POINT('Vertex',(-199.,-182.,10.)) ;
#341=CARTESIAN_POINT('Line Origine',(-202.,-182.,10.)) ;
#353=CARTESIAN_POINT('Axis2P3D Location',(0.,0.,10.)) ;
#358=CARTESIAN_POINT('Line Origine',(-197.,-175.,10.)) ;
#362=CARTESIAN_POINT('Vertex',(-197.,-180.,10.)) ;
#365=CARTESIAN_POINT('Line Origine',(-198.,-181.,10.)) ;
#380=CARTESIAN_POINT('Axis2P3D Location',(-199.,-182.,-18.8)) ;
#385=CARTESIAN_POINT('Line Origine',(-197.,-180.,-2.)) ;
#397=CARTESIAN_POINT('Line Origine',(-199.,-182.,-10.)) ;
#401=CARTESIAN_POINT('Vertex',(-199.,-182.,-6.)) ;
#403=CARTESIAN_POINT('Vertex',(-199.,-182.,-14.)) ;
#406=CARTESIAN_POINT('Line Origine',(-202.,-182.,-6.)) ;
#411=CARTESIAN_POINT('Line Origine',(-202.,-182.,-14.)) ;
#423=CARTESIAN_POINT('Axis2P3D Location',(-197.,-176.,-6.)) ;
#428=CARTESIAN_POINT('Line Origine',(-198.,-181.,-6.)) ;
#432=CARTESIAN_POINT('Vertex',(-197.,-180.,-6.)) ;
#435=CARTESIAN_POINT('Line Origine',(-197.,-178.,-6.)) ;
#448=CARTESIAN_POINT('Axis2P3D Location',(0.,0.,-14.)) ;
#453=CARTESIAN_POINT('Line Origine',(-198.,-181.,-14.)) ;
#457=CARTESIAN_POINT('Vertex',(-197.,-180.,-14.)) ;
#460=CARTESIAN_POINT('Line Origine',(-197.,-175.,-14.)) ;
#475=CARTESIAN_POINT('Axis2P3D Location',(-197.,-182.,0.)) ;
#480=CARTESIAN_POINT('Line Origine',(-197.,-180.,-10.)) ;
#496=CARTESIAN_POINT('Axis2P3D Location',(-199.,-182.,-18.8)) ;
#510=MECHANICAL_DESIGN_GEOMETRIC_PRESENTATION_REPRESENTATION(' ',(#34),#21) ;
#24=SHAPE_REPRESENTATION(' ',(#23),#21) ;
#23=AXIS2_PLACEMENT_3D(' ',#22,$,$) ;
#39=AXIS2_PLACEMENT_3D('Cylinder Axis2P3D',#36,#37,#38) ;
#52=AXIS2_PLACEMENT_3D('Circle Axis2P3D',#50,#51,$) ;
#66=AXIS2_PLACEMENT_3D('Circle Axis2P3D',#64,#65,$) ;
#78=AXIS2_PLACEMENT_3D('Circle Axis2P3D',#76,#77,$) ;
#83=AXIS2_PLACEMENT_3D('Circle Axis2P3D',#81,#82,$) ;
#96=AXIS2_PLACEMENT_3D('Plane Axis2P3D',#93,#94,#95) ;
#168=AXIS2_PLACEMENT_3D('Plane Axis2P3D',#165,#166,#167) ;
#199=AXIS2_PLACEMENT_3D('Plane Axis2P3D',#196,#197,#198) ;
#234=AXIS2_PLACEMENT_3D('Plane Axis2P3D',#231,#232,#233) ;
#269=AXIS2_PLACEMENT_3D('Plane Axis2P3D',#266,#267,#268) ;
#300=AXIS2_PLACEMENT_3D('Plane Axis2P3D',#297,#298,#299) ;
#332=AXIS2_PLACEMENT_3D('Plane Axis2P3D',#329,#330,#331) ;
#356=AXIS2_PLACEMENT_3D('Plane Axis2P3D',#353,#354,#355) ;
#383=AXIS2_PLACEMENT_3D('Plane Axis2P3D',#380,#381,#382) ;
#426=AXIS2_PLACEMENT_3D('Plane Axis2P3D',#423,#424,#425) ;
#451=AXIS2_PLACEMENT_3D('Plane Axis2P3D',#448,#449,#450) ;
#478=AXIS2_PLACEMENT_3D('Plane Axis2P3D',#475,#476,#477) ;
#499=AXIS2_PLACEMENT_3D('Plane Axis2P3D',#496,#497,#498) ;
#13=DATE_AND_TIME(#11,#12) ;
#12=LOCAL_TIME(14,46,0.,#10) ;
#10=COORDINATED_UNIVERSAL_TIME_OFFSET(0,0,.AHEAD.) ;
#7=PRODUCT_CATEGORY('part','specification') ;
#11=CALENDAR_DATE(2022,28,7) ;
#8=PRODUCT_RELATED_PRODUCT_CATEGORY('part',$,(#5)) ;
#20=UNCERTAINTY_MEASURE_WITH_UNIT(LENGTH_MEASURE(0.005),#16,'distance_accuracy_value','CONFUSED CURVE UNCERTAINTY') ;
#229=FACE_BOUND('',#226,.T.) ;
#264=FACE_BOUND('',#261,.T.) ;
#49=EDGE_CURVE('',#46,#48,#44,.F.) ;
#56=EDGE_CURVE('',#55,#46,#53,.F.) ;
#63=EDGE_CURVE('',#55,#62,#60,.F.) ;
#68=EDGE_CURVE('',#48,#62,#67,.T.) ;
#80=EDGE_CURVE('',#46,#55,#79,.F.) ;
#85=EDGE_CURVE('',#62,#48,#84,.T.) ;
#106=EDGE_CURVE('',#103,#105,#101,.T.) ;
#113=EDGE_CURVE('',#112,#105,#110,.T.) ;
#120=EDGE_CURVE('',#119,#112,#117,.T.) ;
#127=EDGE_CURVE('',#126,#119,#124,.T.) ;
#134=EDGE_CURVE('',#133,#126,#131,.T.) ;
#141=EDGE_CURVE('',#133,#140,#138,.T.) ;
#148=EDGE_CURVE('',#140,#147,#145,.T.) ;
#153=EDGE_CURVE('',#103,#147,#152,.T.) ;
#176=EDGE_CURVE('',#175,#140,#173,.T.) ;
#183=EDGE_CURVE('',#182,#133,#180,.T.) ;
#188=EDGE_CURVE('',#182,#175,#187,.T.) ;
#207=EDGE_CURVE('',#206,#105,#204,.T.) ;
#214=EDGE_CURVE('',#206,#213,#211,.F.) ;
#219=EDGE_CURVE('',#213,#112,#218,.T.) ;
#244=EDGE_CURVE('',#241,#243,#239,.T.) ;
#249=EDGE_CURVE('',#243,#175,#248,.T.) ;
#254=EDGE_CURVE('',#241,#182,#253,.T.) ;
#277=EDGE_CURVE('',#241,#276,#274,.T.) ;
#284=EDGE_CURVE('',#276,#283,#281,.T.) ;
#289=EDGE_CURVE('',#283,#243,#288,.F.) ;
#310=EDGE_CURVE('',#307,#309,#305,.T.) ;
#315=EDGE_CURVE('',#307,#119,#314,.T.) ;
#320=EDGE_CURVE('',#213,#309,#319,.F.) ;
#340=EDGE_CURVE('',#339,#307,#337,.F.) ;
#345=EDGE_CURVE('',#126,#339,#344,.T.) ;
#364=EDGE_CURVE('',#363,#276,#361,.T.) ;
#369=EDGE_CURVE('',#363,#339,#368,.T.) ;
#389=EDGE_CURVE('',#363,#309,#388,.F.) ;
#405=EDGE_CURVE('',#402,#404,#400,.F.) ;
#410=EDGE_CURVE('',#402,#103,#409,.T.) ;
#415=EDGE_CURVE('',#147,#404,#414,.T.) ;
#434=EDGE_CURVE('',#433,#402,#431,.F.) ;
#439=EDGE_CURVE('',#433,#206,#438,.F.) ;
#459=EDGE_CURVE('',#404,#458,#456,.F.) ;
#464=EDGE_CURVE('',#458,#283,#463,.T.) ;
#484=EDGE_CURVE('',#433,#458,#483,.F.) ;
#97=PLANE('Plane',#96) ;
#169=PLANE('Plane',#168) ;
#200=PLANE('Plane',#199) ;
#235=PLANE('Plane',#234) ;
#270=PLANE('Plane',#269) ;
#301=PLANE('Plane',#300) ;
#333=PLANE('Plane',#332) ;
#357=PLANE('Plane',#356) ;
#384=PLANE('Plane',#383) ;
#427=PLANE('Plane',#426) ;
#452=PLANE('Plane',#451) ;
#479=PLANE('Plane',#478) ;
#500=PLANE('Plane',#499) ;
#70=ORIENTED_EDGE('',*,*,#49,.F.) ;
#71=ORIENTED_EDGE('',*,*,#56,.F.) ;
#72=ORIENTED_EDGE('',*,*,#63,.T.) ;
#73=ORIENTED_EDGE('',*,*,#68,.F.) ;
#87=ORIENTED_EDGE('',*,*,#63,.F.) ;
#88=ORIENTED_EDGE('',*,*,#80,.F.) ;
#89=ORIENTED_EDGE('',*,*,#49,.T.) ;
#90=ORIENTED_EDGE('',*,*,#85,.F.) ;
#155=ORIENTED_EDGE('',*,*,#106,.T.) ;
#156=ORIENTED_EDGE('',*,*,#113,.F.) ;
#157=ORIENTED_EDGE('',*,*,#120,.F.) ;
#158=ORIENTED_EDGE('',*,*,#127,.F.) ;
#159=ORIENTED_EDGE('',*,*,#134,.F.) ;
#160=ORIENTED_EDGE('',*,*,#141,.T.) ;
#161=ORIENTED_EDGE('',*,*,#148,.T.) ;
#162=ORIENTED_EDGE('',*,*,#153,.F.) ;
#190=ORIENTED_EDGE('',*,*,#176,.T.) ;
#191=ORIENTED_EDGE('',*,*,#141,.F.) ;
#192=ORIENTED_EDGE('',*,*,#183,.F.) ;
#193=ORIENTED_EDGE('',*,*,#188,.T.) ;
#221=ORIENTED_EDGE('',*,*,#113,.T.) ;
#222=ORIENTED_EDGE('',*,*,#207,.F.) ;
#223=ORIENTED_EDGE('',*,*,#214,.T.) ;
#224=ORIENTED_EDGE('',*,*,#219,.T.) ;
#227=ORIENTED_EDGE('',*,*,#68,.T.) ;
#228=ORIENTED_EDGE('',*,*,#85,.T.) ;
#256=ORIENTED_EDGE('',*,*,#244,.T.) ;
#257=ORIENTED_EDGE('',*,*,#249,.T.) ;
#258=ORIENTED_EDGE('',*,*,#188,.F.) ;
#259=ORIENTED_EDGE('',*,*,#254,.F.) ;
#262=ORIENTED_EDGE('',*,*,#56,.T.) ;
#263=ORIENTED_EDGE('',*,*,#80,.T.) ;
#291=ORIENTED_EDGE('',*,*,#244,.F.) ;
#292=ORIENTED_EDGE('',*,*,#277,.T.) ;
#293=ORIENTED_EDGE('',*,*,#284,.T.) ;
#294=ORIENTED_EDGE('',*,*,#289,.T.) ;
#322=ORIENTED_EDGE('',*,*,#310,.F.) ;
#323=ORIENTED_EDGE('',*,*,#315,.T.) ;
#324=ORIENTED_EDGE('',*,*,#120,.T.) ;
#325=ORIENTED_EDGE('',*,*,#219,.F.) ;
#326=ORIENTED_EDGE('',*,*,#320,.T.) ;
#347=ORIENTED_EDGE('',*,*,#340,.F.) ;
#348=ORIENTED_EDGE('',*,*,#345,.F.) ;
#349=ORIENTED_EDGE('',*,*,#127,.T.) ;
#350=ORIENTED_EDGE('',*,*,#315,.F.) ;
#371=ORIENTED_EDGE('',*,*,#364,.T.) ;
#372=ORIENTED_EDGE('',*,*,#277,.F.) ;
#373=ORIENTED_EDGE('',*,*,#254,.T.) ;
#374=ORIENTED_EDGE('',*,*,#183,.T.) ;
#375=ORIENTED_EDGE('',*,*,#134,.T.) ;
#376=ORIENTED_EDGE('',*,*,#345,.T.) ;
#377=ORIENTED_EDGE('',*,*,#369,.F.) ;
#391=ORIENTED_EDGE('',*,*,#389,.F.) ;
#392=ORIENTED_EDGE('',*,*,#369,.T.) ;
#393=ORIENTED_EDGE('',*,*,#340,.T.) ;
#394=ORIENTED_EDGE('',*,*,#310,.T.) ;
#417=ORIENTED_EDGE('',*,*,#405,.F.) ;
#418=ORIENTED_EDGE('',*,*,#410,.T.) ;
#419=ORIENTED_EDGE('',*,*,#153,.T.) ;
#420=ORIENTED_EDGE('',*,*,#415,.T.) ;
#441=ORIENTED_EDGE('',*,*,#434,.F.) ;
#442=ORIENTED_EDGE('',*,*,#439,.T.) ;
#443=ORIENTED_EDGE('',*,*,#207,.T.) ;
#444=ORIENTED_EDGE('',*,*,#106,.F.) ;
#445=ORIENTED_EDGE('',*,*,#410,.F.) ;
#466=ORIENTED_EDGE('',*,*,#459,.F.) ;
#467=ORIENTED_EDGE('',*,*,#415,.F.) ;
#468=ORIENTED_EDGE('',*,*,#148,.F.) ;
#469=ORIENTED_EDGE('',*,*,#176,.F.) ;
#470=ORIENTED_EDGE('',*,*,#249,.F.) ;
#471=ORIENTED_EDGE('',*,*,#289,.F.) ;
#472=ORIENTED_EDGE('',*,*,#464,.F.) ;
#486=ORIENTED_EDGE('',*,*,#484,.T.) ;
#487=ORIENTED_EDGE('',*,*,#464,.T.) ;
#488=ORIENTED_EDGE('',*,*,#284,.F.) ;
#489=ORIENTED_EDGE('',*,*,#364,.F.) ;
#490=ORIENTED_EDGE('',*,*,#389,.T.) ;
#491=ORIENTED_EDGE('',*,*,#320,.F.) ;
#492=ORIENTED_EDGE('',*,*,#214,.F.) ;
#493=ORIENTED_EDGE('',*,*,#439,.F.) ;
#502=ORIENTED_EDGE('',*,*,#484,.F.) ;
#503=ORIENTED_EDGE('',*,*,#434,.T.) ;
#504=ORIENTED_EDGE('',*,*,#405,.T.) ;
#505=ORIENTED_EDGE('',*,*,#459,.T.) ;
#35=CLOSED_SHELL('Closed Shell',(#75,#92,#164,#195,#230,#265,#296,#328,#352,#379,#396,#422,#447,#474,#495,#507)) ;
#508=ADVANCED_BREP_SHAPE_REPRESENTATION('NONE',(#26),#21) ;
#6=PRODUCT_DEFINITION_FORMATION_WITH_SPECIFIED_SOURCE('',' ',#5,.NOT_KNOWN.) ;
#44=LINE('Line',#41,#43) ;
#60=LINE('Line',#57,#59) ;
#101=LINE('Line',#98,#100) ;
#110=LINE('Line',#107,#109) ;
#117=LINE('Line',#114,#116) ;
#124=LINE('Line',#121,#123) ;
#131=LINE('Line',#128,#130) ;
#138=LINE('Line',#135,#137) ;
#145=LINE('Line',#142,#144) ;
#152=LINE('Line',#149,#151) ;
#173=LINE('Line',#170,#172) ;
#180=LINE('Line',#177,#179) ;
#187=LINE('Line',#184,#186) ;
#204=LINE('Line',#201,#203) ;
#211=LINE('Line',#208,#210) ;
#218=LINE('Line',#215,#217) ;
#239=LINE('Line',#236,#238) ;
#248=LINE('Line',#245,#247) ;
#253=LINE('Line',#250,#252) ;
#274=LINE('Line',#271,#273) ;
#281=LINE('Line',#278,#280) ;
#288=LINE('Line',#285,#287) ;
#305=LINE('Line',#302,#304) ;
#314=LINE('Line',#311,#313) ;
#319=LINE('Line',#316,#318) ;
#337=LINE('Line',#334,#336) ;
#344=LINE('Line',#341,#343) ;
#361=LINE('Line',#358,#360) ;
#368=LINE('Line',#365,#367) ;
#388=LINE('Line',#385,#387) ;
#400=LINE('Line',#397,#399) ;
#409=LINE('Line',#406,#408) ;
#414=LINE('Line',#411,#413) ;
#431=LINE('Line',#428,#430) ;
#438=LINE('Line',#435,#437) ;
#456=LINE('Line',#453,#455) ;
#463=LINE('Line',#460,#462) ;
#483=LINE('Line',#480,#482) ;
#75=ADVANCED_FACE('Corps principal',(#74),#40,.F.) ;
#92=ADVANCED_FACE('Corps principal',(#91),#40,.F.) ;
#164=ADVANCED_FACE('Corps principal',(#163),#97,.F.) ;
#195=ADVANCED_FACE('Corps principal',(#194),#169,.F.) ;
#230=ADVANCED_FACE('Corps principal',(#225,#229),#200,.F.) ;
#265=ADVANCED_FACE('Corps principal',(#260,#264),#235,.F.) ;
#296=ADVANCED_FACE('Corps principal',(#295),#270,.F.) ;
#328=ADVANCED_FACE('Corps principal',(#327),#301,.F.) ;
#352=ADVANCED_FACE('Corps principal',(#351),#333,.F.) ;
#379=ADVANCED_FACE('Corps principal',(#378),#357,.T.) ;
#396=ADVANCED_FACE('Corps principal',(#395),#384,.F.) ;
#422=ADVANCED_FACE('Corps principal',(#421),#333,.F.) ;
#447=ADVANCED_FACE('Corps principal',(#446),#427,.F.) ;
#474=ADVANCED_FACE('Corps principal',(#473),#452,.F.) ;
#495=ADVANCED_FACE('Corps principal',(#494),#479,.F.) ;
#507=ADVANCED_FACE('Corps principal',(#506),#500,.F.) ;
#53=CIRCLE('generated circle',#52,1.621) ;
#67=CIRCLE('generated circle',#66,1.621) ;
#79=CIRCLE('generated circle',#78,1.621) ;
#84=CIRCLE('generated circle',#83,1.621) ;
#40=CYLINDRICAL_SURFACE('generated cylinder',#39,1.621) ;
#46=VERTEX_POINT('',#45) ;
#48=VERTEX_POINT('',#47) ;
#55=VERTEX_POINT('',#54) ;
#62=VERTEX_POINT('',#61) ;
#103=VERTEX_POINT('',#102) ;
#105=VERTEX_POINT('',#104) ;
#112=VERTEX_POINT('',#111) ;
#119=VERTEX_POINT('',#118) ;
#126=VERTEX_POINT('',#125) ;
#133=VERTEX_POINT('',#132) ;
#140=VERTEX_POINT('',#139) ;
#147=VERTEX_POINT('',#146) ;
#175=VERTEX_POINT('',#174) ;
#182=VERTEX_POINT('',#181) ;
#206=VERTEX_POINT('',#205) ;
#213=VERTEX_POINT('',#212) ;
#241=VERTEX_POINT('',#240) ;
#243=VERTEX_POINT('',#242) ;
#276=VERTEX_POINT('',#275) ;
#283=VERTEX_POINT('',#282) ;
#307=VERTEX_POINT('',#306) ;
#309=VERTEX_POINT('',#308) ;
#339=VERTEX_POINT('',#338) ;
#363=VERTEX_POINT('',#362) ;
#402=VERTEX_POINT('',#401) ;
#404=VERTEX_POINT('',#403) ;
#433=VERTEX_POINT('',#432) ;
#458=VERTEX_POINT('',#457) ;
#27=COLOUR_RGB('Colour',1.,0.501960784314,0.) ;
#26=MANIFOLD_SOLID_BREP('Corps principal',#35) ;
#25=SHAPE_DEFINITION_REPRESENTATION(#15,#24) ;
#9=PRODUCT_CATEGORY_RELATIONSHIP(' ',' ',#7,#8) ;
#18=PLANE_ANGLE_MEASURE_WITH_UNIT(PLANE_ANGLE_MEASURE(0.0174532925199),#17) ;
#4=APPLICATION_PROTOCOL_DEFINITION('draft international standard','configuration_control_3d_design_ed2_mim',2004,#1) ;
#69=EDGE_LOOP('',(#70,#71,#72,#73)) ;
#86=EDGE_LOOP('',(#87,#88,#89,#90)) ;
#154=EDGE_LOOP('',(#155,#156,#157,#158,#159,#160,#161,#162)) ;
#189=EDGE_LOOP('',(#190,#191,#192,#193)) ;
#220=EDGE_LOOP('',(#221,#222,#223,#224)) ;
#226=EDGE_LOOP('',(#227,#228)) ;
#255=EDGE_LOOP('',(#256,#257,#258,#259)) ;
#261=EDGE_LOOP('',(#262,#263)) ;
#290=EDGE_LOOP('',(#291,#292,#293,#294)) ;
#321=EDGE_LOOP('',(#322,#323,#324,#325,#326)) ;
#346=EDGE_LOOP('',(#347,#348,#349,#350)) ;
#370=EDGE_LOOP('',(#371,#372,#373,#374,#375,#376,#377)) ;
#390=EDGE_LOOP('',(#391,#392,#393,#394)) ;
#416=EDGE_LOOP('',(#417,#418,#419,#420)) ;
#440=EDGE_LOOP('',(#441,#442,#443,#444,#445)) ;
#465=EDGE_LOOP('',(#466,#467,#468,#469,#470,#471,#472)) ;
#485=EDGE_LOOP('',(#486,#487,#488,#489,#490,#491,#492,#493)) ;
#501=EDGE_LOOP('',(#502,#503,#504,#505)) ;
#74=FACE_OUTER_BOUND('',#69,.T.) ;
#91=FACE_OUTER_BOUND('',#86,.T.) ;
#163=FACE_OUTER_BOUND('',#154,.T.) ;
#194=FACE_OUTER_BOUND('',#189,.T.) ;
#225=FACE_OUTER_BOUND('',#220,.T.) ;
#260=FACE_OUTER_BOUND('',#255,.T.) ;
#295=FACE_OUTER_BOUND('',#290,.T.) ;
#327=FACE_OUTER_BOUND('',#321,.T.) ;
#351=FACE_OUTER_BOUND('',#346,.T.) ;
#378=FACE_OUTER_BOUND('',#370,.T.) ;
#395=FACE_OUTER_BOUND('',#390,.T.) ;
#421=FACE_OUTER_BOUND('',#416,.T.) ;
#446=FACE_OUTER_BOUND('',#440,.T.) ;
#473=FACE_OUTER_BOUND('',#465,.T.) ;
#494=FACE_OUTER_BOUND('',#485,.T.) ;
#506=FACE_OUTER_BOUND('',#501,.T.) ;
#16=(LENGTH_UNIT()NAMED_UNIT(*)SI_UNIT(.MILLI.,.METRE.)) ;
#17=(NAMED_UNIT(*)PLANE_ANGLE_UNIT()SI_UNIT($,.RADIAN.)) ;
#19=(NAMED_UNIT(*)SI_UNIT($,.STERADIAN.)SOLID_ANGLE_UNIT()) ;
#21=(GEOMETRIC_REPRESENTATION_CONTEXT(3)GLOBAL_UNCERTAINTY_ASSIGNED_CONTEXT((#20))GLOBAL_UNIT_ASSIGNED_CONTEXT((#16,#17,#19))REPRESENTATION_CONTEXT(' ',' ')) ;
ENDSEC;
END-ISO-10303-21;
