ISO-10303-21;
HEADER;
FILE_DESCRIPTION(('CATIA V5 STEP'),'2;1');

FILE_NAME('X:\\SIC - Groupe Atlantic\\210030 - GABARIT DE POINTAGE GAMME 4000\\3D\\STEP\\210030 12 003 - 0 - AXE.stp','2022-07-28T14:03:27+00:00',('none'),('none'),'CATIA Version 5 Release 19 SP 5 (IN-10)','CATIA V5 STEP AP203 Edition 2','none');

FILE_SCHEMA(('AP203_CONFIGURATION_CONTROLLED_3D_DESIGN_OF_MECHANICAL_PARTS_AND_ASSEMBLIES_MIM_LF  { 1 0 10303 403 2 1 2}'));

ENDSEC;
/* file written by CATIA V5R19 */
DATA;
#5=PRODUCT('210030 12 003 - AXE','','',(#2)) ;
#2=PRODUCT_CONTEXT(' ',#1,'mechanical') ;
#1=APPLICATION_CONTEXT('configuration controlled 3D design of mechanical parts and assemblies') ;
#14=PRODUCT_DEFINITION('',' ',#6,#3) ;
#3=PRODUCT_DEFINITION_CONTEXT('part definition',#1,' ') ;
#15=PRODUCT_DEFINITION_SHAPE(' ',' ',#14) ;
#414=SHAPE_REPRESENTATION_RELATIONSHIP(' ',' ',#24,#413) ;
#34=STYLED_ITEM(' ',(#33),#26) ;
#33=PRESENTATION_STYLE_ASSIGNMENT((#32)) ;
#32=SURFACE_STYLE_USAGE(.BOTH.,#31) ;
#31=SURFACE_SIDE_STYLE(' ',(#30)) ;
#30=SURFACE_STYLE_FILL_AREA(#29) ;
#29=FILL_AREA_STYLE(' ',(#28)) ;
#28=FILL_AREA_STYLE_COLOUR(' ',#27) ;
#43=VECTOR('Line Direction',#42,1.) ;
#68=VECTOR('Line Direction',#67,1.) ;
#101=VECTOR('Line Direction',#100,1.) ;
#117=VECTOR('Line Direction',#116,1.) ;
#194=VECTOR('Line Direction',#193,1.) ;
#201=VECTOR('Line Direction',#200,1.) ;
#271=VECTOR('Line Direction',#270,1.) ;
#287=VECTOR('Line Direction',#286,1.) ;
#323=VECTOR('Line Direction',#322,1.) ;
#328=VECTOR('Line Direction',#327,1.) ;
#37=DIRECTION('Axis2P3D Direction',(1.,0.,0.)) ;
#38=DIRECTION('Axis2P3D XDirection',(0.,1.,0.)) ;
#42=DIRECTION('Vector Direction',(1.,0.,0.)) ;
#67=DIRECTION('Vector Direction',(1.,0.,0.)) ;
#95=DIRECTION('Axis2P3D Direction',(0.,2.10223965648E-018,1.)) ;
#96=DIRECTION('Axis2P3D XDirection',(-0.479425538604,0.87758256189,-1.84488886344E-018)) ;
#100=DIRECTION('Vector Direction',(0.,0.,1.)) ;
#109=DIRECTION('Axis2P3D Direction',(0.,2.10223965648E-018,1.)) ;
#116=DIRECTION('Vector Direction',(0.,0.,1.)) ;
#123=DIRECTION('Axis2P3D Direction',(0.,2.10223965648E-018,1.)) ;
#158=DIRECTION('Axis1P Direction',(-0.,-2.10223965648E-018,-1.)) ;
#162=DIRECTION('Axis2P3D Direction',(0.87758256189,0.479425538604,-1.00786737958E-018)) ;
#169=DIRECTION('Axis2P3D Direction',(-0.87758256189,-0.479425538604,1.00786737958E-018)) ;
#176=DIRECTION('Axis2P3D Direction',(0.,2.10223965648E-018,1.)) ;
#188=DIRECTION('Axis2P3D Direction',(0.,2.10223965648E-018,1.)) ;
#189=DIRECTION('Axis2P3D XDirection',(-0.479425538604,0.87758256189,0.)) ;
#193=DIRECTION('Vector Direction',(-0.163973191427,0.300150913598,0.939692620786)) ;
#200=DIRECTION('Vector Direction',(0.163973191427,-0.300150913598,0.939692620786)) ;
#207=DIRECTION('Axis2P3D Direction',(0.,2.10223965648E-018,1.)) ;
#219=DIRECTION('Axis2P3D Direction',(0.,2.10223965648E-018,1.)) ;
#224=DIRECTION('Axis2P3D Direction',(0.,2.10223965648E-018,1.)) ;
#236=DIRECTION('Axis2P3D Direction',(0.,2.10223965648E-018,1.)) ;
#237=DIRECTION('Axis2P3D XDirection',(-0.479425538604,0.87758256189,0.)) ;
#241=DIRECTION('Axis2P3D Direction',(0.87758256189,0.479425538604,-1.00786737958E-018)) ;
#248=DIRECTION('Axis2P3D Direction',(-0.87758256189,-0.479425538604,1.00786737958E-018)) ;
#265=DIRECTION('Axis2P3D Direction',(-0.,2.10223965648E-018,1.)) ;
#266=DIRECTION('Axis2P3D XDirection',(0.87758256189,-0.479425538604,0.)) ;
#270=DIRECTION('Vector Direction',(-0.760008792515,0.415194695654,0.5)) ;
#279=DIRECTION('Axis2P3D Direction',(-0.,2.10223965648E-018,1.)) ;
#286=DIRECTION('Vector Direction',(0.760008792515,-0.415194695654,0.5)) ;
#297=DIRECTION('Axis2P3D Direction',(-0.,2.10223965648E-018,1.)) ;
#308=DIRECTION('Axis2P3D Direction',(0.,-2.10223965648E-018,-1.)) ;
#309=DIRECTION('Axis2P3D XDirection',(0.87758256189,-0.479425538604,1.00786737958E-018)) ;
#313=DIRECTION('Axis2P3D Direction',(0.,-2.10223965648E-018,-1.)) ;
#322=DIRECTION('Vector Direction',(0.,0.,-1.)) ;
#327=DIRECTION('Vector Direction',(0.,0.,-1.)) ;
#339=DIRECTION('Axis2P3D Direction',(0.,-2.10223965648E-018,-1.)) ;
#351=DIRECTION('Axis2P3D Direction',(0.,2.10223965648E-018,1.)) ;
#363=DIRECTION('Axis2P3D Direction',(0.,2.10223965648E-018,1.)) ;
#364=DIRECTION('Axis2P3D XDirection',(1.,-0.,0.)) ;
#368=DIRECTION('Axis2P3D Direction',(0.,2.10223965648E-018,1.)) ;
#22=CARTESIAN_POINT(' ',(0.,0.,0.)) ;
#36=CARTESIAN_POINT('Axis2P3D Location',(3.5527136788E-015,0.,-40.)) ;
#41=CARTESIAN_POINT('Line Origine',(3.5527136788E-015,1.75,-40.)) ;
#45=CARTESIAN_POINT('Vertex',(7.70373286141,1.75,-40.)) ;
#47=CARTESIAN_POINT('Vertex',(-7.70373286141,1.75,-40.)) ;
#51=CARTESIAN_POINT('Control Point',(-7.70373286141,-1.75,-40.)) ;
#52=CARTESIAN_POINT('Control Point',(-7.70373286141,-1.75,-40.4494901171)) ;
#53=CARTESIAN_POINT('Control Point',(-7.73651589155,-1.60568473904,-40.8989800837)) ;
#54=CARTESIAN_POINT('Control Point',(-7.80256406548,-1.31908880009,-41.2814816556)) ;
#55=CARTESIAN_POINT('Control Point',(-7.88368884417,-0.738437365414,-41.6807406618)) ;
#56=CARTESIAN_POINT('Control Point',(-7.9047450775,-0.061323790494,-41.7708991218)) ;
#57=CARTESIAN_POINT('Control Point',(-7.90313237173,0.167660695309,-41.7639871231)) ;
#58=CARTESIAN_POINT('Control Point',(-7.87411058649,0.816832100922,-41.6374634286)) ;
#59=CARTESIAN_POINT('Control Point',(-7.79354407836,1.35814383089,-41.2272671495)) ;
#60=CARTESIAN_POINT('Control Point',(-7.73351808709,1.61888147318,-40.8568917761)) ;
#61=CARTESIAN_POINT('Control Point',(-7.70373286141,1.75,-40.4284459564)) ;
#62=CARTESIAN_POINT('Control Point',(-7.70373286141,1.75,-40.)) ;
#63=CARTESIAN_POINT('Vertex',(-7.70373286141,-1.75,-40.)) ;
#66=CARTESIAN_POINT('Line Origine',(3.5527136788E-015,-1.75,-40.)) ;
#70=CARTESIAN_POINT('Vertex',(7.70373286141,-1.75,-40.)) ;
#74=CARTESIAN_POINT('Control Point',(7.70373286141,-1.75,-40.)) ;
#75=CARTESIAN_POINT('Control Point',(7.70373286141,-1.75,-40.4494901171)) ;
#76=CARTESIAN_POINT('Control Point',(7.73651589156,-1.60568473903,-40.8989800837)) ;
#77=CARTESIAN_POINT('Control Point',(7.80256406547,-1.31908880012,-41.2814816556)) ;
#78=CARTESIAN_POINT('Control Point',(7.88368884418,-0.738437365401,-41.6807406618)) ;
#79=CARTESIAN_POINT('Control Point',(7.9047450775,-0.061323790425,-41.7708991218)) ;
#80=CARTESIAN_POINT('Control Point',(7.90313237173,0.167660695241,-41.7639871231)) ;
#81=CARTESIAN_POINT('Control Point',(7.87411058649,0.816832100878,-41.6374634286)) ;
#82=CARTESIAN_POINT('Control Point',(7.79354407836,1.35814383086,-41.2272671495)) ;
#83=CARTESIAN_POINT('Control Point',(7.73351808709,1.61888147319,-40.8568917761)) ;
#84=CARTESIAN_POINT('Control Point',(7.70373286141,1.75,-40.4284459564)) ;
#85=CARTESIAN_POINT('Control Point',(7.70373286141,1.75,-40.)) ;
#94=CARTESIAN_POINT('Axis2P3D Location',(0.,-6.30671896944E-017,-30.)) ;
#99=CARTESIAN_POINT('Line Origine',(-3.78746175497,6.93290223893,-21.5923533416)) ;
#103=CARTESIAN_POINT('Vertex',(-3.78746175497,6.93290223893,-43.1847066833)) ;
#105=CARTESIAN_POINT('Vertex',(-3.78746175497,6.93290223893,-1.42254293372E-014)) ;
#108=CARTESIAN_POINT('Axis2P3D Location',(0.,-3.69778549322E-032,-1.42108547152E-014)) ;
#112=CARTESIAN_POINT('Vertex',(3.78746175497,-6.93290223893,-1.41962800932E-014)) ;
#115=CARTESIAN_POINT('Line Origine',(3.78746175497,-6.93290223893,-21.5923533416)) ;
#119=CARTESIAN_POINT('Vertex',(3.78746175497,-6.93290223893,-43.1847066833)) ;
#122=CARTESIAN_POINT('Axis2P3D Location',(0.,-9.0784602943E-017,-43.1847066833)) ;
#134=CARTESIAN_POINT('Control Point',(7.70373286141,1.75,-40.)) ;
#135=CARTESIAN_POINT('Control Point',(7.70373286141,1.75,-39.5505098829)) ;
#136=CARTESIAN_POINT('Control Point',(7.73651589156,1.60568473906,-39.1010228319)) ;
#137=CARTESIAN_POINT('Control Point',(7.80256442478,1.31909145549,-38.7185192397)) ;
#138=CARTESIAN_POINT('Control Point',(7.88368866429,0.738436036075,-38.31925889)) ;
#139=CARTESIAN_POINT('Control Point',(7.90474516756,0.0613244560349,-38.2291011026)) ;
#140=CARTESIAN_POINT('Control Point',(7.90313226645,-0.167660042231,-38.2360126108)) ;
#141=CARTESIAN_POINT('Control Point',(7.87411078693,-0.816833344253,-38.3625370779)) ;
#142=CARTESIAN_POINT('Control Point',(7.79354369676,-1.35814146346,-38.772731886)) ;
#143=CARTESIAN_POINT('Control Point',(7.73351808709,-1.61888147326,-39.143110873)) ;
#144=CARTESIAN_POINT('Control Point',(7.70373286141,-1.75,-39.5715540437)) ;
#145=CARTESIAN_POINT('Control Point',(7.70373286141,-1.75,-40.)) ;
#153=CARTESIAN_POINT('Control Point',(-3.64289726617,6.66827871718,-44.8948073999)) ;
#154=CARTESIAN_POINT('Control Point',(-3.73829300201,6.84289944035,-44.3481163936)) ;
#155=CARTESIAN_POINT('Control Point',(-3.78746175497,6.93290223893,-43.7664831006)) ;
#156=CARTESIAN_POINT('Control Point',(-3.78746175497,6.93290223893,-43.1847066833)) ;
#157=CARTESIAN_POINT('Axis1P Location',(0.,0.,-43.1847066833)) ;
#161=CARTESIAN_POINT('Axis2P3D Location',(-1.39033406195,2.54498942948,-43.1847066833)) ;
#165=CARTESIAN_POINT('Vertex',(-3.64289726617,6.66827871718,-44.8948073999)) ;
#168=CARTESIAN_POINT('Axis2P3D Location',(1.39033406195,-2.54498942948,-43.1847066833)) ;
#172=CARTESIAN_POINT('Vertex',(3.64289726617,-6.66827871718,-44.8948073999)) ;
#175=CARTESIAN_POINT('Axis2P3D Location',(0.,-3.59504154307E-018,-44.8948073999)) ;
#187=CARTESIAN_POINT('Axis2P3D Location',(0.,-1.21984685345E-016,-58.02606043)) ;
#192=CARTESIAN_POINT('Line Origine',(-2.49721759435,4.5711261449,-51.4604339149)) ;
#196=CARTESIAN_POINT('Vertex',(-1.35153792253,2.47397357262,-58.02606043)) ;
#199=CARTESIAN_POINT('Line Origine',(2.49721759435,-4.5711261449,-51.4604339149)) ;
#203=CARTESIAN_POINT('Vertex',(1.35153792253,-2.47397357262,-58.02606043)) ;
#206=CARTESIAN_POINT('Axis2P3D Location',(0.,-1.21984685345E-016,-58.02606043)) ;
#218=CARTESIAN_POINT('Axis2P3D Location',(0.,-9.43796444861E-017,-44.8948073999)) ;
#223=CARTESIAN_POINT('Axis2P3D Location',(0.,-1.21984685345E-016,-58.02606043)) ;
#235=CARTESIAN_POINT('Axis2P3D Location',(0.,0.,-57.)) ;
#240=CARTESIAN_POINT('Axis2P3D Location',(0.,0.,-57.)) ;
#244=CARTESIAN_POINT('Vertex',(-8.80661341139E-017,1.54897258225E-016,-60.)) ;
#247=CARTESIAN_POINT('Axis2P3D Location',(0.,0.,-57.)) ;
#264=CARTESIAN_POINT('Axis2P3D Location',(-3.88578058619E-016,-4.08242656574E-017,-19.4194156368)) ;
#269=CARTESIAN_POINT('Line Origine',(-1.0787683642,0.589333843329,-18.7097078184)) ;
#273=CARTESIAN_POINT('Vertex',(-3.88578058619E-016,-4.08242656574E-017,-19.4194156368)) ;
#275=CARTESIAN_POINT('Vertex',(-2.15753672841,1.17866768666,-18.)) ;
#278=CARTESIAN_POINT('Axis2P3D Location',(-3.88578058619E-016,-3.78403138167E-017,-18.)) ;
#282=CARTESIAN_POINT('Vertex',(2.15753672841,-1.17866768666,-18.)) ;
#285=CARTESIAN_POINT('Line Origine',(1.0787683642,-0.589333843329,-18.7097078184)) ;
#296=CARTESIAN_POINT('Axis2P3D Location',(-3.88578058619E-016,-3.78403138167E-017,-18.)) ;
#307=CARTESIAN_POINT('Axis2P3D Location',(-3.88578058619E-016,-2.10223965648E-019,-0.1)) ;
#312=CARTESIAN_POINT('Axis2P3D Location',(-3.88578058619E-016,0.,0.)) ;
#316=CARTESIAN_POINT('Vertex',(2.15753672841,-1.17866768666,-3.5834464105E-016)) ;
#318=CARTESIAN_POINT('Vertex',(-2.15753672841,1.17866768666,-3.63300324956E-016)) ;
#321=CARTESIAN_POINT('Line Origine',(-2.15753672841,1.17866768666,-8.84499999978)) ;
#326=CARTESIAN_POINT('Line Origine',(2.15753672841,-1.17866768666,-8.84499999978)) ;
#338=CARTESIAN_POINT('Axis2P3D Location',(-3.88578058619E-016,0.,0.)) ;
#350=CARTESIAN_POINT('Axis2P3D Location',(0.,0.,-43.1847066833)) ;
#362=CARTESIAN_POINT('Axis2P3D Location',(0.,0.,0.)) ;
#367=CARTESIAN_POINT('Axis2P3D Location',(0.,0.,0.)) ;
#388=CARTESIAN_POINT('Control Point',(-7.70373286141,1.75,-40.)) ;
#389=CARTESIAN_POINT('Control Point',(-7.70373286141,1.75,-39.5505098829)) ;
#390=CARTESIAN_POINT('Control Point',(-7.73651589156,1.60568473907,-39.1010228319)) ;
#391=CARTESIAN_POINT('Control Point',(-7.80256442478,1.31909145546,-38.7185192397)) ;
#392=CARTESIAN_POINT('Control Point',(-7.88368866429,0.738436036043,-38.31925889)) ;
#393=CARTESIAN_POINT('Control Point',(-7.90474516756,0.0613244559994,-38.2291011026)) ;
#394=CARTESIAN_POINT('Control Point',(-7.90313226645,-0.167660042195,-38.2360126108)) ;
#395=CARTESIAN_POINT('Control Point',(-7.87411078693,-0.816833344297,-38.3625370779)) ;
#396=CARTESIAN_POINT('Control Point',(-7.79354369674,-1.35814146355,-38.7727318861)) ;
#397=CARTESIAN_POINT('Control Point',(-7.73351808709,-1.61888147322,-39.1431108729)) ;
#398=CARTESIAN_POINT('Control Point',(-7.70373286141,-1.75,-39.5715540436)) ;
#399=CARTESIAN_POINT('Control Point',(-7.70373286141,-1.75,-40.)) ;
#415=MECHANICAL_DESIGN_GEOMETRIC_PRESENTATION_REPRESENTATION(' ',(#34),#21) ;
#24=SHAPE_REPRESENTATION(' ',(#23),#21) ;
#23=AXIS2_PLACEMENT_3D(' ',#22,$,$) ;
#39=AXIS2_PLACEMENT_3D('Cylinder Axis2P3D',#36,#37,#38) ;
#97=AXIS2_PLACEMENT_3D('Cylinder Axis2P3D',#94,#95,#96) ;
#110=AXIS2_PLACEMENT_3D('Circle Axis2P3D',#108,#109,$) ;
#124=AXIS2_PLACEMENT_3D('Circle Axis2P3D',#122,#123,$) ;
#163=AXIS2_PLACEMENT_3D('Circle Axis2P3D',#161,#162,$) ;
#170=AXIS2_PLACEMENT_3D('Circle Axis2P3D',#168,#169,$) ;
#177=AXIS2_PLACEMENT_3D('Circle Axis2P3D',#175,#176,$) ;
#190=AXIS2_PLACEMENT_3D('Cone Axis2P3D',#187,#188,#189) ;
#208=AXIS2_PLACEMENT_3D('Circle Axis2P3D',#206,#207,$) ;
#220=AXIS2_PLACEMENT_3D('Circle Axis2P3D',#218,#219,$) ;
#225=AXIS2_PLACEMENT_3D('Circle Axis2P3D',#223,#224,$) ;
#238=AXIS2_PLACEMENT_3D('Sphere Axis2P3D',#235,#236,#237) ;
#242=AXIS2_PLACEMENT_3D('Circle Axis2P3D',#240,#241,$) ;
#249=AXIS2_PLACEMENT_3D('Circle Axis2P3D',#247,#248,$) ;
#267=AXIS2_PLACEMENT_3D('Cone Axis2P3D',#264,#265,#266) ;
#280=AXIS2_PLACEMENT_3D('Circle Axis2P3D',#278,#279,$) ;
#298=AXIS2_PLACEMENT_3D('Circle Axis2P3D',#296,#297,$) ;
#310=AXIS2_PLACEMENT_3D('Cylinder Axis2P3D',#307,#308,#309) ;
#314=AXIS2_PLACEMENT_3D('Circle Axis2P3D',#312,#313,$) ;
#340=AXIS2_PLACEMENT_3D('Circle Axis2P3D',#338,#339,$) ;
#352=AXIS2_PLACEMENT_3D('Circle Axis2P3D',#350,#351,$) ;
#365=AXIS2_PLACEMENT_3D('Plane Axis2P3D',#362,#363,#364) ;
#369=AXIS2_PLACEMENT_3D('Circle Axis2P3D',#367,#368,$) ;
#13=DATE_AND_TIME(#11,#12) ;
#12=LOCAL_TIME(16,3,25.,#10) ;
#10=COORDINATED_UNIVERSAL_TIME_OFFSET(0,0,.AHEAD.) ;
#7=PRODUCT_CATEGORY('part','specification') ;
#11=CALENDAR_DATE(2022,28,7) ;
#8=PRODUCT_RELATED_PRODUCT_CATEGORY('part',$,(#5)) ;
#20=UNCERTAINTY_MEASURE_WITH_UNIT(LENGTH_MEASURE(0.005),#16,'distance_accuracy_value','CONFUSED CURVE UNCERTAINTY') ;
#150=FACE_BOUND('',#147,.T.) ;
#379=FACE_BOUND('',#376,.T.) ;
#404=FACE_BOUND('',#401,.T.) ;
#159=AXIS1_PLACEMENT('Revolution Surface Axis1P',#157,#158) ;
#49=EDGE_CURVE('',#46,#48,#44,.F.) ;
#65=EDGE_CURVE('',#64,#48,#50,.T.) ;
#72=EDGE_CURVE('',#71,#64,#69,.F.) ;
#86=EDGE_CURVE('',#71,#46,#73,.T.) ;
#107=EDGE_CURVE('',#104,#106,#102,.T.) ;
#114=EDGE_CURVE('',#113,#106,#111,.T.) ;
#121=EDGE_CURVE('',#120,#113,#118,.T.) ;
#126=EDGE_CURVE('',#120,#104,#125,.T.) ;
#146=EDGE_CURVE('',#46,#71,#133,.T.) ;
#167=EDGE_CURVE('',#166,#104,#164,.T.) ;
#174=EDGE_CURVE('',#173,#120,#171,.T.) ;
#179=EDGE_CURVE('',#173,#166,#178,.T.) ;
#198=EDGE_CURVE('',#197,#166,#195,.T.) ;
#205=EDGE_CURVE('',#204,#173,#202,.T.) ;
#210=EDGE_CURVE('',#204,#197,#209,.T.) ;
#222=EDGE_CURVE('',#166,#173,#221,.T.) ;
#227=EDGE_CURVE('',#197,#204,#226,.T.) ;
#246=EDGE_CURVE('',#245,#197,#243,.T.) ;
#251=EDGE_CURVE('',#245,#204,#250,.T.) ;
#277=EDGE_CURVE('',#274,#276,#272,.T.) ;
#284=EDGE_CURVE('',#283,#276,#281,.F.) ;
#289=EDGE_CURVE('',#274,#283,#288,.T.) ;
#300=EDGE_CURVE('',#276,#283,#299,.F.) ;
#320=EDGE_CURVE('',#317,#319,#315,.F.) ;
#325=EDGE_CURVE('',#276,#319,#324,.F.) ;
#330=EDGE_CURVE('',#283,#317,#329,.F.) ;
#342=EDGE_CURVE('',#319,#317,#341,.F.) ;
#354=EDGE_CURVE('',#104,#120,#353,.T.) ;
#371=EDGE_CURVE('',#106,#113,#370,.T.) ;
#400=EDGE_CURVE('',#48,#64,#387,.T.) ;
#366=PLANE('Plane',#365) ;
#88=ORIENTED_EDGE('',*,*,#49,.T.) ;
#89=ORIENTED_EDGE('',*,*,#65,.F.) ;
#90=ORIENTED_EDGE('',*,*,#72,.F.) ;
#91=ORIENTED_EDGE('',*,*,#86,.T.) ;
#128=ORIENTED_EDGE('',*,*,#107,.T.) ;
#129=ORIENTED_EDGE('',*,*,#114,.F.) ;
#130=ORIENTED_EDGE('',*,*,#121,.F.) ;
#131=ORIENTED_EDGE('',*,*,#126,.T.) ;
#148=ORIENTED_EDGE('',*,*,#146,.F.) ;
#149=ORIENTED_EDGE('',*,*,#86,.F.) ;
#181=ORIENTED_EDGE('',*,*,#167,.T.) ;
#182=ORIENTED_EDGE('',*,*,#126,.F.) ;
#183=ORIENTED_EDGE('',*,*,#174,.F.) ;
#184=ORIENTED_EDGE('',*,*,#179,.T.) ;
#212=ORIENTED_EDGE('',*,*,#198,.T.) ;
#213=ORIENTED_EDGE('',*,*,#179,.F.) ;
#214=ORIENTED_EDGE('',*,*,#205,.F.) ;
#215=ORIENTED_EDGE('',*,*,#210,.T.) ;
#229=ORIENTED_EDGE('',*,*,#205,.T.) ;
#230=ORIENTED_EDGE('',*,*,#222,.F.) ;
#231=ORIENTED_EDGE('',*,*,#198,.F.) ;
#232=ORIENTED_EDGE('',*,*,#227,.T.) ;
#253=ORIENTED_EDGE('',*,*,#246,.T.) ;
#254=ORIENTED_EDGE('',*,*,#210,.F.) ;
#255=ORIENTED_EDGE('',*,*,#251,.F.) ;
#259=ORIENTED_EDGE('',*,*,#251,.T.) ;
#260=ORIENTED_EDGE('',*,*,#227,.F.) ;
#261=ORIENTED_EDGE('',*,*,#246,.F.) ;
#291=ORIENTED_EDGE('',*,*,#277,.T.) ;
#292=ORIENTED_EDGE('',*,*,#284,.F.) ;
#293=ORIENTED_EDGE('',*,*,#289,.F.) ;
#302=ORIENTED_EDGE('',*,*,#289,.T.) ;
#303=ORIENTED_EDGE('',*,*,#300,.F.) ;
#304=ORIENTED_EDGE('',*,*,#277,.F.) ;
#332=ORIENTED_EDGE('',*,*,#320,.T.) ;
#333=ORIENTED_EDGE('',*,*,#325,.F.) ;
#334=ORIENTED_EDGE('',*,*,#300,.T.) ;
#335=ORIENTED_EDGE('',*,*,#330,.T.) ;
#344=ORIENTED_EDGE('',*,*,#342,.T.) ;
#345=ORIENTED_EDGE('',*,*,#330,.F.) ;
#346=ORIENTED_EDGE('',*,*,#284,.T.) ;
#347=ORIENTED_EDGE('',*,*,#325,.T.) ;
#356=ORIENTED_EDGE('',*,*,#174,.T.) ;
#357=ORIENTED_EDGE('',*,*,#354,.F.) ;
#358=ORIENTED_EDGE('',*,*,#167,.F.) ;
#359=ORIENTED_EDGE('',*,*,#222,.T.) ;
#373=ORIENTED_EDGE('',*,*,#114,.T.) ;
#374=ORIENTED_EDGE('',*,*,#371,.T.) ;
#377=ORIENTED_EDGE('',*,*,#342,.F.) ;
#378=ORIENTED_EDGE('',*,*,#320,.F.) ;
#382=ORIENTED_EDGE('',*,*,#121,.T.) ;
#383=ORIENTED_EDGE('',*,*,#371,.F.) ;
#384=ORIENTED_EDGE('',*,*,#107,.F.) ;
#385=ORIENTED_EDGE('',*,*,#354,.T.) ;
#402=ORIENTED_EDGE('',*,*,#65,.T.) ;
#403=ORIENTED_EDGE('',*,*,#400,.T.) ;
#407=ORIENTED_EDGE('',*,*,#72,.T.) ;
#408=ORIENTED_EDGE('',*,*,#400,.F.) ;
#409=ORIENTED_EDGE('',*,*,#49,.F.) ;
#410=ORIENTED_EDGE('',*,*,#146,.T.) ;
#35=CLOSED_SHELL('Closed Shell',(#93,#151,#186,#217,#234,#257,#263,#295,#306,#337,#349,#361,#380,#405,#412)) ;
#413=ADVANCED_BREP_SHAPE_REPRESENTATION('NONE',(#26),#21) ;
#6=PRODUCT_DEFINITION_FORMATION_WITH_SPECIFIED_SOURCE('',' ',#5,.NOT_KNOWN.) ;
#44=LINE('Line',#41,#43) ;
#69=LINE('Line',#66,#68) ;
#102=LINE('Line',#99,#101) ;
#118=LINE('Line',#115,#117) ;
#195=LINE('Line',#192,#194) ;
#202=LINE('Line',#199,#201) ;
#272=LINE('Line',#269,#271) ;
#288=LINE('Line',#285,#287) ;
#324=LINE('Line',#321,#323) ;
#329=LINE('Line',#326,#328) ;
#93=ADVANCED_FACE('Corps principal',(#92),#40,.F.) ;
#151=ADVANCED_FACE('Corps principal',(#132,#150),#98,.T.) ;
#186=ADVANCED_FACE('Corps principal',(#185),#160,.F.) ;
#217=ADVANCED_FACE('Corps principal',(#216),#191,.T.) ;
#234=ADVANCED_FACE('Corps principal',(#233),#191,.T.) ;
#257=ADVANCED_FACE('Corps principal',(#256),#239,.T.) ;
#263=ADVANCED_FACE('Corps principal',(#262),#239,.T.) ;
#295=ADVANCED_FACE('Corps principal',(#294),#268,.F.) ;
#306=ADVANCED_FACE('Corps principal',(#305),#268,.F.) ;
#337=ADVANCED_FACE('Corps principal',(#336),#311,.F.) ;
#349=ADVANCED_FACE('Corps principal',(#348),#311,.F.) ;
#361=ADVANCED_FACE('Corps principal',(#360),#160,.F.) ;
#380=ADVANCED_FACE('Corps principal',(#375,#379),#366,.T.) ;
#405=ADVANCED_FACE('Corps principal',(#386,#404),#98,.T.) ;
#412=ADVANCED_FACE('Corps principal',(#411),#40,.F.) ;
#111=CIRCLE('generated circle',#110,7.9) ;
#125=CIRCLE('generated circle',#124,7.9) ;
#164=CIRCLE('generated circle',#163,5.) ;
#171=CIRCLE('generated circle',#170,5.) ;
#178=CIRCLE('generated circle',#177,7.59846310393) ;
#209=CIRCLE('generated circle',#208,2.81907786236) ;
#221=CIRCLE('generated circle',#220,7.59846310393) ;
#226=CIRCLE('generated circle',#225,2.81907786236) ;
#243=CIRCLE('generated circle',#242,3.) ;
#250=CIRCLE('generated circle',#249,3.) ;
#281=CIRCLE('generated circle',#280,2.4585) ;
#299=CIRCLE('generated circle',#298,2.4585) ;
#315=CIRCLE('generated circle',#314,2.4585) ;
#341=CIRCLE('generated circle',#340,2.4585) ;
#353=CIRCLE('generated circle',#352,7.9) ;
#370=CIRCLE('generated circle',#369,7.9) ;
#191=CONICAL_SURFACE('Cone',#190,2.81907786236,0.349065850399) ;
#268=CONICAL_SURFACE('Cone',#267,0.,1.0471975512) ;
#40=CYLINDRICAL_SURFACE('generated cylinder',#39,1.75) ;
#98=CYLINDRICAL_SURFACE('generated cylinder',#97,7.9) ;
#311=CYLINDRICAL_SURFACE('generated cylinder',#310,2.4585) ;
#239=SPHERICAL_SURFACE('',#238,3.) ;
#160=SURFACE_OF_REVOLUTION('homeo Torus',#152,#159) ;
#46=VERTEX_POINT('',#45) ;
#48=VERTEX_POINT('',#47) ;
#64=VERTEX_POINT('',#63) ;
#71=VERTEX_POINT('',#70) ;
#104=VERTEX_POINT('',#103) ;
#106=VERTEX_POINT('',#105) ;
#113=VERTEX_POINT('',#112) ;
#120=VERTEX_POINT('',#119) ;
#166=VERTEX_POINT('',#165) ;
#173=VERTEX_POINT('',#172) ;
#197=VERTEX_POINT('',#196) ;
#204=VERTEX_POINT('',#203) ;
#245=VERTEX_POINT('',#244) ;
#274=VERTEX_POINT('',#273) ;
#276=VERTEX_POINT('',#275) ;
#283=VERTEX_POINT('',#282) ;
#317=VERTEX_POINT('',#316) ;
#319=VERTEX_POINT('',#318) ;
#27=COLOUR_RGB('Colour',0.823529411765,0.823529411765,1.) ;
#26=MANIFOLD_SOLID_BREP('Corps principal',#35) ;
#25=SHAPE_DEFINITION_REPRESENTATION(#15,#24) ;
#9=PRODUCT_CATEGORY_RELATIONSHIP(' ',' ',#7,#8) ;
#18=PLANE_ANGLE_MEASURE_WITH_UNIT(PLANE_ANGLE_MEASURE(0.0174532925199),#17) ;
#4=APPLICATION_PROTOCOL_DEFINITION('draft international standard','configuration_control_3d_design_ed2_mim',2004,#1) ;
#50=B_SPLINE_CURVE_WITH_KNOTS('',5,(#51,#52,#53,#54,#55,#56,#57,#58,#59,#60,#61,#62),.UNSPECIFIED.,.F.,.U.,(6,3,3,6),(0.,3.17837509855,4.76960907468,7.79917948608),.UNSPECIFIED.) ;
#73=B_SPLINE_CURVE_WITH_KNOTS('',5,(#74,#75,#76,#77,#78,#79,#80,#81,#82,#83,#84,#85),.UNSPECIFIED.,.F.,.U.,(6,3,3,6),(0.,3.17837509867,4.76960907505,7.79917948634),.UNSPECIFIED.) ;
#133=B_SPLINE_CURVE_WITH_KNOTS('',5,(#134,#135,#136,#137,#138,#139,#140,#141,#142,#143,#144,#145),.UNSPECIFIED.,.F.,.U.,(6,3,3,6),(0.,3.17837509882,4.76960907496,7.79917948589),.UNSPECIFIED.) ;
#152=B_SPLINE_CURVE_WITH_KNOTS('',3,(#153,#154,#155,#156),.UNSPECIFIED.,.F.,.U.,(4,4),(-1.74532925199,0.),.UNSPECIFIED.) ;
#387=B_SPLINE_CURVE_WITH_KNOTS('',5,(#388,#389,#390,#391,#392,#393,#394,#395,#396,#397,#398,#399),.UNSPECIFIED.,.F.,.U.,(6,3,3,6),(0.,3.1783750987,4.76960907496,7.79917948631),.UNSPECIFIED.) ;
#87=EDGE_LOOP('',(#88,#89,#90,#91)) ;
#127=EDGE_LOOP('',(#128,#129,#130,#131)) ;
#147=EDGE_LOOP('',(#148,#149)) ;
#180=EDGE_LOOP('',(#181,#182,#183,#184)) ;
#211=EDGE_LOOP('',(#212,#213,#214,#215)) ;
#228=EDGE_LOOP('',(#229,#230,#231,#232)) ;
#252=EDGE_LOOP('',(#253,#254,#255)) ;
#258=EDGE_LOOP('',(#259,#260,#261)) ;
#290=EDGE_LOOP('',(#291,#292,#293)) ;
#301=EDGE_LOOP('',(#302,#303,#304)) ;
#331=EDGE_LOOP('',(#332,#333,#334,#335)) ;
#343=EDGE_LOOP('',(#344,#345,#346,#347)) ;
#355=EDGE_LOOP('',(#356,#357,#358,#359)) ;
#372=EDGE_LOOP('',(#373,#374)) ;
#376=EDGE_LOOP('',(#377,#378)) ;
#381=EDGE_LOOP('',(#382,#383,#384,#385)) ;
#401=EDGE_LOOP('',(#402,#403)) ;
#406=EDGE_LOOP('',(#407,#408,#409,#410)) ;
#92=FACE_OUTER_BOUND('',#87,.T.) ;
#132=FACE_OUTER_BOUND('',#127,.T.) ;
#185=FACE_OUTER_BOUND('',#180,.T.) ;
#216=FACE_OUTER_BOUND('',#211,.T.) ;
#233=FACE_OUTER_BOUND('',#228,.T.) ;
#256=FACE_OUTER_BOUND('',#252,.T.) ;
#262=FACE_OUTER_BOUND('',#258,.T.) ;
#294=FACE_OUTER_BOUND('',#290,.T.) ;
#305=FACE_OUTER_BOUND('',#301,.T.) ;
#336=FACE_OUTER_BOUND('',#331,.T.) ;
#348=FACE_OUTER_BOUND('',#343,.T.) ;
#360=FACE_OUTER_BOUND('',#355,.T.) ;
#375=FACE_OUTER_BOUND('',#372,.T.) ;
#386=FACE_OUTER_BOUND('',#381,.T.) ;
#411=FACE_OUTER_BOUND('',#406,.T.) ;
#16=(LENGTH_UNIT()NAMED_UNIT(*)SI_UNIT(.MILLI.,.METRE.)) ;
#17=(NAMED_UNIT(*)PLANE_ANGLE_UNIT()SI_UNIT($,.RADIAN.)) ;
#19=(NAMED_UNIT(*)SI_UNIT($,.STERADIAN.)SOLID_ANGLE_UNIT()) ;
#21=(GEOMETRIC_REPRESENTATION_CONTEXT(3)GLOBAL_UNCERTAINTY_ASSIGNED_CONTEXT((#20))GLOBAL_UNIT_ASSIGNED_CONTEXT((#16,#17,#19))REPRESENTATION_CONTEXT(' ',' ')) ;
ENDSEC;
END-ISO-10303-21;
