ISO-10303-21;
HEADER;
/* Generated by software containing ST-Developer
 * from STEP Tools, Inc. (www.steptools.com) 
 */

FILE_DESCRIPTION(
/* description */ (''),
/* implementation_level */ '2;1');

FILE_NAME(
/* name */ 'C:/Users/utilisateur1/Documents/Axe.step',
/* time_stamp */ '2022-07-23T11:50:43+02:00',
/* author */ (''),
/* organization */ (''),
/* preprocessor_version */ 'ST-DEVELOPER v19',
/* originating_system */ 'Autodesk Translation Framework v11.7.0.108',
/* authorisation */ '');

FILE_SCHEMA (('AUTOMOTIVE_DESIGN { 1 0 10303 214 3 1 1 }'));
ENDSEC;

DATA;
#10=MECHANICAL_DESIGN_GEOMETRIC_PRESENTATION_REPRESENTATION('',(#13),#209);
#11=SHAPE_REPRESENTATION_RELATIONSHIP('SRR','None',#216,#12);
#12=ADVANCED_BREP_SHAPE_REPRESENTATION('',(#14),#208);
#13=STYLED_ITEM('',(#226),#14);
#14=MANIFOLD_SOLID_BREP('Corps1',#105);
#15=PLANE('',#126);
#16=PLANE('',#136);
#17=LINE('',#189,#19);
#18=LINE('',#199,#20);
#19=VECTOR('',#153,10.);
#20=VECTOR('',#166,9.50000000000006);
#21=CYLINDRICAL_SURFACE('',#124,10.);
#22=CYLINDRICAL_SURFACE('',#130,9.50000000000006);
#23=FACE_OUTER_BOUND('',#30,.T.);
#24=FACE_OUTER_BOUND('',#31,.T.);
#25=FACE_OUTER_BOUND('',#32,.T.);
#26=FACE_OUTER_BOUND('',#33,.T.);
#27=FACE_OUTER_BOUND('',#34,.T.);
#28=FACE_OUTER_BOUND('',#35,.T.);
#29=FACE_OUTER_BOUND('',#36,.T.);
#30=EDGE_LOOP('',(#69,#70,#71,#72,#73));
#31=EDGE_LOOP('',(#74,#75,#76,#77,#78));
#32=EDGE_LOOP('',(#79));
#33=EDGE_LOOP('',(#80,#81,#82,#83));
#34=EDGE_LOOP('',(#84,#85,#86,#87,#88));
#35=EDGE_LOOP('',(#89,#90,#91,#92,#93));
#36=EDGE_LOOP('',(#94));
#37=CIRCLE('',#120,10.);
#38=CIRCLE('',#121,10.);
#39=CIRCLE('',#122,0.500000000000207);
#40=CIRCLE('',#123,9.50000000000003);
#41=CIRCLE('',#125,10.);
#42=CIRCLE('',#128,9.50000000000003);
#43=CIRCLE('',#129,0.500000000000003);
#44=CIRCLE('',#131,9.50000000000003);
#45=CIRCLE('',#132,9.50000000000003);
#46=CIRCLE('',#134,9.00000000000002);
#47=CIRCLE('',#135,0.50000000000002);
#48=VERTEX_POINT('',#179);
#49=VERTEX_POINT('',#180);
#50=VERTEX_POINT('',#183);
#51=VERTEX_POINT('',#187);
#52=VERTEX_POINT('',#192);
#53=VERTEX_POINT('',#196);
#54=VERTEX_POINT('',#197);
#55=VERTEX_POINT('',#202);
#56=EDGE_CURVE('',#48,#49,#37,.T.);
#57=EDGE_CURVE('',#49,#48,#38,.T.);
#58=EDGE_CURVE('',#48,#50,#39,.T.);
#59=EDGE_CURVE('',#50,#50,#40,.T.);
#60=EDGE_CURVE('',#51,#51,#41,.T.);
#61=EDGE_CURVE('',#51,#49,#17,.T.);
#62=EDGE_CURVE('',#52,#52,#42,.T.);
#63=EDGE_CURVE('',#52,#51,#43,.T.);
#64=EDGE_CURVE('',#53,#54,#44,.T.);
#65=EDGE_CURVE('',#53,#52,#18,.T.);
#66=EDGE_CURVE('',#54,#53,#45,.T.);
#67=EDGE_CURVE('',#55,#55,#46,.T.);
#68=EDGE_CURVE('',#55,#54,#47,.T.);
#69=ORIENTED_EDGE('',*,*,#56,.T.);
#70=ORIENTED_EDGE('',*,*,#57,.T.);
#71=ORIENTED_EDGE('',*,*,#58,.T.);
#72=ORIENTED_EDGE('',*,*,#59,.T.);
#73=ORIENTED_EDGE('',*,*,#58,.F.);
#74=ORIENTED_EDGE('',*,*,#60,.F.);
#75=ORIENTED_EDGE('',*,*,#61,.T.);
#76=ORIENTED_EDGE('',*,*,#56,.F.);
#77=ORIENTED_EDGE('',*,*,#57,.F.);
#78=ORIENTED_EDGE('',*,*,#61,.F.);
#79=ORIENTED_EDGE('',*,*,#59,.F.);
#80=ORIENTED_EDGE('',*,*,#62,.T.);
#81=ORIENTED_EDGE('',*,*,#63,.T.);
#82=ORIENTED_EDGE('',*,*,#60,.T.);
#83=ORIENTED_EDGE('',*,*,#63,.F.);
#84=ORIENTED_EDGE('',*,*,#64,.F.);
#85=ORIENTED_EDGE('',*,*,#65,.T.);
#86=ORIENTED_EDGE('',*,*,#62,.F.);
#87=ORIENTED_EDGE('',*,*,#65,.F.);
#88=ORIENTED_EDGE('',*,*,#66,.F.);
#89=ORIENTED_EDGE('',*,*,#67,.T.);
#90=ORIENTED_EDGE('',*,*,#68,.T.);
#91=ORIENTED_EDGE('',*,*,#66,.T.);
#92=ORIENTED_EDGE('',*,*,#64,.T.);
#93=ORIENTED_EDGE('',*,*,#68,.F.);
#94=ORIENTED_EDGE('',*,*,#67,.F.);
#95=TOROIDAL_SURFACE('',#119,9.49999999999996,0.500000000000207);
#96=TOROIDAL_SURFACE('',#127,10.,0.500000000000003);
#97=TOROIDAL_SURFACE('',#133,8.99999999999997,0.50000000000002);
#98=ADVANCED_FACE('',(#23),#95,.T.);
#99=ADVANCED_FACE('',(#24),#21,.T.);
#100=ADVANCED_FACE('',(#25),#15,.T.);
#101=ADVANCED_FACE('',(#26),#96,.F.);
#102=ADVANCED_FACE('',(#27),#22,.T.);
#103=ADVANCED_FACE('',(#28),#97,.T.);
#104=ADVANCED_FACE('',(#29),#16,.T.);
#105=CLOSED_SHELL('',(#98,#99,#100,#101,#102,#103,#104));
#106=DERIVED_UNIT_ELEMENT(#108,1.);
#107=DERIVED_UNIT_ELEMENT(#211,-3.);
#108=(
MASS_UNIT()
NAMED_UNIT(*)
SI_UNIT(.KILO.,.GRAM.)
);
#109=DERIVED_UNIT((#106,#107));
#110=MEASURE_REPRESENTATION_ITEM('density measure',
POSITIVE_RATIO_MEASURE(7850.),#109);
#111=PROPERTY_DEFINITION_REPRESENTATION(#116,#113);
#112=PROPERTY_DEFINITION_REPRESENTATION(#117,#114);
#113=REPRESENTATION('material name',(#115),#208);
#114=REPRESENTATION('density',(#110),#208);
#115=DESCRIPTIVE_REPRESENTATION_ITEM('Acier','Acier');
#116=PROPERTY_DEFINITION('material property','material name',#218);
#117=PROPERTY_DEFINITION('material property','density of part',#218);
#118=AXIS2_PLACEMENT_3D('placement',#177,#137,#138);
#119=AXIS2_PLACEMENT_3D('',#178,#139,#140);
#120=AXIS2_PLACEMENT_3D('',#181,#141,#142);
#121=AXIS2_PLACEMENT_3D('',#182,#143,#144);
#122=AXIS2_PLACEMENT_3D('',#184,#145,#146);
#123=AXIS2_PLACEMENT_3D('',#185,#147,#148);
#124=AXIS2_PLACEMENT_3D('',#186,#149,#150);
#125=AXIS2_PLACEMENT_3D('',#188,#151,#152);
#126=AXIS2_PLACEMENT_3D('',#190,#154,#155);
#127=AXIS2_PLACEMENT_3D('',#191,#156,#157);
#128=AXIS2_PLACEMENT_3D('',#193,#158,#159);
#129=AXIS2_PLACEMENT_3D('',#194,#160,#161);
#130=AXIS2_PLACEMENT_3D('',#195,#162,#163);
#131=AXIS2_PLACEMENT_3D('',#198,#164,#165);
#132=AXIS2_PLACEMENT_3D('',#200,#167,#168);
#133=AXIS2_PLACEMENT_3D('',#201,#169,#170);
#134=AXIS2_PLACEMENT_3D('',#203,#171,#172);
#135=AXIS2_PLACEMENT_3D('',#204,#173,#174);
#136=AXIS2_PLACEMENT_3D('',#205,#175,#176);
#137=DIRECTION('axis',(0.,0.,1.));
#138=DIRECTION('refdir',(1.,0.,0.));
#139=DIRECTION('center_axis',(1.,3.74318816740891E-15,-2.69757537758876E-15));
#140=DIRECTION('ref_axis',(0.,0.,-1.));
#141=DIRECTION('center_axis',(-1.,-2.33318312592024E-14,-3.50493346928566E-15));
#142=DIRECTION('ref_axis',(1.4210854715202E-14,-0.581108581114918,0.813826036051076));
#143=DIRECTION('center_axis',(-1.,-2.33318312592024E-14,-3.50493346928566E-15));
#144=DIRECTION('ref_axis',(1.4210854715202E-14,-0.581108581114918,0.813826036051076));
#145=DIRECTION('center_axis',(3.74318816740891E-15,-1.,0.));
#146=DIRECTION('ref_axis',(0.,0.,1.));
#147=DIRECTION('center_axis',(1.,-1.16889549796359E-15,-3.64849729728907E-15));
#148=DIRECTION('ref_axis',(0.,0.581108581114916,0.813826036051077));
#149=DIRECTION('center_axis',(1.,0.,0.));
#150=DIRECTION('ref_axis',(0.,8.88178419700125E-16,1.));
#151=DIRECTION('center_axis',(1.,0.,0.));
#152=DIRECTION('ref_axis',(0.,0.,-1.));
#153=DIRECTION('',(-1.,0.,0.));
#154=DIRECTION('center_axis',(-1.,0.,0.));
#155=DIRECTION('ref_axis',(0.,0.,1.));
#156=DIRECTION('center_axis',(-1.,1.77801437951921E-15,1.28134830435459E-15));
#157=DIRECTION('ref_axis',(0.,0.,1.));
#158=DIRECTION('center_axis',(-1.,-7.47939721852738E-15,0.));
#159=DIRECTION('ref_axis',(0.,-1.86984930463184E-15,1.));
#160=DIRECTION('center_axis',(-1.77801437951921E-15,-1.,0.));
#161=DIRECTION('ref_axis',(0.,0.,-1.));
#162=DIRECTION('center_axis',(1.,0.,0.));
#163=DIRECTION('ref_axis',(0.,9.34924652315915E-16,1.));
#164=DIRECTION('center_axis',(1.,0.,0.));
#165=DIRECTION('ref_axis',(0.,0.,1.));
#166=DIRECTION('',(-1.,0.,0.));
#167=DIRECTION('center_axis',(1.,0.,0.));
#168=DIRECTION('ref_axis',(0.,0.,1.));
#169=DIRECTION('center_axis',(1.,1.97557153279914E-15,-1.42372033817174E-15));
#170=DIRECTION('ref_axis',(-1.49587944370547E-15,0.,-1.));
#171=DIRECTION('center_axis',(-1.,0.,0.));
#172=DIRECTION('ref_axis',(0.,-9.86864910777915E-16,1.));
#173=DIRECTION('center_axis',(1.97557153279914E-15,-1.,-3.69402105685493E-30));
#174=DIRECTION('ref_axis',(1.86984930463184E-15,0.,1.));
#175=DIRECTION('center_axis',(1.,0.,0.));
#176=DIRECTION('ref_axis',(0.,0.,-1.));
#177=CARTESIAN_POINT('',(0.,0.,0.));
#178=CARTESIAN_POINT('Origin',(-625.752545736153,-51.9441555806137,250.));
#179=CARTESIAN_POINT('',(-625.752545736153,-51.9441555806136,260.));
#180=CARTESIAN_POINT('',(-625.752545736153,-51.9441555806136,240.));
#181=CARTESIAN_POINT('Origin',(-625.752545736153,-51.9441555806136,250.));
#182=CARTESIAN_POINT('Origin',(-625.752545736153,-51.9441555806136,250.));
#183=CARTESIAN_POINT('',(-626.252545736153,-51.9441555806136,259.5));
#184=CARTESIAN_POINT('Origin',(-625.752545736153,-51.9441555806137,259.5));
#185=CARTESIAN_POINT('Origin',(-626.252545736153,-51.9441555806136,250.));
#186=CARTESIAN_POINT('Origin',(-411.002545736153,-51.9441555806136,250.));
#187=CARTESIAN_POINT('',(-196.252545736153,-51.9441555806136,240.));
#188=CARTESIAN_POINT('Origin',(-196.252545736153,-51.9441555806136,250.));
#189=CARTESIAN_POINT('',(-411.002545736153,-51.9441555806136,240.));
#190=CARTESIAN_POINT('Origin',(-626.252545736153,-61.4451555806136,250.));
#191=CARTESIAN_POINT('Origin',(-195.752545736153,-51.9441555806136,250.));
#192=CARTESIAN_POINT('',(-195.752545736153,-51.9441555806136,240.5));
#193=CARTESIAN_POINT('Origin',(-195.752545736153,-51.9441555806136,250.));
#194=CARTESIAN_POINT('Origin',(-195.752545736153,-51.9441555806136,240.));
#195=CARTESIAN_POINT('Origin',(-161.252545736153,-51.9441555806136,250.));
#196=CARTESIAN_POINT('',(-126.752545736153,-51.9441555806136,240.5));
#197=CARTESIAN_POINT('',(-126.752545736153,-51.9441555806136,259.5));
#198=CARTESIAN_POINT('Origin',(-126.752545736153,-51.9441555806136,250.));
#199=CARTESIAN_POINT('',(-161.252545736153,-51.9441555806136,240.5));
#200=CARTESIAN_POINT('Origin',(-126.752545736153,-51.9441555806136,250.));
#201=CARTESIAN_POINT('Origin',(-126.752545736153,-51.9441555806136,250.));
#202=CARTESIAN_POINT('',(-126.252545736153,-51.9441555806136,259.));
#203=CARTESIAN_POINT('Origin',(-126.252545736153,-51.9441555806136,250.));
#204=CARTESIAN_POINT('Origin',(-126.752545736153,-51.9441555806136,259.));
#205=CARTESIAN_POINT('Origin',(-126.252545736153,-60.9451555806136,250.));
#206=UNCERTAINTY_MEASURE_WITH_UNIT(LENGTH_MEASURE(0.01),#210,
'DISTANCE_ACCURACY_VALUE',
'Maximum model space distance between geometric entities at asserted c
onnectivities');
#207=UNCERTAINTY_MEASURE_WITH_UNIT(LENGTH_MEASURE(0.01),#210,
'DISTANCE_ACCURACY_VALUE',
'Maximum model space distance between geometric entities at asserted c
onnectivities');
#208=(
GEOMETRIC_REPRESENTATION_CONTEXT(3)
GLOBAL_UNCERTAINTY_ASSIGNED_CONTEXT((#206))
GLOBAL_UNIT_ASSIGNED_CONTEXT((#210,#212,#213))
REPRESENTATION_CONTEXT('','3D')
);
#209=(
GEOMETRIC_REPRESENTATION_CONTEXT(3)
GLOBAL_UNCERTAINTY_ASSIGNED_CONTEXT((#207))
GLOBAL_UNIT_ASSIGNED_CONTEXT((#210,#212,#213))
REPRESENTATION_CONTEXT('','3D')
);
#210=(
LENGTH_UNIT()
NAMED_UNIT(*)
SI_UNIT(.MILLI.,.METRE.)
);
#211=(
LENGTH_UNIT()
NAMED_UNIT(*)
SI_UNIT($,.METRE.)
);
#212=(
NAMED_UNIT(*)
PLANE_ANGLE_UNIT()
SI_UNIT($,.RADIAN.)
);
#213=(
NAMED_UNIT(*)
SI_UNIT($,.STERADIAN.)
SOLID_ANGLE_UNIT()
);
#214=SHAPE_DEFINITION_REPRESENTATION(#215,#216);
#215=PRODUCT_DEFINITION_SHAPE('',$,#218);
#216=SHAPE_REPRESENTATION('',(#118),#208);
#217=PRODUCT_DEFINITION_CONTEXT('part definition',#222,'design');
#218=PRODUCT_DEFINITION('(Non enregistr\X\E9)','(Non enregistr\X\E9)',#219,
#217);
#219=PRODUCT_DEFINITION_FORMATION('',$,#224);
#220=PRODUCT_RELATED_PRODUCT_CATEGORY('(Non enregistr\X\E9)',
'(Non enregistr\X\E9)',(#224));
#221=APPLICATION_PROTOCOL_DEFINITION('international standard',
'automotive_design',2009,#222);
#222=APPLICATION_CONTEXT(
'Core Data for Automotive Mechanical Design Process');
#223=PRODUCT_CONTEXT('part definition',#222,'mechanical');
#224=PRODUCT('(Non enregistr\X\E9)','(Non enregistr\X\E9)',$,(#223));
#225=PRESENTATION_STYLE_ASSIGNMENT((#227));
#226=PRESENTATION_STYLE_ASSIGNMENT((#228));
#227=SURFACE_STYLE_USAGE(.BOTH.,#229);
#228=SURFACE_STYLE_USAGE(.BOTH.,#230);
#229=SURFACE_SIDE_STYLE('',(#231));
#230=SURFACE_SIDE_STYLE('',(#232));
#231=SURFACE_STYLE_FILL_AREA(#233);
#232=SURFACE_STYLE_FILL_AREA(#234);
#233=FILL_AREA_STYLE('Acier - Satin\X\E9',(#235));
#234=FILL_AREA_STYLE('Opaque(255,255,255)',(#236));
#235=FILL_AREA_STYLE_COLOUR('Acier - Satin\X\E9',#237);
#236=FILL_AREA_STYLE_COLOUR('Opaque(255,255,255)',#238);
#237=COLOUR_RGB('Acier - Satin\X\E9',0.627450980392157,0.627450980392157,
0.627450980392157);
#238=COLOUR_RGB('Opaque(255,255,255)',1.,1.,1.);
ENDSEC;
END-ISO-10303-21;
