ISO-10303-21;
HEADER;
/* Generated by software containing ST-Developer
 * from STEP Tools, Inc. (www.steptools.com) 
 */
/* OPTION: using custom schema-name function */

FILE_DESCRIPTION(
/* description */ (''),
/* implementation_level */ '2;1');

FILE_NAME(
/* name */ 'triboulet',
/* time_stamp */ '2022-06-24T22:06:16+02:00',
/* author */ (''),
/* organization */ (''),
/* preprocessor_version */ 'ST-DEVELOPER v15',
/* originating_system */ '',
/* authorisation */ '');

FILE_SCHEMA (('AUTOMOTIVE_DESIGN'));
ENDSEC;

DATA;
#10=SHAPE_REPRESENTATION_RELATIONSHIP('','',#77,#13);
#11=PRESENTATION_LAYER_ASSIGNMENT('Default','',(#12));
#12=MANIFOLD_SOLID_BREP('brep_1',#14);
#13=ADVANCED_BREP_SHAPE_REPRESENTATION('brep_rep_0',(#12,#81),#76);
#14=CLOSED_SHELL('',(#15,#16,#17,#18));
#15=ADVANCED_FACE('',(#19),#57,.T.);
#16=ADVANCED_FACE('',(#20),#55,.T.);
#17=ADVANCED_FACE('',(#21),#56,.T.);
#18=ADVANCED_FACE('',(#22),#58,.T.);
#19=FACE_OUTER_BOUND('',#23,.T.);
#20=FACE_OUTER_BOUND('',#24,.T.);
#21=FACE_OUTER_BOUND('',#25,.T.);
#22=FACE_OUTER_BOUND('',#26,.T.);
#23=EDGE_LOOP('',(#27,#28,#29,#30));
#24=EDGE_LOOP('',(#31,#32));
#25=EDGE_LOOP('',(#33,#34));
#26=EDGE_LOOP('',(#35,#36,#37,#38));
#27=ORIENTED_EDGE('',*,*,#42,.T.);
#28=ORIENTED_EDGE('',*,*,#44,.T.);
#29=ORIENTED_EDGE('',*,*,#40,.F.);
#30=ORIENTED_EDGE('',*,*,#39,.T.);
#31=ORIENTED_EDGE('',*,*,#43,.F.);
#32=ORIENTED_EDGE('',*,*,#39,.F.);
#33=ORIENTED_EDGE('',*,*,#44,.F.);
#34=ORIENTED_EDGE('',*,*,#41,.F.);
#35=ORIENTED_EDGE('',*,*,#43,.T.);
#36=ORIENTED_EDGE('',*,*,#40,.T.);
#37=ORIENTED_EDGE('',*,*,#41,.T.);
#38=ORIENTED_EDGE('',*,*,#42,.F.);
#39=EDGE_CURVE('',#51,#53,#47,.T.);
#40=EDGE_CURVE('',#51,#52,#45,.T.);
#41=EDGE_CURVE('',#52,#54,#48,.T.);
#42=EDGE_CURVE('',#53,#54,#46,.T.);
#43=EDGE_CURVE('',#53,#51,#49,.T.);
#44=EDGE_CURVE('',#54,#52,#50,.T.);
#45=B_SPLINE_CURVE_WITH_KNOTS('',1,(#120,#121),.UNSPECIFIED.,.F.,.F.,(2,
2),(0.,204.890824587144),.UNSPECIFIED.);
#46=B_SPLINE_CURVE_WITH_KNOTS('',1,(#127,#128),.UNSPECIFIED.,.F.,.F.,(2,
2),(0.,204.890824587144),.UNSPECIFIED.);
#47=(
BOUNDED_CURVE()
B_SPLINE_CURVE(2,(#115,#116,#117,#118,#119),.UNSPECIFIED.,.F.,.F.)
B_SPLINE_CURVE_WITH_KNOTS((3,2,3),(0.,1.5707963267949,3.14159265358979),
 .UNSPECIFIED.)
CURVE()
GEOMETRIC_REPRESENTATION_ITEM()
RATIONAL_B_SPLINE_CURVE((1.,0.707106781186548,1.,0.707106781186548,1.))
REPRESENTATION_ITEM('')
);
#48=(
BOUNDED_CURVE()
B_SPLINE_CURVE(2,(#122,#123,#124,#125,#126),.UNSPECIFIED.,.F.,.F.)
B_SPLINE_CURVE_WITH_KNOTS((3,2,3),(-6.28318530717959,-4.71238898038469,
-3.14159265358979),.UNSPECIFIED.)
CURVE()
GEOMETRIC_REPRESENTATION_ITEM()
RATIONAL_B_SPLINE_CURVE((1.,0.707106781186548,1.,0.707106781186548,1.))
REPRESENTATION_ITEM('')
);
#49=(
BOUNDED_CURVE()
B_SPLINE_CURVE(2,(#129,#130,#131,#132,#133),.UNSPECIFIED.,.F.,.F.)
B_SPLINE_CURVE_WITH_KNOTS((3,2,3),(3.14159265358979,4.71238898038469,6.28318530717959),
 .UNSPECIFIED.)
CURVE()
GEOMETRIC_REPRESENTATION_ITEM()
RATIONAL_B_SPLINE_CURVE((1.,0.707106781186548,1.,0.707106781186548,1.))
REPRESENTATION_ITEM('')
);
#50=(
BOUNDED_CURVE()
B_SPLINE_CURVE(2,(#134,#135,#136,#137,#138),.UNSPECIFIED.,.F.,.F.)
B_SPLINE_CURVE_WITH_KNOTS((3,2,3),(-3.14159265358979,-1.5707963267949,0.),
 .UNSPECIFIED.)
CURVE()
GEOMETRIC_REPRESENTATION_ITEM()
RATIONAL_B_SPLINE_CURVE((1.,0.707106781186548,1.,0.707106781186548,1.))
REPRESENTATION_ITEM('')
);
#51=VERTEX_POINT('',#111);
#52=VERTEX_POINT('',#112);
#53=VERTEX_POINT('',#113);
#54=VERTEX_POINT('',#114);
#55=PLANE('',#79);
#56=PLANE('',#80);
#57=(
BOUNDED_SURFACE()
B_SPLINE_SURFACE(2,1,((#89,#90),(#91,#92),(#93,#94),(#95,#96),(#97,#98)),
 .UNSPECIFIED.,.F.,.F.,.F.)
B_SPLINE_SURFACE_WITH_KNOTS((3,2,3),(2,2),(0.,1.5707963267949,3.14159265358979),
(0.,204.890824587144),.UNSPECIFIED.)
GEOMETRIC_REPRESENTATION_ITEM()
RATIONAL_B_SPLINE_SURFACE(((1.,1.),(0.707106781186548,0.707106781186548),
(1.,1.),(0.707106781186548,0.707106781186548),(1.,1.)))
REPRESENTATION_ITEM('')
SURFACE()
);
#58=(
BOUNDED_SURFACE()
B_SPLINE_SURFACE(2,1,((#101,#102),(#103,#104),(#105,#106),(#107,#108),(#109,
#110)),.UNSPECIFIED.,.F.,.F.,.F.)
B_SPLINE_SURFACE_WITH_KNOTS((3,2,3),(2,2),(3.14159265358979,4.71238898038469,
6.28318530717959),(0.,204.890824587144),.UNSPECIFIED.)
GEOMETRIC_REPRESENTATION_ITEM()
RATIONAL_B_SPLINE_SURFACE(((1.,1.),(0.707106781186548,0.707106781186548),
(1.,1.),(0.707106781186548,0.707106781186548),(1.,1.)))
REPRESENTATION_ITEM('')
SURFACE()
);
#59=SHAPE_DEFINITION_REPRESENTATION(#60,#77);
#60=PRODUCT_DEFINITION_SHAPE('Document','',#62);
#61=PRODUCT_DEFINITION_CONTEXT('3D Mechanical Parts',#66,'design');
#62=PRODUCT_DEFINITION('A','First version',#63,#61);
#63=PRODUCT_DEFINITION_FORMATION_WITH_SPECIFIED_SOURCE('A',
'First version',#68,.MADE.);
#64=PRODUCT_RELATED_PRODUCT_CATEGORY('tool','tool',(#68));
#65=APPLICATION_PROTOCOL_DEFINITION('Draft International Standard',
'automotive_design',1999,#66);
#66=APPLICATION_CONTEXT(
'data for automotive mechanical design processes');
#67=PRODUCT_CONTEXT('3D Mechanical Parts',#66,'mechanical');
#68=PRODUCT('Document','Document','Rhino converted to STEP',(#67));
#69=(
LENGTH_UNIT()
NAMED_UNIT(*)
SI_UNIT(.MILLI.,.METRE.)
);
#70=(
NAMED_UNIT(*)
PLANE_ANGLE_UNIT()
SI_UNIT($,.RADIAN.)
);
#71=DIMENSIONAL_EXPONENTS(0.,0.,0.,0.,0.,0.,0.);
#72=PLANE_ANGLE_MEASURE_WITH_UNIT(PLANE_ANGLE_MEASURE(0.01745329252),#70);
#73=(
CONVERSION_BASED_UNIT('DEGREES',#72)
NAMED_UNIT(#71)
PLANE_ANGLE_UNIT()
);
#74=(
NAMED_UNIT(*)
SI_UNIT($,.STERADIAN.)
SOLID_ANGLE_UNIT()
);
#75=UNCERTAINTY_MEASURE_WITH_UNIT(LENGTH_MEASURE(0.01),#69,
'DISTANCE_ACCURACY_VALUE',
'Maximum model space distance between geometric entities at asserted c
onnectivities');
#76=(
GEOMETRIC_REPRESENTATION_CONTEXT(3)
GLOBAL_UNCERTAINTY_ASSIGNED_CONTEXT((#75))
GLOBAL_UNIT_ASSIGNED_CONTEXT((#74,#73,#69))
REPRESENTATION_CONTEXT('ID1','3D')
);
#77=SHAPE_REPRESENTATION('Document',(#78,#81),#76);
#78=AXIS2_PLACEMENT_3D('',#88,#82,#83);
#79=AXIS2_PLACEMENT_3D('',#99,#84,$);
#80=AXIS2_PLACEMENT_3D('',#100,#85,$);
#81=AXIS2_PLACEMENT_3D('',#139,#86,#87);
#82=DIRECTION('',(0.,0.,1.));
#83=DIRECTION('',(1.,0.,0.));
#84=DIRECTION('',(0.,0.,-1.));
#85=DIRECTION('',(0.,0.,1.));
#86=DIRECTION('',(0.,0.,1.));
#87=DIRECTION('',(1.,0.,0.));
#88=CARTESIAN_POINT('',(0.,0.,0.));
#89=CARTESIAN_POINT('',(48.7446452676147,1.11114955481654,0.));
#90=CARTESIAN_POINT('',(4.24464526761469,1.11114955481654,200.));
#91=CARTESIAN_POINT('',(48.7446452676147,50.1111495548165,0.));
#92=CARTESIAN_POINT('',(4.24464526761469,5.61114955481654,200.));
#93=CARTESIAN_POINT('',(-0.255354732385307,50.1111495548165,0.));
#94=CARTESIAN_POINT('',(-0.25535473238531,5.61114955481654,200.));
#95=CARTESIAN_POINT('',(-49.2553547323853,50.1111495548165,0.));
#96=CARTESIAN_POINT('',(-4.75535473238531,5.61114955481654,200.));
#97=CARTESIAN_POINT('',(-49.2553547323853,1.11114955481654,0.));
#98=CARTESIAN_POINT('',(-4.75535473238531,1.11114955481654,200.));
#99=CARTESIAN_POINT('',(-49.2553547323853,50.1111495548165,0.));
#100=CARTESIAN_POINT('',(-4.75535473238531,-3.38885044518346,200.));
#101=CARTESIAN_POINT('',(-49.2553547323853,1.11114955481654,0.));
#102=CARTESIAN_POINT('',(-4.75535473238531,1.11114955481654,200.));
#103=CARTESIAN_POINT('',(-49.2553547323853,-47.8888504451834,0.));
#104=CARTESIAN_POINT('',(-4.75535473238531,-3.38885044518346,200.));
#105=CARTESIAN_POINT('',(-0.255354732385313,-47.8888504451835,0.));
#106=CARTESIAN_POINT('',(-0.255354732385311,-3.38885044518346,200.));
#107=CARTESIAN_POINT('',(48.7446452676147,-47.8888504451835,0.));
#108=CARTESIAN_POINT('',(4.24464526761469,-3.38885044518346,200.));
#109=CARTESIAN_POINT('',(48.7446452676147,1.11114955481653,0.));
#110=CARTESIAN_POINT('',(4.24464526761469,1.11114955481654,200.));
#111=CARTESIAN_POINT('',(48.7446452676147,1.11114955481654,0.));
#112=CARTESIAN_POINT('',(4.24464526761469,1.11114955481654,200.));
#113=CARTESIAN_POINT('',(-49.2553547323853,1.11114955481654,0.));
#114=CARTESIAN_POINT('',(-4.75535473238531,1.11114955481654,200.));
#115=CARTESIAN_POINT('',(48.7446452676147,1.11114955481654,0.));
#116=CARTESIAN_POINT('',(48.7446452676147,50.1111495548165,0.));
#117=CARTESIAN_POINT('',(-0.255354732385307,50.1111495548165,0.));
#118=CARTESIAN_POINT('',(-49.2553547323853,50.1111495548165,0.));
#119=CARTESIAN_POINT('',(-49.2553547323853,1.11114955481654,0.));
#120=CARTESIAN_POINT('',(48.7446452676147,1.11114955481654,0.));
#121=CARTESIAN_POINT('',(4.24464526761469,1.11114955481654,200.));
#122=CARTESIAN_POINT('',(4.24464526761469,1.11114955481654,200.));
#123=CARTESIAN_POINT('',(4.24464526761469,-3.38885044518346,200.));
#124=CARTESIAN_POINT('',(-0.255354732385311,-3.38885044518346,200.));
#125=CARTESIAN_POINT('',(-4.75535473238531,-3.38885044518346,200.));
#126=CARTESIAN_POINT('',(-4.75535473238531,1.11114955481654,200.));
#127=CARTESIAN_POINT('',(-49.2553547323853,1.11114955481654,0.));
#128=CARTESIAN_POINT('',(-4.75535473238531,1.11114955481654,200.));
#129=CARTESIAN_POINT('',(-49.2553547323853,1.11114955481654,0.));
#130=CARTESIAN_POINT('',(-49.2553547323853,-47.8888504451835,0.));
#131=CARTESIAN_POINT('',(-0.255354732385319,-47.8888504451835,0.));
#132=CARTESIAN_POINT('',(48.7446452676147,-47.8888504451835,0.));
#133=CARTESIAN_POINT('',(48.7446452676147,1.11114955481654,0.));
#134=CARTESIAN_POINT('',(-4.75535473238531,1.11114955481654,200.));
#135=CARTESIAN_POINT('',(-4.75535473238531,5.61114955481654,200.));
#136=CARTESIAN_POINT('',(-0.25535473238531,5.61114955481654,200.));
#137=CARTESIAN_POINT('',(4.24464526761469,5.61114955481654,200.));
#138=CARTESIAN_POINT('',(4.24464526761469,1.11114955481654,200.));
#139=CARTESIAN_POINT('',(0.,0.,0.));
ENDSEC;
END-ISO-10303-21;
