ISO-10303-21;
HEADER;
FILE_DESCRIPTION (( 'STEP AP214' ),
    '1' );
FILE_NAME ('000012-02.STEP',
    '2022-07-17T12:45:45',
    ( '' ),
    ( '' ),
    'SwSTEP 2.0',
    'SolidWorks 2014',
    '' );
FILE_SCHEMA (( 'AUTOMOTIVE_DESIGN' ));
ENDSEC;

DATA;
#1 = DIRECTION ( 'NONE',  ( 0.0000000000000000000, 0.0000000000000000000, 1.000000000000000000 ) ) ;
#2 = CARTESIAN_POINT ( 'NONE',  ( 1.861463134703975900E-015, 5.999999999999998200, 15.19999999999999200 ) ) ;
#3 = AXIS2_PLACEMENT_3D ( 'NONE', #196, #379, #200 ) ;
#4 = ORIENTED_EDGE ( 'NONE', *, *, #65, .T. ) ;
#5 = EDGE_CURVE ( 'NONE', #377, #255, #113, .T. ) ;
#6 = CARTESIAN_POINT ( 'NONE',  ( 1.959434878635764700E-015, 1.500000000000008200, -15.99999999999999600 ) ) ;
#7 = VERTEX_POINT ( 'NONE', #265 ) ;
#8 = FILL_AREA_STYLE_COLOUR ( '', #167 ) ;
#9 = VECTOR ( 'NONE', #75, 1000.000000000000000 ) ;
#10 = EDGE_CURVE ( 'NONE', #80, #264, #81, .T. ) ;
#11 = DIRECTION ( 'NONE',  ( 0.0000000000000000000, -1.000000000000000000, 0.0000000000000000000 ) ) ;
#12 = ORIENTED_EDGE ( 'NONE', *, *, #108, .F. ) ;
#13 = ORIENTED_EDGE ( 'NONE', *, *, #165, .T. ) ;
#14 = ADVANCED_FACE ( 'NONE', ( #118 ), #153, .F. ) ;
#15 = CARTESIAN_POINT ( 'NONE',  ( 1.377727649040771800E-015, 0.5513763205741567500, -11.24999999999999600 ) ) ;
#16 =( NAMED_UNIT ( * ) PLANE_ANGLE_UNIT ( ) SI_UNIT ( $, .RADIAN. ) );
#17 = AXIS2_PLACEMENT_3D ( 'NONE', #326, #140, #213 ) ;
#18 = ORIENTED_EDGE ( 'NONE', *, *, #128, .T. ) ;
#19 = CARTESIAN_POINT ( 'NONE',  ( 0.0000000000000000000, -4.286263797015749900E-016, 0.0000000000000000000 ) ) ;
#20 = SURFACE_STYLE_USAGE ( .BOTH. , #332 ) ;
#21 = DIRECTION ( 'NONE',  ( 0.0000000000000000000, 0.0000000000000000000, 1.000000000000000000 ) ) ;
#22 = ORIENTED_EDGE ( 'NONE', *, *, #29, .F. ) ;
#23 = FACE_OUTER_BOUND ( 'NONE', #41, .T. ) ;
#24 = AXIS2_PLACEMENT_3D ( 'NONE', #346, #257, #171 ) ;
#25 = DIRECTION ( 'NONE',  ( -0.0000000000000000000, 1.000000000000000000, -0.0000000000000000000 ) ) ;
#26 = EDGE_LOOP ( 'NONE', ( #214, #317, #320, #22 ) ) ;
#27 = PRODUCT_DEFINITION_FORMATION_WITH_SPECIFIED_SOURCE ( 'ANY', '', #217, .NOT_KNOWN. ) ;
#28 = DIRECTION ( 'NONE',  ( 0.0000000000000000000, 0.0000000000000000000, 1.000000000000000000 ) ) ;
#29 = EDGE_CURVE ( 'NONE', #79, #86, #191, .T. ) ;
#30 = ORIENTED_EDGE ( 'NONE', *, *, #374, .T. ) ;
#31 = VERTEX_POINT ( 'NONE', #308 ) ;
#32 = VECTOR ( 'NONE', #157, 1000.000000000000000 ) ;
#33 = EDGE_LOOP ( 'NONE', ( #284, #371 ) ) ;
#34 = FACE_OUTER_BOUND ( 'NONE', #121, .T. ) ;
#35 = CARTESIAN_POINT ( 'NONE',  ( 0.0000000000000000000, 0.5513763205741567500, 0.0000000000000000000 ) ) ;
#36 = DIRECTION ( 'NONE',  ( -0.0000000000000000000, 1.000000000000000000, -0.0000000000000000000 ) ) ;
#37 = FACE_OUTER_BOUND ( 'NONE', #26, .T. ) ;
#38 = ADVANCED_FACE ( 'NONE', ( #158 ), #310, .T. ) ;
#39 = AXIS2_PLACEMENT_3D ( 'NONE', #355, #25, #28 ) ;
#40 = CIRCLE ( 'NONE', #344, 12.49999999999999600 ) ;
#41 = EDGE_LOOP ( 'NONE', ( #163, #90, #169, #206 ) ) ;
#42 = DIRECTION ( 'NONE',  ( -0.0000000000000000000, 1.000000000000000000, 0.0000000000000000000 ) ) ;
#43 = FACE_BOUND ( 'NONE', #33, .T. ) ;
#44 = PRODUCT_RELATED_PRODUCT_CATEGORY ( 'part', '', ( #217 ) ) ;
#45 = CARTESIAN_POINT ( 'NONE',  ( -5.855803878536755000E-016, 6.000000000000000000, 0.0000000000000000000 ) ) ;
#46 = DIRECTION ( 'NONE',  ( 0.0000000000000000000, 0.0000000000000000000, -1.000000000000000000 ) ) ;
#47 = DIRECTION ( 'NONE',  ( -0.0000000000000000000, -0.0000000000000000000, -1.000000000000000000 ) ) ;
#48 = VECTOR ( 'NONE', #258, 1000.000000000000100 ) ;
#49 = EDGE_CURVE ( 'NONE', #250, #7, #234, .T. ) ;
#50 = SHAPE_DEFINITION_REPRESENTATION ( #336, #95 ) ;
#51 = ORIENTED_EDGE ( 'NONE', *, *, #345, .F. ) ;
#52 = CARTESIAN_POINT ( 'NONE',  ( 0.0000000000000000000, 0.5513763205741567500, 0.0000000000000000000 ) ) ;
#53 = DIRECTION ( 'NONE',  ( -0.0000000000000000000, 1.000000000000000000, -0.0000000000000000000 ) ) ;
#54 = VERTEX_POINT ( 'NONE', #262 ) ;
#55 = EDGE_LOOP ( 'NONE', ( #279, #110, #304, #12 ) ) ;
#56 = DIRECTION ( 'NONE',  ( 0.0000000000000000000, 0.0000000000000000000, 1.000000000000000000 ) ) ;
#57 = AXIS2_PLACEMENT_3D ( 'NONE', #381, #237, #312 ) ;
#58 = EDGE_CURVE ( 'NONE', #274, #377, #341, .T. ) ;
#59 = CYLINDRICAL_SURFACE ( 'NONE', #172, 11.24999999999999600 ) ;
#60 = EDGE_LOOP ( 'NONE', ( #223, #202, #51, #178, #311 ) ) ;
#61 = VERTEX_POINT ( 'NONE', #84 ) ;
#62 = CYLINDRICAL_SURFACE ( 'NONE', #39, 15.99999999999999600 ) ;
#63 = DIRECTION ( 'NONE',  ( 0.0000000000000000000, -0.0000000000000000000, -1.000000000000000000 ) ) ;
#64 = CARTESIAN_POINT ( 'NONE',  ( 1.910449006669870100E-015, 6.000000000000000000, 15.19999999999999000 ) ) ;
#65 = EDGE_CURVE ( 'NONE', #80, #126, #269, .T. ) ;
#66 = DIRECTION ( 'NONE',  ( 0.0000000000000000000, 0.0000000000000000000, -1.000000000000000000 ) ) ;
#67 = ADVANCED_FACE ( 'NONE', ( #37 ), #278, .T. ) ;
#68 = DIRECTION ( 'NONE',  ( 0.0000000000000000000, 0.0000000000000000000, 1.000000000000000000 ) ) ;
#69 = ORIENTED_EDGE ( 'NONE', *, *, #345, .T. ) ;
#70 = CIRCLE ( 'NONE', #194, 14.49999999999998200 ) ;
#71 = AXIS2_PLACEMENT_3D ( 'NONE', #364, #133, #63 ) ;
#72 = CARTESIAN_POINT ( 'NONE',  ( 0.0000000000000000000, 0.5513763205741567500, 0.0000000000000000000 ) ) ;
#73 = ORIENTED_EDGE ( 'NONE', *, *, #271, .F. ) ;
#74 = VECTOR ( 'NONE', #83, 1000.000000000000100 ) ;
#75 = DIRECTION ( 'NONE',  ( -0.0000000000000000000, 1.000000000000000000, -0.0000000000000000000 ) ) ;
#76 = CIRCLE ( 'NONE', #82, 15.99999999999999600 ) ;
#77 = DIRECTION ( 'NONE',  ( -0.0000000000000000000, 1.000000000000000000, -0.0000000000000000000 ) ) ;
#78 = DIRECTION ( 'NONE',  ( 0.0000000000000000000, 0.0000000000000000000, 1.000000000000000000 ) ) ;
#79 = VERTEX_POINT ( 'NONE', #229 ) ;
#80 = VERTEX_POINT ( 'NONE', #236 ) ;
#81 = CIRCLE ( 'NONE', #208, 11.24999999999999500 ) ;
#82 = AXIS2_PLACEMENT_3D ( 'NONE', #259, #175, #253 ) ;
#83 = DIRECTION ( 'NONE',  ( 0.0000000000000000000, 0.7071067811865459100, 0.7071067811865491300 ) ) ;
#84 = CARTESIAN_POINT ( 'NONE',  ( 1.959434878635764700E-015, 5.199999999999989500, -15.99999999999999600 ) ) ;
#85 = EDGE_LOOP ( 'NONE', ( #362, #18, #13, #382, #248 ) ) ;
#86 = VERTEX_POINT ( 'NONE', #176 ) ;
#87 = CARTESIAN_POINT ( 'NONE',  ( 1.959434878635764700E-015, 1.500000000000008200, -15.99999999999999600 ) ) ;
#88 = EDGE_CURVE ( 'NONE', #199, #274, #288, .T. ) ;
#89 = ORIENTED_EDGE ( 'NONE', *, *, #65, .F. ) ;
#90 = ORIENTED_EDGE ( 'NONE', *, *, #180, .T. ) ;
#91 = DIRECTION ( 'NONE',  ( -1.000000000000000000, 0.0000000000000000000, 0.0000000000000000000 ) ) ;
#92 =( LENGTH_UNIT ( ) NAMED_UNIT ( * ) SI_UNIT ( .MILLI., .METRE. ) );
#93 = AXIS2_PLACEMENT_3D ( 'NONE', #244, #36, #231 ) ;
#94 = CLOSED_SHELL ( 'NONE', ( #227, #67, #302, #314, #338, #188, #14, #350, #162, #298, #38, #174 ) ) ;
#95 = ADVANCED_BREP_SHAPE_REPRESENTATION ( '000012-02', ( #215, #226 ), #251 ) ;
#96 = DIRECTION ( 'NONE',  ( 0.0000000000000000000, 0.0000000000000000000, 1.000000000000000000 ) ) ;
#97 = CARTESIAN_POINT ( 'NONE',  ( -11.24999999999999600, 0.5513763205741567500, 0.0000000000000000000 ) ) ;
#98 = ORIENTED_EDGE ( 'NONE', *, *, #49, .F. ) ;
#99 = APPLICATION_CONTEXT ( 'automotive_design' ) ;
#100 = AXIS2_PLACEMENT_3D ( 'NONE', #225, #183, #46 ) ;
#101 = EDGE_CURVE ( 'NONE', #7, #61, #361, .T. ) ;
#102 = SURFACE_STYLE_USAGE ( .BOTH. , #272 ) ;
#103 = DIRECTION ( 'NONE',  ( -0.0000000000000000000, 1.000000000000000000, -0.0000000000000000000 ) ) ;
#104 = ORIENTED_EDGE ( 'NONE', *, *, #249, .F. ) ;
#105 = CARTESIAN_POINT ( 'NONE',  ( 11.24999999999999600, 0.5513763205741567500, 1.454268073987481700E-015 ) ) ;
#106 = DIRECTION ( 'NONE',  ( -0.0000000000000000000, 1.000000000000000000, -0.0000000000000000000 ) ) ;
#107 = UNCERTAINTY_MEASURE_WITH_UNIT (LENGTH_MEASURE( 1.000000000000000100E-005 ), #190, 'distance_accuracy_value', 'NONE');
#108 = EDGE_CURVE ( 'NONE', #197, #61, #154, .T. ) ;
#109 = CARTESIAN_POINT ( 'NONE',  ( 0.0000000000000000000, 49.53375124641246400, 0.0000000000000000000 ) ) ;
#110 = ORIENTED_EDGE ( 'NONE', *, *, #49, .T. ) ;
#111 = CARTESIAN_POINT ( 'NONE',  ( -5.855803878536755000E-016, 6.000000000000000000, 0.0000000000000000000 ) ) ;
#112 = CYLINDRICAL_SURFACE ( 'NONE', #115, 15.99999999999999600 ) ;
#113 = CIRCLE ( 'NONE', #185, 12.49999999999999600 ) ;
#114 = CIRCLE ( 'NONE', #380, 12.49999999999999500 ) ;
#115 = AXIS2_PLACEMENT_3D ( 'NONE', #109, #327, #68 ) ;
#116 = CARTESIAN_POINT ( 'NONE',  ( -5.855803878536755000E-016, 6.000000000000000000, 0.0000000000000000000 ) ) ;
#117 = ORIENTED_EDGE ( 'NONE', *, *, #10, .F. ) ;
#118 = FACE_OUTER_BOUND ( 'NONE', #60, .T. ) ;
#119 = CARTESIAN_POINT ( 'NONE',  ( 0.0000000000000000000, 1.500000000000008200, 0.0000000000000000000 ) ) ;
#120 = AXIS2_PLACEMENT_3D ( 'NONE', #243, #103, #273 ) ;
#121 = EDGE_LOOP ( 'NONE', ( #334, #146, #315, #383 ) ) ;
#122 = SPHERICAL_SURFACE ( 'NONE', #134, 12.49999999999999600 ) ;
#123 =( LENGTH_UNIT ( ) NAMED_UNIT ( * ) SI_UNIT ( .MILLI., .METRE. ) );
#124 = CARTESIAN_POINT ( 'NONE',  ( 0.0000000000000000000, 5.999999999999998200, 0.0000000000000000000 ) ) ;
#125 = PRESENTATION_STYLE_ASSIGNMENT (( #20 ) ) ;
#126 = VERTEX_POINT ( 'NONE', #373 ) ;
#127 = DIRECTION ( 'NONE',  ( -0.0000000000000000000, 1.000000000000000000, -0.0000000000000000000 ) ) ;
#128 = EDGE_CURVE ( 'NONE', #199, #31, #40, .T. ) ;
#129 = DIRECTION ( 'NONE',  ( 0.0000000000000000000, -1.000000000000000000, 0.0000000000000000000 ) ) ;
#130 = FACE_BOUND ( 'NONE', #210, .T. ) ;
#131 = ORIENTED_EDGE ( 'NONE', *, *, #29, .T. ) ;
#132 = CARTESIAN_POINT ( 'NONE',  ( 0.0000000000000000000, 49.53375124641246400, 15.99999999999999600 ) ) ;
#133 = DIRECTION ( 'NONE',  ( 0.0000000000000000000, -1.000000000000000000, 0.0000000000000000000 ) ) ;
#134 = AXIS2_PLACEMENT_3D ( 'NONE', #111, #292, #360 ) ;
#135 = CARTESIAN_POINT ( 'NONE',  ( 0.0000000000000000000, 5.199999999999989500, 0.0000000000000000000 ) ) ;
#136 =( NAMED_UNIT ( * ) SI_UNIT ( $, .STERADIAN. ) SOLID_ANGLE_UNIT ( ) );
#137 = CARTESIAN_POINT ( 'NONE',  ( 0.0000000000000000000, 1.500000000000008200, 15.99999999999999600 ) ) ;
#138 = ORIENTED_EDGE ( 'NONE', *, *, #180, .F. ) ;
#139 = EDGE_LOOP ( 'NONE', ( #98, #184, #323, #218 ) ) ;
#140 = DIRECTION ( 'NONE',  ( -0.0000000000000000000, 1.000000000000000000, -0.0000000000000000000 ) ) ;
#141 = DIRECTION ( 'NONE',  ( 0.0000000000000000000, 0.0000000000000000000, 1.000000000000000000 ) ) ;
#142 = DIRECTION ( 'NONE',  ( 0.0000000000000000000, -1.000000000000000000, 0.0000000000000000000 ) ) ;
#143 = PRESENTATION_LAYER_ASSIGNMENT (  '', '', ( #179 ) ) ;
#144 = CIRCLE ( 'NONE', #156, 11.24999999999999600 ) ;
#145 = EDGE_LOOP ( 'NONE', ( #238, #161 ) ) ;
#146 = ORIENTED_EDGE ( 'NONE', *, *, #328, .T. ) ;
#147 = EDGE_CURVE ( 'NONE', #54, #293, #299, .T. ) ;
#148 = DIRECTION ( 'NONE',  ( -0.0000000000000000000, 1.000000000000000000, -0.0000000000000000000 ) ) ;
#149 = EDGE_LOOP ( 'NONE', ( #73, #117, #4, #240, #241 ) ) ;
#150 = FACE_OUTER_BOUND ( 'NONE', #139, .T. ) ;
#151 = EDGE_CURVE ( 'NONE', #126, #199, #321, .T. ) ;
#152 = ORIENTED_EDGE ( 'NONE', *, *, #271, .T. ) ;
#153 = SPHERICAL_SURFACE ( 'NONE', #247, 12.49999999999999600 ) ;
#154 = LINE ( 'NONE', #349, #287 ) ;
#155 = DIRECTION ( 'NONE',  ( 0.0000000000000000000, 0.0000000000000000000, 1.000000000000000000 ) ) ;
#156 = AXIS2_PLACEMENT_3D ( 'NONE', #35, #358, #242 ) ;
#157 = DIRECTION ( 'NONE',  ( -0.0000000000000000000, 1.000000000000000000, -0.0000000000000000000 ) ) ;
#158 = FACE_OUTER_BOUND ( 'NONE', #366, .T. ) ;
#159 = CONICAL_SURFACE ( 'NONE', #57, 15.19999999999999200, 0.7853981633974460600 ) ;
#160 = APPLICATION_PROTOCOL_DEFINITION ( 'draft international standard', 'automotive_design', 1998, #99 ) ;
#161 = ORIENTED_EDGE ( 'NONE', *, *, #168, .T. ) ;
#162 = ADVANCED_FACE ( 'NONE', ( #23 ), #62, .T. ) ;
#163 = ORIENTED_EDGE ( 'NONE', *, *, #328, .F. ) ;
#164 = DIRECTION ( 'NONE',  ( 0.0000000000000000000, -1.000000000000000000, 0.0000000000000000000 ) ) ;
#165 = EDGE_CURVE ( 'NONE', #31, #255, #372, .T. ) ;
#166 = PLANE ( 'NONE',  #71 ) ;
#167 = COLOUR_RGB ( '',0.7764705882352941300, 0.7568627450980391900, 0.7372549019607843600 ) ;
#168 = EDGE_CURVE ( 'NONE', #250, #197, #205, .T. ) ;
#169 = ORIENTED_EDGE ( 'NONE', *, *, #352, .T. ) ;
#170 = DIRECTION ( 'NONE',  ( -0.0000000000000000000, 1.000000000000000000, -0.0000000000000000000 ) ) ;
#171 = DIRECTION ( 'NONE',  ( 0.0000000000000000000, 0.0000000000000000000, 1.000000000000000000 ) ) ;
#172 = AXIS2_PLACEMENT_3D ( 'NONE', #239, #359, #155 ) ;
#173 = ORIENTED_EDGE ( 'NONE', *, *, #353, .T. ) ;
#174 = ADVANCED_FACE ( 'NONE', ( #150 ), #159, .T. ) ;
#175 = DIRECTION ( 'NONE',  ( -0.0000000000000000000, 1.000000000000000000, -0.0000000000000000000 ) ) ;
#176 = CARTESIAN_POINT ( 'NONE',  ( 0.0000000000000000000, 1.500000000000008200, 15.99999999999999600 ) ) ;
#177 = CARTESIAN_POINT ( 'NONE',  ( 0.0000000000000000000, 0.5513763205741567500, 0.0000000000000000000 ) ) ;
#178 = ORIENTED_EDGE ( 'NONE', *, *, #5, .T. ) ;
#179 = STYLED_ITEM ( 'NONE', ( #125 ), #215 ) ;
#180 = EDGE_CURVE ( 'NONE', #293, #86, #76, .T. ) ;
#181 = ORIENTED_EDGE ( 'NONE', *, *, #58, .T. ) ;
#182 = CIRCLE ( 'NONE', #333, 15.99999999999999600 ) ;
#183 = DIRECTION ( 'NONE',  ( -0.0000000000000000000, 1.000000000000000000, -0.0000000000000000000 ) ) ;
#184 = ORIENTED_EDGE ( 'NONE', *, *, #267, .F. ) ;
#185 = AXIS2_PLACEMENT_3D ( 'NONE', #268, #47, #318 ) ;
#186 = EDGE_CURVE ( 'NONE', #86, #293, #384, .T. ) ;
#187 = CARTESIAN_POINT ( 'NONE',  ( -15.99999999999999300, 6.000000000000000000, 0.0000000000000000000 ) ) ;
#188 = ADVANCED_FACE ( 'NONE', ( #294 ), #305, .F. ) ;
#189 =( NAMED_UNIT ( * ) SI_UNIT ( $, .STERADIAN. ) SOLID_ANGLE_UNIT ( ) );
#190 =( LENGTH_UNIT ( ) NAMED_UNIT ( * ) SI_UNIT ( .MILLI., .METRE. ) );
#191 = LINE ( 'NONE', #137, #74 ) ;
#192 = CIRCLE ( 'NONE', #17, 15.19999999999999000 ) ;
#193 = DIRECTION ( 'NONE',  ( 0.0000000000000000000, 0.0000000000000000000, 1.000000000000000000 ) ) ;
#194 = AXIS2_PLACEMENT_3D ( 'NONE', #368, #11, #66 ) ;
#195 = PRODUCT_CONTEXT ( 'NONE', #99, 'mechanical' ) ;
#196 = CARTESIAN_POINT ( 'NONE',  ( 0.0000000000000000000, 6.000000000000000000, 0.0000000000000000000 ) ) ;
#197 = VERTEX_POINT ( 'NONE', #198 ) ;
#198 = CARTESIAN_POINT ( 'NONE',  ( 0.0000000000000000000, 6.000000000000000000, -15.19999999999999000 ) ) ;
#199 = VERTEX_POINT ( 'NONE', #105 ) ;
#200 = DIRECTION ( 'NONE',  ( 0.0000000000000000000, 0.0000000000000000000, 1.000000000000000000 ) ) ;
#201 = CARTESIAN_POINT ( 'NONE',  ( 0.0000000000000000000, 0.0000000000000000000, 0.0000000000000000000 ) ) ;
#202 = ORIENTED_EDGE ( 'NONE', *, *, #151, .F. ) ;
#203 = LINE ( 'NONE', #222, #32 ) ;
#204 = CARTESIAN_POINT ( 'NONE',  ( 0.0000000000000000000, 49.53375124641246400, 11.24999999999999600 ) ) ;
#205 = CIRCLE ( 'NONE', #3, 15.19999999999999000 ) ;
#206 = ORIENTED_EDGE ( 'NONE', *, *, #101, .T. ) ;
#207 = DIRECTION ( 'NONE',  ( 1.000000000000000000, 0.0000000000000000000, 1.224646799147353200E-016 ) ) ;
#208 = AXIS2_PLACEMENT_3D ( 'NONE', #201, #77, #56 ) ;
#209 = DIRECTION ( 'NONE',  ( 0.0000000000000000000, 0.0000000000000000000, 1.000000000000000000 ) ) ;
#210 = EDGE_LOOP ( 'NONE', ( #104, #260 ) ) ;
#211 = FACE_OUTER_BOUND ( 'NONE', #145, .T. ) ;
#212 = AXIS2_PLACEMENT_3D ( 'NONE', #187, #42, #96 ) ;
#213 = DIRECTION ( 'NONE',  ( 0.0000000000000000000, 0.0000000000000000000, 1.000000000000000000 ) ) ;
#214 = ORIENTED_EDGE ( 'NONE', *, *, #353, .F. ) ;
#215 = MANIFOLD_SOLID_BREP ( 'Chanfrein2', #94 ) ;
#216 = CARTESIAN_POINT ( 'NONE',  ( 0.0000000000000000000, 0.0000000000000000000, 0.0000000000000000000 ) ) ;
#217 = PRODUCT ( '000012-02', '000012-02', '', ( #195 ) ) ;
#218 = ORIENTED_EDGE ( 'NONE', *, *, #101, .F. ) ;
#219 = EDGE_CURVE ( 'NONE', #61, #7, #182, .T. ) ;
#220 = CARTESIAN_POINT ( 'NONE',  ( 1.377727649040771600E-015, 0.0000000000000000000, -11.24999999999999500 ) ) ;
#221 = ORIENTED_EDGE ( 'NONE', *, *, #147, .F. ) ;
#222 = CARTESIAN_POINT ( 'NONE',  ( 1.959434878635764700E-015, 49.53375124641246400, -15.99999999999999600 ) ) ;
#223 = ORIENTED_EDGE ( 'NONE', *, *, #128, .F. ) ;
#224 = COLOUR_RGB ( '',0.7764705882352941300, 0.7568627450980391900, 0.7372549019607843600 ) ;
#225 = CARTESIAN_POINT ( 'NONE',  ( 0.0000000000000000000, 1.500000000000008200, 0.0000000000000000000 ) ) ;
#226 = AXIS2_PLACEMENT_3D ( 'NONE', #216, #193, #324 ) ;
#227 = ADVANCED_FACE ( 'NONE', ( #354 ), #270, .T. ) ;
#228 = CARTESIAN_POINT ( 'NONE',  ( 0.0000000000000000000, 5.999999999999998200, 0.0000000000000000000 ) ) ;
#229 = CARTESIAN_POINT ( 'NONE',  ( 0.0000000000000000000, -4.286263797015749900E-016, 14.49999999999998200 ) ) ;
#230 = AXIS2_PLACEMENT_3D ( 'NONE', #119, #170, #283 ) ;
#231 = DIRECTION ( 'NONE',  ( 0.0000000000000000000, 0.0000000000000000000, 1.000000000000000000 ) ) ;
#232 = VECTOR ( 'NONE', #106, 1000.000000000000000 ) ;
#233 = AXIS2_PLACEMENT_3D ( 'NONE', #19, #129, #331 ) ;
#234 = LINE ( 'NONE', #2, #48 ) ;
#235 = SURFACE_STYLE_FILL_AREA ( #342 ) ;
#236 = CARTESIAN_POINT ( 'NONE',  ( 0.0000000000000000000, 0.0000000000000000000, 11.24999999999999500 ) ) ;
#237 = DIRECTION ( 'NONE',  ( 0.0000000000000000000, -1.000000000000000000, 0.0000000000000000000 ) ) ;
#238 = ORIENTED_EDGE ( 'NONE', *, *, #267, .T. ) ;
#239 = CARTESIAN_POINT ( 'NONE',  ( 0.0000000000000000000, 49.53375124641246400, 0.0000000000000000000 ) ) ;
#240 = ORIENTED_EDGE ( 'NONE', *, *, #151, .T. ) ;
#241 = ORIENTED_EDGE ( 'NONE', *, *, #88, .T. ) ;
#242 = DIRECTION ( 'NONE',  ( 0.0000000000000000000, 0.0000000000000000000, 1.000000000000000000 ) ) ;
#243 = CARTESIAN_POINT ( 'NONE',  ( 0.0000000000000000000, 49.53375124641246400, 0.0000000000000000000 ) ) ;
#244 = CARTESIAN_POINT ( 'NONE',  ( 0.0000000000000000000, 0.0000000000000000000, 0.0000000000000000000 ) ) ;
#245 = PRESENTATION_STYLE_ASSIGNMENT (( #102 ) ) ;
#246 = DIRECTION ( 'NONE',  ( -0.0000000000000000000, 1.000000000000000000, -0.0000000000000000000 ) ) ;
#247 = AXIS2_PLACEMENT_3D ( 'NONE', #45, #1, #91 ) ;
#248 = ORIENTED_EDGE ( 'NONE', *, *, #58, .F. ) ;
#249 = EDGE_CURVE ( 'NONE', #255, #31, #114, .T. ) ;
#250 = VERTEX_POINT ( 'NONE', #64 ) ;
#251 =( GEOMETRIC_REPRESENTATION_CONTEXT ( 3 ) GLOBAL_UNCERTAINTY_ASSIGNED_CONTEXT ( ( #370 ) ) GLOBAL_UNIT_ASSIGNED_CONTEXT ( ( #123, #301, #189 ) ) REPRESENTATION_CONTEXT ( 'NONE', 'WORKASPACE' ) );
#252 = CARTESIAN_POINT ( 'NONE',  ( 0.0000000000000000000, 1.500000000000008200, 0.0000000000000000000 ) ) ;
#253 = DIRECTION ( 'NONE',  ( 0.0000000000000000000, 0.0000000000000000000, -1.000000000000000000 ) ) ;
#254 = CARTESIAN_POINT ( 'NONE',  ( -12.49999999999999600, 5.999999999999998200, 0.0000000000000000000 ) ) ;
#255 = VERTEX_POINT ( 'NONE', #254 ) ;
#256 = FACE_OUTER_BOUND ( 'NONE', #347, .T. ) ;
#257 = DIRECTION ( 'NONE',  ( -0.0000000000000000000, 1.000000000000000000, -0.0000000000000000000 ) ) ;
#258 = DIRECTION ( 'NONE',  ( 8.659560562354913100E-017, -0.7071067811865490200, 0.7071067811865460200 ) ) ;
#259 = CARTESIAN_POINT ( 'NONE',  ( 0.0000000000000000000, 1.500000000000008200, 0.0000000000000000000 ) ) ;
#260 = ORIENTED_EDGE ( 'NONE', *, *, #165, .F. ) ;
#261 = FACE_OUTER_BOUND ( 'NONE', #330, .T. ) ;
#262 = CARTESIAN_POINT ( 'NONE',  ( 1.867586368699712200E-015, -4.286263797015749900E-016, -14.49999999999998200 ) ) ;
#263 = PRODUCT_DEFINITION ( 'UNKNOWN', '', #27, #286 ) ;
#264 = VERTEX_POINT ( 'NONE', #220 ) ;
#265 = CARTESIAN_POINT ( 'NONE',  ( 0.0000000000000000000, 5.199999999999989500, 15.99999999999999600 ) ) ;
#266 = AXIS2_PLACEMENT_3D ( 'NONE', #52, #148, #280 ) ;
#267 = EDGE_CURVE ( 'NONE', #197, #250, #192, .T. ) ;
#268 = CARTESIAN_POINT ( 'NONE',  ( -5.855803878536755000E-016, 6.000000000000000000, 0.0000000000000000000 ) ) ;
#269 = LINE ( 'NONE', #204, #232 ) ;
#270 = CONICAL_SURFACE ( 'NONE', #357, 15.19999999999999200, 0.7853981633974460600 ) ;
#271 = EDGE_CURVE ( 'NONE', #264, #274, #335, .T. ) ;
#272 = SURFACE_SIDE_STYLE ('',( #339 ) ) ;
#273 = DIRECTION ( 'NONE',  ( 0.0000000000000000000, 0.0000000000000000000, 1.000000000000000000 ) ) ;
#274 = VERTEX_POINT ( 'NONE', #15 ) ;
#275 = CIRCLE ( 'NONE', #93, 11.24999999999999500 ) ;
#276 =( NAMED_UNIT ( * ) SI_UNIT ( $, .STERADIAN. ) SOLID_ANGLE_UNIT ( ) );
#277 = DIRECTION ( 'NONE',  ( -1.224646799147353200E-016, 0.0000000000000000000, 1.000000000000000000 ) ) ;
#278 = CONICAL_SURFACE ( 'NONE', #281, 15.99999999999999600, 0.7853981633974506100 ) ;
#279 = ORIENTED_EDGE ( 'NONE', *, *, #168, .F. ) ;
#280 = DIRECTION ( 'NONE',  ( 0.0000000000000000000, 0.0000000000000000000, 1.000000000000000000 ) ) ;
#281 = AXIS2_PLACEMENT_3D ( 'NONE', #252, #316, #141 ) ;
#282 = FILL_AREA_STYLE ('',( #8 ) ) ;
#283 = DIRECTION ( 'NONE',  ( 0.0000000000000000000, 0.0000000000000000000, 1.000000000000000000 ) ) ;
#284 = ORIENTED_EDGE ( 'NONE', *, *, #10, .T. ) ;
#285 = STYLED_ITEM ( 'NONE', ( #245 ), #95 ) ;
#286 = PRODUCT_DEFINITION_CONTEXT ( 'detailed design', #363, 'design' ) ;
#287 = VECTOR ( 'NONE', #385, 1000.000000000000100 ) ;
#288 = CIRCLE ( 'NONE', #297, 11.24999999999999600 ) ;
#289 = ORIENTED_EDGE ( 'NONE', *, *, #306, .F. ) ;
#290 = VECTOR ( 'NONE', #343, 1000.000000000000100 ) ;
#291 = MECHANICAL_DESIGN_GEOMETRIC_PRESENTATION_REPRESENTATION (  '', ( #179 ), #313 ) ;
#292 = DIRECTION ( 'NONE',  ( 0.0000000000000000000, 0.0000000000000000000, 1.000000000000000000 ) ) ;
#293 = VERTEX_POINT ( 'NONE', #6 ) ;
#294 = FACE_OUTER_BOUND ( 'NONE', #149, .T. ) ;
#295 =( NAMED_UNIT ( * ) PLANE_ANGLE_UNIT ( ) SI_UNIT ( $, .RADIAN. ) );
#296 = PLANE ( 'NONE',  #212 ) ;
#297 = AXIS2_PLACEMENT_3D ( 'NONE', #72, #340, #376 ) ;
#298 = ADVANCED_FACE ( 'NONE', ( #261, #43 ), #166, .T. ) ;
#299 = LINE ( 'NONE', #87, #290 ) ;
#300 = ORIENTED_EDGE ( 'NONE', *, *, #374, .F. ) ;
#301 =( NAMED_UNIT ( * ) PLANE_ANGLE_UNIT ( ) SI_UNIT ( $, .RADIAN. ) );
#302 = ADVANCED_FACE ( 'NONE', ( #34 ), #112, .T. ) ;
#303 = PRESENTATION_LAYER_ASSIGNMENT (  '', '', ( #285 ) ) ;
#304 = ORIENTED_EDGE ( 'NONE', *, *, #219, .F. ) ;
#305 = CYLINDRICAL_SURFACE ( 'NONE', #120, 11.24999999999999600 ) ;
#306 = EDGE_CURVE ( 'NONE', #264, #80, #275, .T. ) ;
#307 = APPLICATION_PROTOCOL_DEFINITION ( 'draft international standard', 'automotive_design', 1998, #363 ) ;
#308 = CARTESIAN_POINT ( 'NONE',  ( 12.49999999999999600, 5.999999999999998200, 1.530808498934191100E-015 ) ) ;
#309 = CARTESIAN_POINT ( 'NONE',  ( 0.0000000000000000000, 5.199999999999989500, 0.0000000000000000000 ) ) ;
#310 = CONICAL_SURFACE ( 'NONE', #230, 15.99999999999999600, 0.7853981633974506100 ) ;
#311 = ORIENTED_EDGE ( 'NONE', *, *, #249, .T. ) ;
#312 = DIRECTION ( 'NONE',  ( 0.0000000000000000000, 0.0000000000000000000, -1.000000000000000000 ) ) ;
#313 =( GEOMETRIC_REPRESENTATION_CONTEXT ( 3 ) GLOBAL_UNCERTAINTY_ASSIGNED_CONTEXT ( ( #107 ) ) GLOBAL_UNIT_ASSIGNED_CONTEXT ( ( #190, #16, #276 ) ) REPRESENTATION_CONTEXT ( 'NONE', 'WORKASPACE' ) );
#314 = ADVANCED_FACE ( 'NONE', ( #348 ), #122, .F. ) ;
#315 = ORIENTED_EDGE ( 'NONE', *, *, #219, .T. ) ;
#316 = DIRECTION ( 'NONE',  ( -0.0000000000000000000, 1.000000000000000000, -0.0000000000000000000 ) ) ;
#317 = ORIENTED_EDGE ( 'NONE', *, *, #147, .T. ) ;
#318 = DIRECTION ( 'NONE',  ( -1.000000000000000000, 0.0000000000000000000, 0.0000000000000000000 ) ) ;
#319 = UNCERTAINTY_MEASURE_WITH_UNIT (LENGTH_MEASURE( 1.000000000000000100E-005 ), #92, 'distance_accuracy_value', 'NONE');
#320 = ORIENTED_EDGE ( 'NONE', *, *, #186, .F. ) ;
#321 = CIRCLE ( 'NONE', #365, 11.24999999999999600 ) ;
#322 = AXIS2_PLACEMENT_3D ( 'NONE', #135, #386, #78 ) ;
#323 = ORIENTED_EDGE ( 'NONE', *, *, #108, .T. ) ;
#324 = DIRECTION ( 'NONE',  ( 1.000000000000000000, 0.0000000000000000000, 0.0000000000000000000 ) ) ;
#325 = MECHANICAL_DESIGN_GEOMETRIC_PRESENTATION_REPRESENTATION (  '', ( #285 ), #351 ) ;
#326 = CARTESIAN_POINT ( 'NONE',  ( 0.0000000000000000000, 6.000000000000000000, 0.0000000000000000000 ) ) ;
#327 = DIRECTION ( 'NONE',  ( -0.0000000000000000000, 1.000000000000000000, -0.0000000000000000000 ) ) ;
#328 = EDGE_CURVE ( 'NONE', #293, #61, #203, .T. ) ;
#329 = FILL_AREA_STYLE_COLOUR ( '', #224 ) ;
#330 = EDGE_LOOP ( 'NONE', ( #30, #173 ) ) ;
#331 = DIRECTION ( 'NONE',  ( 0.0000000000000000000, 0.0000000000000000000, -1.000000000000000000 ) ) ;
#332 = SURFACE_SIDE_STYLE ('',( #235 ) ) ;
#333 = AXIS2_PLACEMENT_3D ( 'NONE', #309, #164, #369 ) ;
#334 = ORIENTED_EDGE ( 'NONE', *, *, #186, .T. ) ;
#335 = LINE ( 'NONE', #337, #9 ) ;
#336 = PRODUCT_DEFINITION_SHAPE ( 'NONE', 'NONE',  #263 ) ;
#337 = CARTESIAN_POINT ( 'NONE',  ( 1.377727649040771800E-015, 49.53375124641246400, -11.24999999999999600 ) ) ;
#338 = ADVANCED_FACE ( 'NONE', ( #256 ), #59, .F. ) ;
#339 = SURFACE_STYLE_FILL_AREA ( #282 ) ;
#340 = DIRECTION ( 'NONE',  ( -0.0000000000000000000, 1.000000000000000000, -0.0000000000000000000 ) ) ;
#341 = CIRCLE ( 'NONE', #266, 11.24999999999999600 ) ;
#342 = FILL_AREA_STYLE ('',( #329 ) ) ;
#343 = DIRECTION ( 'NONE',  ( 8.659560562354955000E-017, 0.7071067811865459100, -0.7071067811865491300 ) ) ;
#344 = AXIS2_PLACEMENT_3D ( 'NONE', #116, #277, #207 ) ;
#345 = EDGE_CURVE ( 'NONE', #377, #126, #144, .T. ) ;
#346 = CARTESIAN_POINT ( 'NONE',  ( 0.0000000000000000000, 5.999999999999998200, 0.0000000000000000000 ) ) ;
#347 = EDGE_LOOP ( 'NONE', ( #289, #152, #181, #69, #89 ) ) ;
#348 = FACE_OUTER_BOUND ( 'NONE', #85, .T. ) ;
#349 = CARTESIAN_POINT ( 'NONE',  ( 0.0000000000000000000, 5.999999999999998200, -15.19999999999999200 ) ) ;
#350 = ADVANCED_FACE ( 'NONE', ( #211, #130 ), #296, .T. ) ;
#351 =( GEOMETRIC_REPRESENTATION_CONTEXT ( 3 ) GLOBAL_UNCERTAINTY_ASSIGNED_CONTEXT ( ( #319 ) ) GLOBAL_UNIT_ASSIGNED_CONTEXT ( ( #92, #295, #136 ) ) REPRESENTATION_CONTEXT ( 'NONE', 'WORKASPACE' ) );
#352 = EDGE_CURVE ( 'NONE', #86, #7, #378, .T. ) ;
#353 = EDGE_CURVE ( 'NONE', #54, #79, #70, .T. ) ;
#354 = FACE_OUTER_BOUND ( 'NONE', #55, .T. ) ;
#355 = CARTESIAN_POINT ( 'NONE',  ( 0.0000000000000000000, 49.53375124641246400, 0.0000000000000000000 ) ) ;
#356 = VECTOR ( 'NONE', #127, 1000.000000000000000 ) ;
#357 = AXIS2_PLACEMENT_3D ( 'NONE', #228, #142, #375 ) ;
#358 = DIRECTION ( 'NONE',  ( -0.0000000000000000000, 1.000000000000000000, -0.0000000000000000000 ) ) ;
#359 = DIRECTION ( 'NONE',  ( -0.0000000000000000000, 1.000000000000000000, -0.0000000000000000000 ) ) ;
#360 = DIRECTION ( 'NONE',  ( -1.000000000000000000, 0.0000000000000000000, 0.0000000000000000000 ) ) ;
#361 = CIRCLE ( 'NONE', #322, 15.99999999999999600 ) ;
#362 = ORIENTED_EDGE ( 'NONE', *, *, #88, .F. ) ;
#363 = APPLICATION_CONTEXT ( 'automotive_design' ) ;
#364 = CARTESIAN_POINT ( 'NONE',  ( -11.24999999999999500, -4.286263797015749900E-016, 0.0000000000000000000 ) ) ;
#365 = AXIS2_PLACEMENT_3D ( 'NONE', #177, #53, #209 ) ;
#366 = EDGE_LOOP ( 'NONE', ( #221, #300, #131, #138 ) ) ;
#367 = CIRCLE ( 'NONE', #233, 14.49999999999998200 ) ;
#368 = CARTESIAN_POINT ( 'NONE',  ( 0.0000000000000000000, -4.286263797015749900E-016, 0.0000000000000000000 ) ) ;
#369 = DIRECTION ( 'NONE',  ( 0.0000000000000000000, 0.0000000000000000000, 1.000000000000000000 ) ) ;
#370 = UNCERTAINTY_MEASURE_WITH_UNIT (LENGTH_MEASURE( 1.000000000000000100E-005 ), #123, 'distance_accuracy_value', 'NONE');
#371 = ORIENTED_EDGE ( 'NONE', *, *, #306, .T. ) ;
#372 = CIRCLE ( 'NONE', #24, 12.49999999999999500 ) ;
#373 = CARTESIAN_POINT ( 'NONE',  ( 0.0000000000000000000, 0.5513763205741567500, 11.24999999999999600 ) ) ;
#374 = EDGE_CURVE ( 'NONE', #79, #54, #367, .T. ) ;
#375 = DIRECTION ( 'NONE',  ( 0.0000000000000000000, 0.0000000000000000000, -1.000000000000000000 ) ) ;
#376 = DIRECTION ( 'NONE',  ( 0.0000000000000000000, 0.0000000000000000000, 1.000000000000000000 ) ) ;
#377 = VERTEX_POINT ( 'NONE', #97 ) ;
#378 = LINE ( 'NONE', #132, #356 ) ;
#379 = DIRECTION ( 'NONE',  ( -0.0000000000000000000, 1.000000000000000000, -0.0000000000000000000 ) ) ;
#380 = AXIS2_PLACEMENT_3D ( 'NONE', #124, #246, #21 ) ;
#381 = CARTESIAN_POINT ( 'NONE',  ( 0.0000000000000000000, 5.999999999999998200, 0.0000000000000000000 ) ) ;
#382 = ORIENTED_EDGE ( 'NONE', *, *, #5, .F. ) ;
#383 = ORIENTED_EDGE ( 'NONE', *, *, #352, .F. ) ;
#384 = CIRCLE ( 'NONE', #100, 15.99999999999999600 ) ;
#385 = DIRECTION ( 'NONE',  ( 0.0000000000000000000, -0.7071067811865490200, -0.7071067811865460200 ) ) ;
#386 = DIRECTION ( 'NONE',  ( 0.0000000000000000000, -1.000000000000000000, 0.0000000000000000000 ) ) ;
ENDSEC;
END-ISO-10303-21;
