ISO-10303-21;
HEADER;
FILE_DESCRIPTION(('CATIA V5 STEP Exchange'),'2;1');

FILE_NAME('C:\\Temp\\SUPPORT MIROIR.stp','2022-01-21T13:57:53+00:00',('none'),('none'),'CATIA Version 5-6 Release 2017 SP5 HF57','CATIA V5 STEP AP203','none');

FILE_SCHEMA(('CONFIG_CONTROL_DESIGN'));

ENDSEC;
DATA;
#5=PRODUCT('PART1','','',(#2)) ;
#1=APPLICATION_CONTEXT('configuration controlled 3D design of mechanical parts and assemblies') ;
#14=PRODUCT_DEFINITION('',' ',#6,#3) ;
#16=SECURITY_CLASSIFICATION(' ',' ',#15) ;
#15=SECURITY_CLASSIFICATION_LEVEL('unclassified') ;
#46=CARTESIAN_POINT(' ',(0.,0.,0.)) ;
#51=CARTESIAN_POINT('Axis2P3D Location',(0.,0.,0.)) ;
#56=CARTESIAN_POINT('Line Origine',(30.,14.,0.)) ;
#60=CARTESIAN_POINT('Vertex',(30.,2.5,0.)) ;
#62=CARTESIAN_POINT('Vertex',(30.,25.5,0.)) ;
#65=CARTESIAN_POINT('Line Origine',(15.,2.5,0.)) ;
#69=CARTESIAN_POINT('Vertex',(0.,2.5,0.)) ;
#72=CARTESIAN_POINT('Line Origine',(0.,14.,0.)) ;
#76=CARTESIAN_POINT('Vertex',(0.,25.5,0.)) ;
#79=CARTESIAN_POINT('Line Origine',(15.,25.5,0.)) ;
#91=CARTESIAN_POINT('Axis2P3D Location',(15.,25.5,2.5)) ;
#96=CARTESIAN_POINT('Axis2P3D Location',(30.,25.5,2.5)) ;
#100=CARTESIAN_POINT('Vertex',(30.,28.,2.5)) ;
#103=CARTESIAN_POINT('Axis2P3D Location',(0.,25.5,2.5)) ;
#107=CARTESIAN_POINT('Vertex',(0.,28.,2.5)) ;
#110=CARTESIAN_POINT('Line Origine',(15.,28.,2.5)) ;
#122=CARTESIAN_POINT('Axis2P3D Location',(15.,2.5,2.5)) ;
#127=CARTESIAN_POINT('Axis2P3D Location',(30.,2.5,2.5)) ;
#131=CARTESIAN_POINT('Vertex',(30.,0.,2.5)) ;
#134=CARTESIAN_POINT('Line Origine',(15.,0.,2.5)) ;
#138=CARTESIAN_POINT('Vertex',(0.,0.,2.5)) ;
#141=CARTESIAN_POINT('Axis2P3D Location',(0.,2.5,2.5)) ;
#153=CARTESIAN_POINT('Axis2P3D Location',(0.,28.,0.)) ;
#158=CARTESIAN_POINT('Line Origine',(0.,28.,7.75)) ;
#162=CARTESIAN_POINT('Vertex',(0.,28.,13.)) ;
#165=CARTESIAN_POINT('Line Origine',(15.,28.,13.)) ;
#169=CARTESIAN_POINT('Vertex',(30.,28.,13.)) ;
#172=CARTESIAN_POINT('Line Origine',(30.,28.,7.75)) ;
#184=CARTESIAN_POINT('Axis2P3D Location',(0.,28.,13.)) ;
#189=CARTESIAN_POINT('Line Origine',(0.,27.,13.)) ;
#193=CARTESIAN_POINT('Vertex',(0.,26.,13.)) ;
#196=CARTESIAN_POINT('Line Origine',(15.,26.,13.)) ;
#200=CARTESIAN_POINT('Vertex',(30.,26.,13.)) ;
#203=CARTESIAN_POINT('Line Origine',(30.,27.,13.)) ;
#215=CARTESIAN_POINT('Axis2P3D Location',(0.,26.,13.)) ;
#220=CARTESIAN_POINT('Line Origine',(30.,26.,8.)) ;
#224=CARTESIAN_POINT('Vertex',(30.,26.,3.)) ;
#227=CARTESIAN_POINT('Line Origine',(0.,26.,8.)) ;
#231=CARTESIAN_POINT('Vertex',(0.,26.,3.)) ;
#234=CARTESIAN_POINT('Line Origine',(15.,26.,3.)) ;
#246=CARTESIAN_POINT('Axis2P3D Location',(15.,25.,3.)) ;
#251=CARTESIAN_POINT('Line Origine',(15.,25.,2.)) ;
#255=CARTESIAN_POINT('Vertex',(30.,25.,2.)) ;
#257=CARTESIAN_POINT('Vertex',(0.,25.,2.)) ;
#260=CARTESIAN_POINT('Axis2P3D Location',(30.,25.,3.)) ;
#265=CARTESIAN_POINT('Axis2P3D Location',(0.,25.,3.)) ;
#277=CARTESIAN_POINT('Axis2P3D Location',(0.,26.,2.)) ;
#282=CARTESIAN_POINT('Line Origine',(0.,14.,2.)) ;
#286=CARTESIAN_POINT('Vertex',(0.,3.,2.)) ;
#289=CARTESIAN_POINT('Line Origine',(15.,3.,2.)) ;
#293=CARTESIAN_POINT('Vertex',(30.,3.,2.)) ;
#296=CARTESIAN_POINT('Line Origine',(30.,14.,2.)) ;
#308=CARTESIAN_POINT('Axis2P3D Location',(15.,3.,3.)) ;
#313=CARTESIAN_POINT('Line Origine',(15.,2.,3.)) ;
#317=CARTESIAN_POINT('Vertex',(30.,2.,3.)) ;
#319=CARTESIAN_POINT('Vertex',(0.,2.,3.)) ;
#322=CARTESIAN_POINT('Axis2P3D Location',(30.,3.,3.)) ;
#327=CARTESIAN_POINT('Axis2P3D Location',(0.,3.,3.)) ;
#339=CARTESIAN_POINT('Axis2P3D Location',(0.,2.,31.)) ;
#344=CARTESIAN_POINT('Line Origine',(15.,2.,31.)) ;
#348=CARTESIAN_POINT('Vertex',(0.,2.,31.)) ;
#350=CARTESIAN_POINT('Vertex',(30.,2.,31.)) ;
#353=CARTESIAN_POINT('Line Origine',(0.,1.,31.)) ;
#357=CARTESIAN_POINT('Vertex',(0.,0.,31.)) ;
#360=CARTESIAN_POINT('Line Origine',(15.,0.,31.)) ;
#364=CARTESIAN_POINT('Vertex',(30.,0.,31.)) ;
#367=CARTESIAN_POINT('Line Origine',(30.,1.,31.)) ;
#379=CARTESIAN_POINT('Axis2P3D Location',(0.,0.,0.)) ;
#384=CARTESIAN_POINT('Line Origine',(0.,0.,16.75)) ;
#389=CARTESIAN_POINT('Line Origine',(0.,2.,17.)) ;
#409=CARTESIAN_POINT('Axis2P3D Location',(30.,0.,0.)) ;
#414=CARTESIAN_POINT('Line Origine',(30.,2.,17.)) ;
#419=CARTESIAN_POINT('Line Origine',(30.,0.,16.75)) ;
#439=CARTESIAN_POINT('Axis2P3D Location',(0.,2.,2.)) ;
#450=CARTESIAN_POINT('Axis2P3D Location',(15.,2.,20.)) ;
#454=CARTESIAN_POINT('Vertex',(13.,2.,20.)) ;
#456=CARTESIAN_POINT('Vertex',(17.,2.,20.)) ;
#459=CARTESIAN_POINT('Axis2P3D Location',(15.,2.,20.)) ;
#469=CARTESIAN_POINT('Axis2P3D Location',(0.,0.,31.)) ;
#480=CARTESIAN_POINT('Axis2P3D Location',(15.,0.,20.)) ;
#484=CARTESIAN_POINT('Vertex',(17.,0.,20.)) ;
#486=CARTESIAN_POINT('Vertex',(13.,0.,20.)) ;
#489=CARTESIAN_POINT('Axis2P3D Location',(15.,0.,20.)) ;
#499=CARTESIAN_POINT('Axis2P3D Location',(15.,-13.,20.)) ;
#504=CARTESIAN_POINT('Line Origine',(17.,-13.,20.)) ;
#509=CARTESIAN_POINT('Line Origine',(13.,-13.,20.)) ;
#531=CARTESIAN_POINT('Axis2P3D Location',(0.,0.,0.)) ;
#52=DIRECTION('Axis2P3D Direction',(0.,0.,-1.)) ;
#53=DIRECTION('Axis2P3D XDirection',(0.,1.,0.)) ;
#57=DIRECTION('Vector Direction',(0.,1.,0.)) ;
#66=DIRECTION('Vector Direction',(1.,0.,0.)) ;
#73=DIRECTION('Vector Direction',(0.,1.,0.)) ;
#80=DIRECTION('Vector Direction',(1.,0.,0.)) ;
#92=DIRECTION('Axis2P3D Direction',(1.,0.,0.)) ;
#93=DIRECTION('Axis2P3D XDirection',(-0.,-1.83697019872E-016,-1.)) ;
#97=DIRECTION('Axis2P3D Direction',(1.,0.,0.)) ;
#104=DIRECTION('Axis2P3D Direction',(1.,0.,0.)) ;
#111=DIRECTION('Vector Direction',(1.,0.,0.)) ;
#123=DIRECTION('Axis2P3D Direction',(1.,0.,0.)) ;
#124=DIRECTION('Axis2P3D XDirection',(0.,-1.,1.83697019872E-016)) ;
#128=DIRECTION('Axis2P3D Direction',(1.,0.,0.)) ;
#135=DIRECTION('Vector Direction',(1.,0.,0.)) ;
#142=DIRECTION('Axis2P3D Direction',(1.,0.,0.)) ;
#154=DIRECTION('Axis2P3D Direction',(0.,1.,0.)) ;
#155=DIRECTION('Axis2P3D XDirection',(0.,0.,1.)) ;
#159=DIRECTION('Vector Direction',(0.,0.,1.)) ;
#166=DIRECTION('Vector Direction',(1.,0.,0.)) ;
#173=DIRECTION('Vector Direction',(0.,0.,1.)) ;
#185=DIRECTION('Axis2P3D Direction',(-0.,0.,1.)) ;
#186=DIRECTION('Axis2P3D XDirection',(0.,-1.,0.)) ;
#190=DIRECTION('Vector Direction',(0.,-1.,0.)) ;
#197=DIRECTION('Vector Direction',(1.,0.,0.)) ;
#204=DIRECTION('Vector Direction',(0.,-1.,0.)) ;
#216=DIRECTION('Axis2P3D Direction',(0.,-1.,0.)) ;
#217=DIRECTION('Axis2P3D XDirection',(0.,0.,-1.)) ;
#221=DIRECTION('Vector Direction',(0.,0.,-1.)) ;
#228=DIRECTION('Vector Direction',(0.,0.,-1.)) ;
#235=DIRECTION('Vector Direction',(1.,0.,0.)) ;
#247=DIRECTION('Axis2P3D Direction',(1.,0.,0.)) ;
#248=DIRECTION('Axis2P3D XDirection',(0.,0.,-1.)) ;
#252=DIRECTION('Vector Direction',(1.,0.,0.)) ;
#261=DIRECTION('Axis2P3D Direction',(1.,0.,0.)) ;
#266=DIRECTION('Axis2P3D Direction',(1.,0.,0.)) ;
#278=DIRECTION('Axis2P3D Direction',(-0.,0.,1.)) ;
#279=DIRECTION('Axis2P3D XDirection',(0.,-1.,0.)) ;
#283=DIRECTION('Vector Direction',(0.,-1.,0.)) ;
#290=DIRECTION('Vector Direction',(1.,0.,0.)) ;
#297=DIRECTION('Vector Direction',(0.,-1.,0.)) ;
#309=DIRECTION('Axis2P3D Direction',(1.,0.,0.)) ;
#310=DIRECTION('Axis2P3D XDirection',(0.,-1.,0.)) ;
#314=DIRECTION('Vector Direction',(1.,0.,0.)) ;
#323=DIRECTION('Axis2P3D Direction',(1.,0.,0.)) ;
#328=DIRECTION('Axis2P3D Direction',(1.,0.,0.)) ;
#340=DIRECTION('Axis2P3D Direction',(-0.,0.,1.)) ;
#341=DIRECTION('Axis2P3D XDirection',(0.,-1.,0.)) ;
#345=DIRECTION('Vector Direction',(1.,0.,0.)) ;
#354=DIRECTION('Vector Direction',(0.,-1.,0.)) ;
#361=DIRECTION('Vector Direction',(1.,0.,0.)) ;
#368=DIRECTION('Vector Direction',(0.,-1.,0.)) ;
#380=DIRECTION('Axis2P3D Direction',(1.,0.,0.)) ;
#381=DIRECTION('Axis2P3D XDirection',(0.,1.,0.)) ;
#385=DIRECTION('Vector Direction',(0.,0.,-1.)) ;
#390=DIRECTION('Vector Direction',(0.,0.,1.)) ;
#410=DIRECTION('Axis2P3D Direction',(1.,0.,0.)) ;
#411=DIRECTION('Axis2P3D XDirection',(0.,1.,0.)) ;
#415=DIRECTION('Vector Direction',(0.,0.,1.)) ;
#420=DIRECTION('Vector Direction',(0.,0.,-1.)) ;
#440=DIRECTION('Axis2P3D Direction',(0.,1.,0.)) ;
#441=DIRECTION('Axis2P3D XDirection',(0.,0.,1.)) ;
#451=DIRECTION('Axis2P3D Direction',(0.,1.,0.)) ;
#460=DIRECTION('Axis2P3D Direction',(0.,1.,0.)) ;
#470=DIRECTION('Axis2P3D Direction',(0.,-1.,0.)) ;
#471=DIRECTION('Axis2P3D XDirection',(0.,0.,-1.)) ;
#481=DIRECTION('Axis2P3D Direction',(0.,-1.,0.)) ;
#490=DIRECTION('Axis2P3D Direction',(0.,-1.,0.)) ;
#500=DIRECTION('Axis2P3D Direction',(0.,1.,0.)) ;
#501=DIRECTION('Axis2P3D XDirection',(-1.,0.,0.)) ;
#505=DIRECTION('Vector Direction',(0.,1.,0.)) ;
#510=DIRECTION('Vector Direction',(0.,1.,0.)) ;
#532=DIRECTION('Axis2P3D Direction',(0.,0.,1.)) ;
#533=DIRECTION('Axis2P3D XDirection',(1.,0.,0.)) ;
#47=AXIS2_PLACEMENT_3D(' ',#46,$,$) ;
#54=AXIS2_PLACEMENT_3D('Plane Axis2P3D',#51,#52,#53) ;
#94=AXIS2_PLACEMENT_3D('Cylinder Axis2P3D',#91,#92,#93) ;
#98=AXIS2_PLACEMENT_3D('Circle Axis2P3D',#96,#97,$) ;
#105=AXIS2_PLACEMENT_3D('Circle Axis2P3D',#103,#104,$) ;
#125=AXIS2_PLACEMENT_3D('Cylinder Axis2P3D',#122,#123,#124) ;
#129=AXIS2_PLACEMENT_3D('Circle Axis2P3D',#127,#128,$) ;
#143=AXIS2_PLACEMENT_3D('Circle Axis2P3D',#141,#142,$) ;
#156=AXIS2_PLACEMENT_3D('Plane Axis2P3D',#153,#154,#155) ;
#187=AXIS2_PLACEMENT_3D('Plane Axis2P3D',#184,#185,#186) ;
#218=AXIS2_PLACEMENT_3D('Plane Axis2P3D',#215,#216,#217) ;
#249=AXIS2_PLACEMENT_3D('Cylinder Axis2P3D',#246,#247,#248) ;
#262=AXIS2_PLACEMENT_3D('Circle Axis2P3D',#260,#261,$) ;
#267=AXIS2_PLACEMENT_3D('Circle Axis2P3D',#265,#266,$) ;
#280=AXIS2_PLACEMENT_3D('Plane Axis2P3D',#277,#278,#279) ;
#311=AXIS2_PLACEMENT_3D('Cylinder Axis2P3D',#308,#309,#310) ;
#324=AXIS2_PLACEMENT_3D('Circle Axis2P3D',#322,#323,$) ;
#329=AXIS2_PLACEMENT_3D('Circle Axis2P3D',#327,#328,$) ;
#342=AXIS2_PLACEMENT_3D('Plane Axis2P3D',#339,#340,#341) ;
#382=AXIS2_PLACEMENT_3D('Plane Axis2P3D',#379,#380,#381) ;
#412=AXIS2_PLACEMENT_3D('Plane Axis2P3D',#409,#410,#411) ;
#442=AXIS2_PLACEMENT_3D('Plane Axis2P3D',#439,#440,#441) ;
#452=AXIS2_PLACEMENT_3D('Circle Axis2P3D',#450,#451,$) ;
#461=AXIS2_PLACEMENT_3D('Circle Axis2P3D',#459,#460,$) ;
#472=AXIS2_PLACEMENT_3D('Plane Axis2P3D',#469,#470,#471) ;
#482=AXIS2_PLACEMENT_3D('Circle Axis2P3D',#480,#481,$) ;
#491=AXIS2_PLACEMENT_3D('Circle Axis2P3D',#489,#490,$) ;
#502=AXIS2_PLACEMENT_3D('Cylinder Axis2P3D',#499,#500,#501) ;
#534=AXIS2_PLACEMENT_3D('Rep\X2\00E8\X0\re absolu',#531,#532,#533) ;
#40=PRODUCT_DEFINITION_SHAPE(' ',' ',#14) ;
#31=APPROVAL_PERSON_ORGANIZATION(#25,#21,#19) ;
#25=PERSON_AND_ORGANIZATION(#22,#23) ;
#22=PERSON(' ',' ',' ',$,$,$) ;
#23=ORGANIZATION(' ',' ',' ') ;
#21=APPROVAL(#20,' ') ;
#20=APPROVAL_STATUS('not_yet_approved') ;
#19=APPROVAL_ROLE('APPROVER') ;
#13=DATE_AND_TIME(#11,#12) ;
#12=LOCAL_TIME(14,57,53.,#10) ;
#10=COORDINATED_UNIVERSAL_TIME_OFFSET(0,0,.AHEAD.) ;
#85=ORIENTED_EDGE('',*,*,#64,.F.) ;
#86=ORIENTED_EDGE('',*,*,#71,.F.) ;
#87=ORIENTED_EDGE('',*,*,#78,.T.) ;
#88=ORIENTED_EDGE('',*,*,#83,.T.) ;
#116=ORIENTED_EDGE('',*,*,#102,.T.) ;
#117=ORIENTED_EDGE('',*,*,#83,.F.) ;
#118=ORIENTED_EDGE('',*,*,#109,.T.) ;
#119=ORIENTED_EDGE('',*,*,#114,.T.) ;
#147=ORIENTED_EDGE('',*,*,#133,.T.) ;
#148=ORIENTED_EDGE('',*,*,#140,.F.) ;
#149=ORIENTED_EDGE('',*,*,#145,.T.) ;
#150=ORIENTED_EDGE('',*,*,#71,.T.) ;
#178=ORIENTED_EDGE('',*,*,#164,.T.) ;
#179=ORIENTED_EDGE('',*,*,#171,.T.) ;
#180=ORIENTED_EDGE('',*,*,#176,.F.) ;
#181=ORIENTED_EDGE('',*,*,#114,.F.) ;
#209=ORIENTED_EDGE('',*,*,#171,.F.) ;
#210=ORIENTED_EDGE('',*,*,#195,.T.) ;
#211=ORIENTED_EDGE('',*,*,#202,.T.) ;
#212=ORIENTED_EDGE('',*,*,#207,.F.) ;
#240=ORIENTED_EDGE('',*,*,#226,.F.) ;
#241=ORIENTED_EDGE('',*,*,#202,.F.) ;
#242=ORIENTED_EDGE('',*,*,#233,.T.) ;
#243=ORIENTED_EDGE('',*,*,#238,.F.) ;
#271=ORIENTED_EDGE('',*,*,#259,.F.) ;
#272=ORIENTED_EDGE('',*,*,#264,.F.) ;
#273=ORIENTED_EDGE('',*,*,#238,.T.) ;
#274=ORIENTED_EDGE('',*,*,#269,.F.) ;
#302=ORIENTED_EDGE('',*,*,#288,.T.) ;
#303=ORIENTED_EDGE('',*,*,#295,.F.) ;
#304=ORIENTED_EDGE('',*,*,#300,.F.) ;
#305=ORIENTED_EDGE('',*,*,#259,.T.) ;
#333=ORIENTED_EDGE('',*,*,#321,.F.) ;
#334=ORIENTED_EDGE('',*,*,#326,.F.) ;
#335=ORIENTED_EDGE('',*,*,#295,.T.) ;
#336=ORIENTED_EDGE('',*,*,#331,.F.) ;
#373=ORIENTED_EDGE('',*,*,#352,.F.) ;
#374=ORIENTED_EDGE('',*,*,#359,.T.) ;
#375=ORIENTED_EDGE('',*,*,#366,.T.) ;
#376=ORIENTED_EDGE('',*,*,#371,.F.) ;
#395=ORIENTED_EDGE('',*,*,#109,.F.) ;
#396=ORIENTED_EDGE('',*,*,#78,.F.) ;
#397=ORIENTED_EDGE('',*,*,#145,.F.) ;
#398=ORIENTED_EDGE('',*,*,#388,.F.) ;
#399=ORIENTED_EDGE('',*,*,#359,.F.) ;
#400=ORIENTED_EDGE('',*,*,#393,.F.) ;
#401=ORIENTED_EDGE('',*,*,#331,.T.) ;
#402=ORIENTED_EDGE('',*,*,#288,.F.) ;
#403=ORIENTED_EDGE('',*,*,#269,.T.) ;
#404=ORIENTED_EDGE('',*,*,#233,.F.) ;
#405=ORIENTED_EDGE('',*,*,#195,.F.) ;
#406=ORIENTED_EDGE('',*,*,#164,.F.) ;
#425=ORIENTED_EDGE('',*,*,#176,.T.) ;
#426=ORIENTED_EDGE('',*,*,#207,.T.) ;
#427=ORIENTED_EDGE('',*,*,#226,.T.) ;
#428=ORIENTED_EDGE('',*,*,#264,.T.) ;
#429=ORIENTED_EDGE('',*,*,#300,.T.) ;
#430=ORIENTED_EDGE('',*,*,#326,.T.) ;
#431=ORIENTED_EDGE('',*,*,#418,.T.) ;
#432=ORIENTED_EDGE('',*,*,#371,.T.) ;
#433=ORIENTED_EDGE('',*,*,#423,.T.) ;
#434=ORIENTED_EDGE('',*,*,#133,.F.) ;
#435=ORIENTED_EDGE('',*,*,#64,.T.) ;
#436=ORIENTED_EDGE('',*,*,#102,.F.) ;
#445=ORIENTED_EDGE('',*,*,#393,.T.) ;
#446=ORIENTED_EDGE('',*,*,#352,.T.) ;
#447=ORIENTED_EDGE('',*,*,#418,.F.) ;
#448=ORIENTED_EDGE('',*,*,#321,.T.) ;
#465=ORIENTED_EDGE('',*,*,#458,.F.) ;
#466=ORIENTED_EDGE('',*,*,#463,.F.) ;
#475=ORIENTED_EDGE('',*,*,#423,.F.) ;
#476=ORIENTED_EDGE('',*,*,#366,.F.) ;
#477=ORIENTED_EDGE('',*,*,#388,.T.) ;
#478=ORIENTED_EDGE('',*,*,#140,.T.) ;
#495=ORIENTED_EDGE('',*,*,#488,.F.) ;
#496=ORIENTED_EDGE('',*,*,#493,.F.) ;
#515=ORIENTED_EDGE('',*,*,#493,.T.) ;
#516=ORIENTED_EDGE('',*,*,#508,.F.) ;
#517=ORIENTED_EDGE('',*,*,#463,.T.) ;
#518=ORIENTED_EDGE('',*,*,#513,.T.) ;
#522=ORIENTED_EDGE('',*,*,#488,.T.) ;
#523=ORIENTED_EDGE('',*,*,#513,.F.) ;
#524=ORIENTED_EDGE('',*,*,#458,.T.) ;
#525=ORIENTED_EDGE('',*,*,#508,.T.) ;
#467=FACE_BOUND('',#464,.T.) ;
#497=FACE_BOUND('',#494,.T.) ;
#50=CLOSED_SHELL('Closed Shell',(#90,#121,#152,#183,#214,#245,#276,#307,#338,#378,#408,#438,#468,#498,#520,#527)) ;
#58=VECTOR('Line Direction',#57,1.) ;
#67=VECTOR('Line Direction',#66,1.) ;
#74=VECTOR('Line Direction',#73,1.) ;
#81=VECTOR('Line Direction',#80,1.) ;
#112=VECTOR('Line Direction',#111,1.) ;
#136=VECTOR('Line Direction',#135,1.) ;
#160=VECTOR('Line Direction',#159,1.) ;
#167=VECTOR('Line Direction',#166,1.) ;
#174=VECTOR('Line Direction',#173,1.) ;
#191=VECTOR('Line Direction',#190,1.) ;
#198=VECTOR('Line Direction',#197,1.) ;
#205=VECTOR('Line Direction',#204,1.) ;
#222=VECTOR('Line Direction',#221,1.) ;
#229=VECTOR('Line Direction',#228,1.) ;
#236=VECTOR('Line Direction',#235,1.) ;
#253=VECTOR('Line Direction',#252,1.) ;
#284=VECTOR('Line Direction',#283,1.) ;
#291=VECTOR('Line Direction',#290,1.) ;
#298=VECTOR('Line Direction',#297,1.) ;
#315=VECTOR('Line Direction',#314,1.) ;
#346=VECTOR('Line Direction',#345,1.) ;
#355=VECTOR('Line Direction',#354,1.) ;
#362=VECTOR('Line Direction',#361,1.) ;
#369=VECTOR('Line Direction',#368,1.) ;
#386=VECTOR('Line Direction',#385,1.) ;
#391=VECTOR('Line Direction',#390,1.) ;
#416=VECTOR('Line Direction',#415,1.) ;
#421=VECTOR('Line Direction',#420,1.) ;
#506=VECTOR('Line Direction',#505,1.) ;
#511=VECTOR('Line Direction',#510,1.) ;
#529=ADVANCED_BREP_SHAPE_REPRESENTATION('NONE',(#528),#45) ;
#48=SHAPE_REPRESENTATION(' ',(#47),#45) ;
#90=ADVANCED_FACE('Corps principal',(#89),#55,.T.) ;
#121=ADVANCED_FACE('Corps principal',(#120),#95,.T.) ;
#152=ADVANCED_FACE('Corps principal',(#151),#126,.T.) ;
#183=ADVANCED_FACE('Corps principal',(#182),#157,.T.) ;
#214=ADVANCED_FACE('Corps principal',(#213),#188,.T.) ;
#245=ADVANCED_FACE('Corps principal',(#244),#219,.T.) ;
#276=ADVANCED_FACE('Corps principal',(#275),#250,.F.) ;
#307=ADVANCED_FACE('Corps principal',(#306),#281,.T.) ;
#338=ADVANCED_FACE('Corps principal',(#337),#312,.F.) ;
#378=ADVANCED_FACE('Corps principal',(#377),#343,.T.) ;
#408=ADVANCED_FACE('Corps principal',(#407),#383,.F.) ;
#438=ADVANCED_FACE('Corps principal',(#437),#413,.T.) ;
#468=ADVANCED_FACE('Corps principal',(#449,#467),#443,.T.) ;
#498=ADVANCED_FACE('Corps principal',(#479,#497),#473,.T.) ;
#520=ADVANCED_FACE('Corps principal',(#519),#503,.F.) ;
#527=ADVANCED_FACE('Corps principal',(#526),#503,.F.) ;
#4=APPLICATION_PROTOCOL_DEFINITION('international standard','config_control_design',1994,#1) ;
#32=APPROVAL_DATE_TIME(#13,#21) ;
#528=MANIFOLD_SOLID_BREP('Corps principal',#50) ;
#11=CALENDAR_DATE(2022,21,1) ;
#30=CC_DESIGN_APPROVAL(#21,(#16,#6,#14)) ;
#18=CC_DESIGN_DATE_AND_TIME_ASSIGNMENT(#13,#17,(#16)) ;
#29=CC_DESIGN_DATE_AND_TIME_ASSIGNMENT(#13,#28,(#14)) ;
#17=DATE_TIME_ROLE('classification_date') ;
#28=DATE_TIME_ROLE('creation_date') ;
#27=CC_DESIGN_PERSON_AND_ORGANIZATION_ASSIGNMENT(#25,#26,(#16)) ;
#33=CC_DESIGN_PERSON_AND_ORGANIZATION_ASSIGNMENT(#25,#34,(#6)) ;
#35=CC_DESIGN_PERSON_AND_ORGANIZATION_ASSIGNMENT(#25,#36,(#6,#14)) ;
#37=CC_DESIGN_PERSON_AND_ORGANIZATION_ASSIGNMENT(#25,#38,(#5)) ;
#26=PERSON_AND_ORGANIZATION_ROLE('classification_officer') ;
#34=PERSON_AND_ORGANIZATION_ROLE('design_supplier') ;
#36=PERSON_AND_ORGANIZATION_ROLE('creator') ;
#38=PERSON_AND_ORGANIZATION_ROLE('design_owner') ;
#39=CC_DESIGN_SECURITY_CLASSIFICATION(#16,(#6)) ;
#99=CIRCLE('generated circle',#98,2.5) ;
#106=CIRCLE('generated circle',#105,2.5) ;
#130=CIRCLE('generated circle',#129,2.5) ;
#144=CIRCLE('generated circle',#143,2.5) ;
#263=CIRCLE('generated circle',#262,1.) ;
#268=CIRCLE('generated circle',#267,1.) ;
#325=CIRCLE('generated circle',#324,1.) ;
#330=CIRCLE('generated circle',#329,1.) ;
#453=CIRCLE('generated circle',#452,2.) ;
#462=CIRCLE('generated circle',#461,2.) ;
#483=CIRCLE('generated circle',#482,2.) ;
#492=CIRCLE('generated circle',#491,2.) ;
#530=SHAPE_REPRESENTATION_RELATIONSHIP(' ',' ',#48,#529) ;
#95=CYLINDRICAL_SURFACE('generated cylinder',#94,2.5) ;
#126=CYLINDRICAL_SURFACE('generated cylinder',#125,2.5) ;
#250=CYLINDRICAL_SURFACE('generated cylinder',#249,1.) ;
#312=CYLINDRICAL_SURFACE('generated cylinder',#311,1.) ;
#503=CYLINDRICAL_SURFACE('generated cylinder',#502,2.) ;
#3=DESIGN_CONTEXT(' ',#1,'design') ;
#64=EDGE_CURVE('',#61,#63,#59,.T.) ;
#71=EDGE_CURVE('',#70,#61,#68,.T.) ;
#78=EDGE_CURVE('',#70,#77,#75,.T.) ;
#83=EDGE_CURVE('',#77,#63,#82,.T.) ;
#102=EDGE_CURVE('',#101,#63,#99,.F.) ;
#109=EDGE_CURVE('',#77,#108,#106,.T.) ;
#114=EDGE_CURVE('',#108,#101,#113,.T.) ;
#133=EDGE_CURVE('',#61,#132,#130,.F.) ;
#140=EDGE_CURVE('',#139,#132,#137,.T.) ;
#145=EDGE_CURVE('',#139,#70,#144,.T.) ;
#164=EDGE_CURVE('',#108,#163,#161,.T.) ;
#171=EDGE_CURVE('',#163,#170,#168,.T.) ;
#176=EDGE_CURVE('',#101,#170,#175,.T.) ;
#195=EDGE_CURVE('',#163,#194,#192,.T.) ;
#202=EDGE_CURVE('',#194,#201,#199,.T.) ;
#207=EDGE_CURVE('',#170,#201,#206,.T.) ;
#226=EDGE_CURVE('',#201,#225,#223,.T.) ;
#233=EDGE_CURVE('',#194,#232,#230,.T.) ;
#238=EDGE_CURVE('',#225,#232,#237,.F.) ;
#259=EDGE_CURVE('',#256,#258,#254,.F.) ;
#264=EDGE_CURVE('',#225,#256,#263,.F.) ;
#269=EDGE_CURVE('',#258,#232,#268,.T.) ;
#288=EDGE_CURVE('',#258,#287,#285,.T.) ;
#295=EDGE_CURVE('',#294,#287,#292,.F.) ;
#300=EDGE_CURVE('',#256,#294,#299,.T.) ;
#321=EDGE_CURVE('',#318,#320,#316,.F.) ;
#326=EDGE_CURVE('',#294,#318,#325,.F.) ;
#331=EDGE_CURVE('',#320,#287,#330,.T.) ;
#352=EDGE_CURVE('',#349,#351,#347,.T.) ;
#359=EDGE_CURVE('',#349,#358,#356,.T.) ;
#366=EDGE_CURVE('',#358,#365,#363,.T.) ;
#371=EDGE_CURVE('',#351,#365,#370,.T.) ;
#388=EDGE_CURVE('',#358,#139,#387,.T.) ;
#393=EDGE_CURVE('',#320,#349,#392,.T.) ;
#418=EDGE_CURVE('',#318,#351,#417,.T.) ;
#423=EDGE_CURVE('',#365,#132,#422,.T.) ;
#458=EDGE_CURVE('',#455,#457,#453,.T.) ;
#463=EDGE_CURVE('',#457,#455,#462,.T.) ;
#488=EDGE_CURVE('',#485,#487,#483,.T.) ;
#493=EDGE_CURVE('',#487,#485,#492,.T.) ;
#508=EDGE_CURVE('',#457,#485,#507,.F.) ;
#513=EDGE_CURVE('',#455,#487,#512,.F.) ;
#84=EDGE_LOOP('',(#85,#86,#87,#88)) ;
#115=EDGE_LOOP('',(#116,#117,#118,#119)) ;
#146=EDGE_LOOP('',(#147,#148,#149,#150)) ;
#177=EDGE_LOOP('',(#178,#179,#180,#181)) ;
#208=EDGE_LOOP('',(#209,#210,#211,#212)) ;
#239=EDGE_LOOP('',(#240,#241,#242,#243)) ;
#270=EDGE_LOOP('',(#271,#272,#273,#274)) ;
#301=EDGE_LOOP('',(#302,#303,#304,#305)) ;
#332=EDGE_LOOP('',(#333,#334,#335,#336)) ;
#372=EDGE_LOOP('',(#373,#374,#375,#376)) ;
#394=EDGE_LOOP('',(#395,#396,#397,#398,#399,#400,#401,#402,#403,#404,#405,#406)) ;
#424=EDGE_LOOP('',(#425,#426,#427,#428,#429,#430,#431,#432,#433,#434,#435,#436)) ;
#444=EDGE_LOOP('',(#445,#446,#447,#448)) ;
#464=EDGE_LOOP('',(#465,#466)) ;
#474=EDGE_LOOP('',(#475,#476,#477,#478)) ;
#494=EDGE_LOOP('',(#495,#496)) ;
#514=EDGE_LOOP('',(#515,#516,#517,#518)) ;
#521=EDGE_LOOP('',(#522,#523,#524,#525)) ;
#89=FACE_OUTER_BOUND('',#84,.T.) ;
#120=FACE_OUTER_BOUND('',#115,.T.) ;
#151=FACE_OUTER_BOUND('',#146,.T.) ;
#182=FACE_OUTER_BOUND('',#177,.T.) ;
#213=FACE_OUTER_BOUND('',#208,.T.) ;
#244=FACE_OUTER_BOUND('',#239,.T.) ;
#275=FACE_OUTER_BOUND('',#270,.T.) ;
#306=FACE_OUTER_BOUND('',#301,.T.) ;
#337=FACE_OUTER_BOUND('',#332,.T.) ;
#377=FACE_OUTER_BOUND('',#372,.T.) ;
#407=FACE_OUTER_BOUND('',#394,.T.) ;
#437=FACE_OUTER_BOUND('',#424,.T.) ;
#449=FACE_OUTER_BOUND('',#444,.T.) ;
#479=FACE_OUTER_BOUND('',#474,.T.) ;
#519=FACE_OUTER_BOUND('',#514,.T.) ;
#526=FACE_OUTER_BOUND('',#521,.T.) ;
#44=UNCERTAINTY_MEASURE_WITH_UNIT(LENGTH_MEASURE(0.005),#41,'distance_accuracy_value','CONFUSED CURVE UNCERTAINTY') ;
#59=LINE('Line',#56,#58) ;
#68=LINE('Line',#65,#67) ;
#75=LINE('Line',#72,#74) ;
#82=LINE('Line',#79,#81) ;
#113=LINE('Line',#110,#112) ;
#137=LINE('Line',#134,#136) ;
#161=LINE('Line',#158,#160) ;
#168=LINE('Line',#165,#167) ;
#175=LINE('Line',#172,#174) ;
#192=LINE('Line',#189,#191) ;
#199=LINE('Line',#196,#198) ;
#206=LINE('Line',#203,#205) ;
#223=LINE('Line',#220,#222) ;
#230=LINE('Line',#227,#229) ;
#237=LINE('Line',#234,#236) ;
#254=LINE('Line',#251,#253) ;
#285=LINE('Line',#282,#284) ;
#292=LINE('Line',#289,#291) ;
#299=LINE('Line',#296,#298) ;
#316=LINE('Line',#313,#315) ;
#347=LINE('Line',#344,#346) ;
#356=LINE('Line',#353,#355) ;
#363=LINE('Line',#360,#362) ;
#370=LINE('Line',#367,#369) ;
#387=LINE('Line',#384,#386) ;
#392=LINE('Line',#389,#391) ;
#417=LINE('Line',#414,#416) ;
#422=LINE('Line',#419,#421) ;
#507=LINE('Line',#504,#506) ;
#512=LINE('Line',#509,#511) ;
#2=MECHANICAL_CONTEXT(' ',#1,'mechanical') ;
#24=PERSONAL_ADDRESS(' ',' ',' ',' ',' ',' ',' ',' ',' ',' ',' ',' ',(#22),' ') ;
#55=PLANE('',#54) ;
#157=PLANE('',#156) ;
#188=PLANE('',#187) ;
#219=PLANE('',#218) ;
#281=PLANE('',#280) ;
#343=PLANE('',#342) ;
#383=PLANE('',#382) ;
#413=PLANE('',#412) ;
#443=PLANE('',#442) ;
#473=PLANE('',#472) ;
#7=PRODUCT_CATEGORY('part',$) ;
#9=PRODUCT_CATEGORY_RELATIONSHIP(' ',' ',#7,#8) ;
#6=PRODUCT_DEFINITION_FORMATION_WITH_SPECIFIED_SOURCE('',' ',#5,.NOT_KNOWN.) ;
#8=PRODUCT_RELATED_PRODUCT_CATEGORY('detail',$,(#5)) ;
#49=SHAPE_DEFINITION_REPRESENTATION(#40,#48) ;
#61=VERTEX_POINT('',#60) ;
#63=VERTEX_POINT('',#62) ;
#70=VERTEX_POINT('',#69) ;
#77=VERTEX_POINT('',#76) ;
#101=VERTEX_POINT('',#100) ;
#108=VERTEX_POINT('',#107) ;
#132=VERTEX_POINT('',#131) ;
#139=VERTEX_POINT('',#138) ;
#163=VERTEX_POINT('',#162) ;
#170=VERTEX_POINT('',#169) ;
#194=VERTEX_POINT('',#193) ;
#201=VERTEX_POINT('',#200) ;
#225=VERTEX_POINT('',#224) ;
#232=VERTEX_POINT('',#231) ;
#256=VERTEX_POINT('',#255) ;
#258=VERTEX_POINT('',#257) ;
#287=VERTEX_POINT('',#286) ;
#294=VERTEX_POINT('',#293) ;
#318=VERTEX_POINT('',#317) ;
#320=VERTEX_POINT('',#319) ;
#349=VERTEX_POINT('',#348) ;
#351=VERTEX_POINT('',#350) ;
#358=VERTEX_POINT('',#357) ;
#365=VERTEX_POINT('',#364) ;
#455=VERTEX_POINT('',#454) ;
#457=VERTEX_POINT('',#456) ;
#485=VERTEX_POINT('',#484) ;
#487=VERTEX_POINT('',#486) ;
#41=(LENGTH_UNIT()NAMED_UNIT(*)SI_UNIT(.MILLI.,.METRE.)) ;
#42=(NAMED_UNIT(*)PLANE_ANGLE_UNIT()SI_UNIT($,.RADIAN.)) ;
#43=(NAMED_UNIT(*)SI_UNIT($,.STERADIAN.)SOLID_ANGLE_UNIT()) ;
#45=(GEOMETRIC_REPRESENTATION_CONTEXT(3)GLOBAL_UNCERTAINTY_ASSIGNED_CONTEXT((#44))GLOBAL_UNIT_ASSIGNED_CONTEXT((#41,#42,#43))REPRESENTATION_CONTEXT(' ',' ')) ;
ENDSEC;
END-ISO-10303-21;
