ISO-10303-21;
HEADER;
FILE_DESCRIPTION(('CATIA V5 STEP','CAx-IF Rec.Pracs.--- Model Styling and Organization---1.4--- 2014-01-23'),'2;1');

FILE_NAME('C:\\Users\\rhennegu\\Desktop\\Reducteur_35_33.stp','2022-01-11T13:22:18+00:00',('none'),('none'),'CATIA Version 5-6 Release 2019 SP3 HF66','CATIA V5 STEP AP214 v1','none');

FILE_SCHEMA(('AUTOMOTIVE_DESIGN { 1 0 10303 214 1 1 1 1 }'));

ENDSEC;
DATA;
#5=PRODUCT('Part79','','',(#2)) ;
#2=PRODUCT_CONTEXT(' ',#1,'mechanical') ;
#1=APPLICATION_CONTEXT('automotive design') ;
#10=PRODUCT_DEFINITION('',' ',#6,#3) ;
#3=PRODUCT_DEFINITION_CONTEXT('part definition',#1,' ') ;
#11=PRODUCT_DEFINITION_SHAPE(' ',' ',#10) ;
#497=MECHANICAL_DESIGN_GEOMETRIC_PRESENTATION_REPRESENTATION(' ',(#29),#16) ;
#498=MECHANICAL_DESIGN_GEOMETRIC_PRESENTATION_REPRESENTATION(' ',(#494),#16) ;
#19=SHAPE_REPRESENTATION(' ',(#18),#16) ;
#18=AXIS2_PLACEMENT_3D(' ',#17,$,$) ;
#34=AXIS2_PLACEMENT_3D('Torus Axis2P3D',#31,#32,#33) ;
#38=AXIS2_PLACEMENT_3D('Circle Axis2P3D',#36,#37,$) ;
#47=AXIS2_PLACEMENT_3D('Circle Axis2P3D',#45,#46,$) ;
#54=AXIS2_PLACEMENT_3D('Circle Axis2P3D',#52,#53,$) ;
#61=AXIS2_PLACEMENT_3D('Circle Axis2P3D',#59,#60,$) ;
#74=AXIS2_PLACEMENT_3D('Torus Axis2P3D',#71,#72,#73) ;
#78=AXIS2_PLACEMENT_3D('Circle Axis2P3D',#76,#77,$) ;
#83=AXIS2_PLACEMENT_3D('Circle Axis2P3D',#81,#82,$) ;
#96=AXIS2_PLACEMENT_3D('Plane Axis2P3D',#93,#94,#95) ;
#100=AXIS2_PLACEMENT_3D('Circle Axis2P3D',#98,#99,$) ;
#109=AXIS2_PLACEMENT_3D('Circle Axis2P3D',#107,#108,$) ;
#124=AXIS2_PLACEMENT_3D('Cylinder Axis2P3D',#121,#122,#123) ;
#142=AXIS2_PLACEMENT_3D('Circle Axis2P3D',#140,#141,$) ;
#154=AXIS2_PLACEMENT_3D('Circle Axis2P3D',#152,#153,$) ;
#167=AXIS2_PLACEMENT_3D('Cone Axis2P3D',#164,#165,#166) ;
#178=AXIS2_PLACEMENT_3D('Circle Axis2P3D',#176,#177,$) ;
#198=AXIS2_PLACEMENT_3D('Cone Axis2P3D',#195,#196,#197) ;
#202=AXIS2_PLACEMENT_3D('Circle Axis2P3D',#200,#201,$) ;
#215=AXIS2_PLACEMENT_3D('Cylinder Axis2P3D',#212,#213,#214) ;
#233=AXIS2_PLACEMENT_3D('Circle Axis2P3D',#231,#232,$) ;
#245=AXIS2_PLACEMENT_3D('Circle Axis2P3D',#243,#244,$) ;
#258=AXIS2_PLACEMENT_3D('Cone Axis2P3D',#255,#256,#257) ;
#276=AXIS2_PLACEMENT_3D('Circle Axis2P3D',#274,#275,$) ;
#289=AXIS2_PLACEMENT_3D('Cone Axis2P3D',#286,#287,#288) ;
#293=AXIS2_PLACEMENT_3D('Circle Axis2P3D',#291,#292,$) ;
#306=AXIS2_PLACEMENT_3D('Plane Axis2P3D',#303,#304,#305) ;
#314=AXIS2_PLACEMENT_3D('Circle Axis2P3D',#312,#313,$) ;
#323=AXIS2_PLACEMENT_3D('Circle Axis2P3D',#321,#322,$) ;
#334=AXIS2_PLACEMENT_3D('Cone Axis2P3D',#331,#332,#333) ;
#352=AXIS2_PLACEMENT_3D('Circle Axis2P3D',#350,#351,$) ;
#365=AXIS2_PLACEMENT_3D('Cone Axis2P3D',#362,#363,#364) ;
#369=AXIS2_PLACEMENT_3D('Circle Axis2P3D',#367,#368,$) ;
#382=AXIS2_PLACEMENT_3D('Plane Axis2P3D',#379,#380,#381) ;
#390=AXIS2_PLACEMENT_3D('Circle Axis2P3D',#388,#389,$) ;
#399=AXIS2_PLACEMENT_3D('Circle Axis2P3D',#397,#398,$) ;
#410=AXIS2_PLACEMENT_3D('Cylinder Axis2P3D',#407,#408,#409) ;
#414=AXIS2_PLACEMENT_3D('Circle Axis2P3D',#412,#413,$) ;
#440=AXIS2_PLACEMENT_3D('Circle Axis2P3D',#438,#439,$) ;
#453=AXIS2_PLACEMENT_3D('Cone Axis2P3D',#450,#451,#452) ;
#475=AXIS2_PLACEMENT_3D('Cone Axis2P3D',#472,#473,#474) ;
#489=AXIS2_PLACEMENT_3D('Absolute Axis System',#486,#487,#488) ;
#17=CARTESIAN_POINT(' ',(0.,0.,0.)) ;
#31=CARTESIAN_POINT('Axis2P3D Location',(5.3290705182E-15,0.,1.8)) ;
#36=CARTESIAN_POINT('Axis2P3D Location',(5.3290705182E-15,0.,1.8)) ;
#40=CARTESIAN_POINT('Vertex',(17.5,0.,1.8)) ;
#42=CARTESIAN_POINT('Vertex',(-17.5,2.14313189851E-15,1.8)) ;
#45=CARTESIAN_POINT('Axis2P3D Location',(-17.8,-1.48214773787E-14,1.8)) ;
#49=CARTESIAN_POINT('Vertex',(-17.8,-1.43777958299E-14,1.5)) ;
#52=CARTESIAN_POINT('Axis2P3D Location',(5.3290705182E-15,0.,1.5)) ;
#56=CARTESIAN_POINT('Vertex',(17.8,0.,1.5)) ;
#59=CARTESIAN_POINT('Axis2P3D Location',(17.8,9.88098491916E-16,1.8)) ;
#71=CARTESIAN_POINT('Axis2P3D Location',(8.881784197E-16,-6.2172489379E-15,1.8)) ;
#76=CARTESIAN_POINT('Axis2P3D Location',(8.881784197E-16,-6.2172489379E-15,1.8)) ;
#81=CARTESIAN_POINT('Axis2P3D Location',(8.881784197E-16,-6.2172489379E-15,1.5)) ;
#93=CARTESIAN_POINT('Axis2P3D Location',(0.,0.,1.5)) ;
#98=CARTESIAN_POINT('Axis2P3D Location',(0.,0.,1.5)) ;
#102=CARTESIAN_POINT('Vertex',(-19.,1.07645239055E-14,1.5)) ;
#104=CARTESIAN_POINT('Vertex',(19.,0.,1.5)) ;
#107=CARTESIAN_POINT('Axis2P3D Location',(0.,0.,1.5)) ;
#121=CARTESIAN_POINT('Axis2P3D Location',(0.,0.,4.25)) ;
#126=CARTESIAN_POINT('Line Origine',(19.,-2.15290478111E-14,4.25)) ;
#130=CARTESIAN_POINT('Vertex',(19.,-2.15290478111E-14,1.)) ;
#133=CARTESIAN_POINT('Line Origine',(-19.,1.07645239055E-14,4.25)) ;
#137=CARTESIAN_POINT('Vertex',(-19.,1.07645239055E-14,1.)) ;
#140=CARTESIAN_POINT('Axis2P3D Location',(0.,0.,1.)) ;
#152=CARTESIAN_POINT('Axis2P3D Location',(0.,0.,1.)) ;
#164=CARTESIAN_POINT('Axis2P3D Location',(1.7763568394E-14,-8.26005930321E-14,-18.)) ;
#169=CARTESIAN_POINT('Line Origine',(18.5,2.29446091756E-15,0.5)) ;
#173=CARTESIAN_POINT('Vertex',(18.,-6.32272261306E-15,0.)) ;
#176=CARTESIAN_POINT('Axis2P3D Location',(1.7763568394E-15,-2.6645352591E-15,-1.7763568394E-14)) ;
#180=CARTESIAN_POINT('Vertex',(-18.,2.90370102334E-16,0.)) ;
#183=CARTESIAN_POINT('Line Origine',(-18.5,3.55111797536E-15,0.5)) ;
#195=CARTESIAN_POINT('Axis2P3D Location',(6.39488462184E-14,-2.40445856734E-14,-18.)) ;
#200=CARTESIAN_POINT('Axis2P3D Location',(-1.89326617253E-28,-1.30038345881E-15,5.3290705182E-14)) ;
#212=CARTESIAN_POINT('Axis2P3D Location',(0.,0.,5.)) ;
#217=CARTESIAN_POINT('Line Origine',(-17.5,2.14313189851E-15,5.)) ;
#221=CARTESIAN_POINT('Vertex',(-17.5,2.14313189851E-15,8.3)) ;
#224=CARTESIAN_POINT('Line Origine',(17.5,-4.28626379702E-15,5.)) ;
#228=CARTESIAN_POINT('Vertex',(17.5,-1.98293861418E-14,8.3)) ;
#231=CARTESIAN_POINT('Axis2P3D Location',(0.,0.,8.3)) ;
#243=CARTESIAN_POINT('Axis2P3D Location',(0.,0.,8.3)) ;
#255=CARTESIAN_POINT('Axis2P3D Location',(-1.54543045028E-13,-8.12683254026E-14,25.8)) ;
#260=CARTESIAN_POINT('Line Origine',(17.4,-4.64390430871E-16,8.4)) ;
#264=CARTESIAN_POINT('Vertex',(17.3,-4.75861190555E-15,8.5)) ;
#267=CARTESIAN_POINT('Line Origine',(-17.4,-5.39832991591E-15,8.4)) ;
#271=CARTESIAN_POINT('Vertex',(-17.3,-1.37681816788E-14,8.5)) ;
#274=CARTESIAN_POINT('Axis2P3D Location',(-8.88178419699E-16,-4.4408920985E-15,8.5)) ;
#286=CARTESIAN_POINT('Axis2P3D Location',(3.09086090056E-13,-1.30038345881E-15,25.8)) ;
#291=CARTESIAN_POINT('Axis2P3D Location',(1.7763568394E-15,-1.30038345881E-15,8.5)) ;
#303=CARTESIAN_POINT('Axis2P3D Location',(0.,0.,8.5)) ;
#312=CARTESIAN_POINT('Axis2P3D Location',(6.27603488705E-16,-8.49489515088E-16,8.5)) ;
#316=CARTESIAN_POINT('Vertex',(-16.7,-1.36369089695E-14,8.5)) ;
#318=CARTESIAN_POINT('Vertex',(16.7,-4.93980982424E-15,8.5)) ;
#321=CARTESIAN_POINT('Axis2P3D Location',(6.27603488705E-16,-8.49489515088E-16,8.5)) ;
#331=CARTESIAN_POINT('Axis2P3D Location',(2.9487523534E-13,-7.59392548844E-14,-8.2)) ;
#336=CARTESIAN_POINT('Line Origine',(16.6,-4.54726077153E-16,8.4)) ;
#340=CARTESIAN_POINT('Vertex',(16.5,-1.86962783622E-14,8.3)) ;
#343=CARTESIAN_POINT('Line Origine',(-16.6,-1.66970141018E-14,8.4)) ;
#347=CARTESIAN_POINT('Vertex',(-16.5,2.02066721859E-15,8.3)) ;
#350=CARTESIAN_POINT('Axis2P3D Location',(1.77635683941E-15,-2.6645352591E-15,8.3)) ;
#362=CARTESIAN_POINT('Axis2P3D Location',(-1.46549439251E-13,-1.47849822709E-13,-8.2)) ;
#367=CARTESIAN_POINT('Axis2P3D Location',(4.54383881407E-28,-1.30038345881E-15,8.3)) ;
#379=CARTESIAN_POINT('Axis2P3D Location',(0.,0.,0.)) ;
#388=CARTESIAN_POINT('Axis2P3D Location',(6.27603488705E-16,-8.49489515088E-16,0.)) ;
#392=CARTESIAN_POINT('Vertex',(16.7,-4.93980982424E-15,0.)) ;
#394=CARTESIAN_POINT('Vertex',(-16.7,-1.36369089695E-14,0.)) ;
#397=CARTESIAN_POINT('Axis2P3D Location',(6.27603488705E-16,-8.49489515088E-16,0.)) ;
#407=CARTESIAN_POINT('Axis2P3D Location',(0.,0.,4.25)) ;
#412=CARTESIAN_POINT('Axis2P3D Location',(0.,0.,0.2)) ;
#416=CARTESIAN_POINT('Vertex',(-16.5,2.02066721859E-15,0.2)) ;
#418=CARTESIAN_POINT('Vertex',(16.5,-1.86962783622E-14,0.2)) ;
#421=CARTESIAN_POINT('Line Origine',(-16.5,2.02066721859E-15,4.25)) ;
#426=CARTESIAN_POINT('Line Origine',(16.5,-4.04133443719E-15,4.25)) ;
#438=CARTESIAN_POINT('Axis2P3D Location',(0.,0.,0.2)) ;
#450=CARTESIAN_POINT('Axis2P3D Location',(2.9487523534E-13,-7.59392548844E-14,16.7)) ;
#455=CARTESIAN_POINT('Line Origine',(16.6,4.60237908389E-16,0.1)) ;
#460=CARTESIAN_POINT('Line Origine',(-16.6,-1.95325233477E-15,0.1)) ;
#472=CARTESIAN_POINT('Axis2P3D Location',(-1.46549439251E-13,-1.47849822709E-13,16.7)) ;
#486=CARTESIAN_POINT('Axis2P3D Location',(0.,0.,0.)) ;
#32=DIRECTION('Axis2P3D Direction',(0.,-0.,1.)) ;
#33=DIRECTION('Axis2P3D XDirection',(-1.,2.53765262771E-16,0.)) ;
#37=DIRECTION('Axis2P3D Direction',(0.,-0.,1.)) ;
#46=DIRECTION('Axis2P3D Direction',(-8.32667268469E-16,1.,0.)) ;
#53=DIRECTION('Axis2P3D Direction',(0.,-0.,1.)) ;
#60=DIRECTION('Axis2P3D Direction',(5.55111512313E-17,-1.,-0.)) ;
#72=DIRECTION('Axis2P3D Direction',(-0.,0.,1.)) ;
#73=DIRECTION('Axis2P3D XDirection',(1.,2.53765262771E-16,0.)) ;
#77=DIRECTION('Axis2P3D Direction',(-0.,0.,1.)) ;
#82=DIRECTION('Axis2P3D Direction',(-0.,0.,1.)) ;
#94=DIRECTION('Axis2P3D Direction',(0.,0.,1.)) ;
#95=DIRECTION('Axis2P3D XDirection',(1.,0.,0.)) ;
#99=DIRECTION('Axis2P3D Direction',(0.,0.,1.)) ;
#108=DIRECTION('Axis2P3D Direction',(0.,0.,1.)) ;
#122=DIRECTION('Axis2P3D Direction',(0.,0.,1.)) ;
#123=DIRECTION('Axis2P3D XDirection',(1.,0.,0.)) ;
#127=DIRECTION('Vector Direction',(0.,0.,1.)) ;
#134=DIRECTION('Vector Direction',(0.,0.,1.)) ;
#141=DIRECTION('Axis2P3D Direction',(0.,0.,1.)) ;
#153=DIRECTION('Axis2P3D Direction',(0.,0.,1.)) ;
#165=DIRECTION('Axis2P3D Direction',(-8.881784197E-16,4.4408920985E-15,1.)) ;
#166=DIRECTION('Axis2P3D XDirection',(1.,-9.34924652316E-17,9.21962311176E-16)) ;
#170=DIRECTION('Vector Direction',(0.707106781187,3.24485774795E-15,0.707106781187)) ;
#177=DIRECTION('Axis2P3D Direction',(4.15189950116E-31,4.4408920985E-15,1.)) ;
#184=DIRECTION('Vector Direction',(-0.707106781187,3.29288967915E-15,0.707106781187)) ;
#196=DIRECTION('Axis2P3D Direction',(-3.5527136788E-15,1.2635667897E-15,1.)) ;
#197=DIRECTION('Axis2P3D XDirection',(-0.5,0.866025403784,-2.89759583512E-15)) ;
#201=DIRECTION('Axis2P3D Direction',(-2.11739478947E-15,-1.22247845168E-15,1.)) ;
#213=DIRECTION('Axis2P3D Direction',(0.,0.,1.)) ;
#214=DIRECTION('Axis2P3D XDirection',(1.,0.,0.)) ;
#218=DIRECTION('Vector Direction',(0.,0.,1.)) ;
#225=DIRECTION('Vector Direction',(0.,0.,1.)) ;
#232=DIRECTION('Axis2P3D Direction',(0.,0.,1.)) ;
#244=DIRECTION('Axis2P3D Direction',(0.,0.,1.)) ;
#256=DIRECTION('Axis2P3D Direction',(8.881784197E-15,4.4408920985E-15,-1.)) ;
#257=DIRECTION('Axis2P3D XDirection',(1.,2.03012210217E-16,8.82449640697E-15)) ;
#261=DIRECTION('Vector Direction',(0.707106781187,3.28373622788E-15,-0.707106781187)) ;
#268=DIRECTION('Vector Direction',(-0.707106781187,3.08322921248E-15,-0.707106781187)) ;
#275=DIRECTION('Axis2P3D Direction',(9.01555320253E-31,-4.4408920985E-15,1.)) ;
#287=DIRECTION('Axis2P3D Direction',(-1.7763568394E-14,5.91645678916E-30,-1.)) ;
#288=DIRECTION('Axis2P3D XDirection',(-0.5,0.866025403784,8.82449640697E-15)) ;
#292=DIRECTION('Axis2P3D Direction',(1.33226762955E-14,7.69185074553E-15,1.)) ;
#304=DIRECTION('Axis2P3D Direction',(0.,0.,1.)) ;
#305=DIRECTION('Axis2P3D XDirection',(1.,0.,0.)) ;
#313=DIRECTION('Axis2P3D Direction',(0.,0.,1.)) ;
#322=DIRECTION('Axis2P3D Direction',(0.,0.,1.)) ;
#332=DIRECTION('Axis2P3D Direction',(-1.7763568394E-14,4.4408920985E-15,1.)) ;
#333=DIRECTION('Axis2P3D XDirection',(1.,1.06368673018E-16,1.77807017155E-14)) ;
#337=DIRECTION('Vector Direction',(0.707106781187,3.21539892736E-15,0.707106781187)) ;
#344=DIRECTION('Vector Direction',(-0.707106781187,2.52352952952E-15,0.707106781187)) ;
#351=DIRECTION('Axis2P3D Direction',(-4.72371799534E-31,4.4408920985E-15,1.)) ;
#363=DIRECTION('Axis2P3D Direction',(8.881784197E-15,8.881784197E-15,1.)) ;
#364=DIRECTION('Axis2P3D XDirection',(-0.5,0.866025403784,-3.29272253991E-15)) ;
#368=DIRECTION('Axis2P3D Direction',(1.05072635205E-14,6.06637142202E-15,1.)) ;
#380=DIRECTION('Axis2P3D Direction',(0.,0.,1.)) ;
#381=DIRECTION('Axis2P3D XDirection',(1.,0.,0.)) ;
#389=DIRECTION('Axis2P3D Direction',(0.,0.,1.)) ;
#398=DIRECTION('Axis2P3D Direction',(0.,0.,1.)) ;
#408=DIRECTION('Axis2P3D Direction',(0.,0.,1.)) ;
#409=DIRECTION('Axis2P3D XDirection',(1.,0.,0.)) ;
#413=DIRECTION('Axis2P3D Direction',(0.,0.,1.)) ;
#422=DIRECTION('Vector Direction',(0.,0.,1.)) ;
#427=DIRECTION('Vector Direction',(0.,0.,1.)) ;
#439=DIRECTION('Axis2P3D Direction',(0.,0.,1.)) ;
#451=DIRECTION('Axis2P3D Direction',(-1.7763568394E-14,4.4408920985E-15,-1.)) ;
#452=DIRECTION('Axis2P3D XDirection',(1.,1.06368673018E-16,-1.77807017155E-14)) ;
#456=DIRECTION('Vector Direction',(0.707106781187,3.25437345982E-15,-0.707106781187)) ;
#461=DIRECTION('Vector Direction',(-0.707106781187,3.15156651299E-15,-0.707106781187)) ;
#473=DIRECTION('Axis2P3D Direction',(8.881784197E-15,8.881784197E-15,-1.)) ;
#474=DIRECTION('Axis2P3D XDirection',(-0.5,0.866025403784,3.29272253991E-15)) ;
#487=DIRECTION('Axis2P3D Direction',(0.,0.,1.)) ;
#488=DIRECTION('Axis2P3D XDirection',(1.,0.,0.)) ;
#8=PRODUCT_RELATED_PRODUCT_CATEGORY('part',$,(#5)) ;
#7=PRODUCT_CATEGORY('part','specification') ;
#29=STYLED_ITEM(' ',(#28),#21) ;
#494=STYLED_ITEM(' ',(#493),#489) ;
#28=PRESENTATION_STYLE_ASSIGNMENT((#27)) ;
#493=PRESENTATION_STYLE_ASSIGNMENT((#492)) ;
#492=CURVE_STYLE(' ',#490,POSITIVE_LENGTH_MEASURE(0.129999995232),#491) ;
#27=SURFACE_STYLE_USAGE(.BOTH.,#26) ;
#26=SURFACE_SIDE_STYLE(' ',(#25)) ;
#25=SURFACE_STYLE_FILL_AREA(#24) ;
#24=FILL_AREA_STYLE(' ',(#23)) ;
#23=FILL_AREA_STYLE_COLOUR(' ',#22) ;
#128=VECTOR('Line Direction',#127,1.) ;
#135=VECTOR('Line Direction',#134,1.) ;
#171=VECTOR('Line Direction',#170,1.) ;
#185=VECTOR('Line Direction',#184,1.) ;
#219=VECTOR('Line Direction',#218,1.) ;
#226=VECTOR('Line Direction',#225,1.) ;
#262=VECTOR('Line Direction',#261,1.) ;
#269=VECTOR('Line Direction',#268,1.) ;
#338=VECTOR('Line Direction',#337,1.) ;
#345=VECTOR('Line Direction',#344,1.) ;
#423=VECTOR('Line Direction',#422,1.) ;
#428=VECTOR('Line Direction',#427,1.) ;
#457=VECTOR('Line Direction',#456,1.) ;
#462=VECTOR('Line Direction',#461,1.) ;
#15=UNCERTAINTY_MEASURE_WITH_UNIT(LENGTH_MEASURE(0.005),#12,'distance_accuracy_value','CONFUSED CURVE UNCERTAINTY') ;
#485=SHAPE_REPRESENTATION_RELATIONSHIP(' ',' ',#19,#484) ;
#65=ORIENTED_EDGE('',*,*,#44,.T.) ;
#66=ORIENTED_EDGE('',*,*,#51,.T.) ;
#67=ORIENTED_EDGE('',*,*,#58,.F.) ;
#68=ORIENTED_EDGE('',*,*,#63,.F.) ;
#87=ORIENTED_EDGE('',*,*,#80,.T.) ;
#88=ORIENTED_EDGE('',*,*,#63,.T.) ;
#89=ORIENTED_EDGE('',*,*,#85,.F.) ;
#90=ORIENTED_EDGE('',*,*,#51,.F.) ;
#113=ORIENTED_EDGE('',*,*,#106,.T.) ;
#114=ORIENTED_EDGE('',*,*,#111,.T.) ;
#117=ORIENTED_EDGE('',*,*,#58,.T.) ;
#118=ORIENTED_EDGE('',*,*,#85,.T.) ;
#146=ORIENTED_EDGE('',*,*,#132,.T.) ;
#147=ORIENTED_EDGE('',*,*,#106,.F.) ;
#148=ORIENTED_EDGE('',*,*,#139,.F.) ;
#149=ORIENTED_EDGE('',*,*,#144,.T.) ;
#158=ORIENTED_EDGE('',*,*,#139,.T.) ;
#159=ORIENTED_EDGE('',*,*,#111,.F.) ;
#160=ORIENTED_EDGE('',*,*,#132,.F.) ;
#161=ORIENTED_EDGE('',*,*,#156,.T.) ;
#189=ORIENTED_EDGE('',*,*,#175,.T.) ;
#190=ORIENTED_EDGE('',*,*,#182,.T.) ;
#191=ORIENTED_EDGE('',*,*,#187,.F.) ;
#192=ORIENTED_EDGE('',*,*,#156,.F.) ;
#206=ORIENTED_EDGE('',*,*,#187,.T.) ;
#207=ORIENTED_EDGE('',*,*,#204,.T.) ;
#208=ORIENTED_EDGE('',*,*,#175,.F.) ;
#209=ORIENTED_EDGE('',*,*,#144,.F.) ;
#237=ORIENTED_EDGE('',*,*,#223,.T.) ;
#238=ORIENTED_EDGE('',*,*,#44,.F.) ;
#239=ORIENTED_EDGE('',*,*,#230,.F.) ;
#240=ORIENTED_EDGE('',*,*,#235,.F.) ;
#249=ORIENTED_EDGE('',*,*,#230,.T.) ;
#250=ORIENTED_EDGE('',*,*,#80,.F.) ;
#251=ORIENTED_EDGE('',*,*,#223,.F.) ;
#252=ORIENTED_EDGE('',*,*,#247,.F.) ;
#280=ORIENTED_EDGE('',*,*,#266,.T.) ;
#281=ORIENTED_EDGE('',*,*,#247,.T.) ;
#282=ORIENTED_EDGE('',*,*,#273,.F.) ;
#283=ORIENTED_EDGE('',*,*,#278,.F.) ;
#297=ORIENTED_EDGE('',*,*,#273,.T.) ;
#298=ORIENTED_EDGE('',*,*,#235,.T.) ;
#299=ORIENTED_EDGE('',*,*,#266,.F.) ;
#300=ORIENTED_EDGE('',*,*,#295,.F.) ;
#309=ORIENTED_EDGE('',*,*,#278,.T.) ;
#310=ORIENTED_EDGE('',*,*,#295,.T.) ;
#327=ORIENTED_EDGE('',*,*,#320,.F.) ;
#328=ORIENTED_EDGE('',*,*,#325,.F.) ;
#356=ORIENTED_EDGE('',*,*,#342,.T.) ;
#357=ORIENTED_EDGE('',*,*,#325,.T.) ;
#358=ORIENTED_EDGE('',*,*,#349,.F.) ;
#359=ORIENTED_EDGE('',*,*,#354,.F.) ;
#373=ORIENTED_EDGE('',*,*,#349,.T.) ;
#374=ORIENTED_EDGE('',*,*,#320,.T.) ;
#375=ORIENTED_EDGE('',*,*,#342,.F.) ;
#376=ORIENTED_EDGE('',*,*,#371,.F.) ;
#385=ORIENTED_EDGE('',*,*,#204,.F.) ;
#386=ORIENTED_EDGE('',*,*,#182,.F.) ;
#403=ORIENTED_EDGE('',*,*,#396,.T.) ;
#404=ORIENTED_EDGE('',*,*,#401,.T.) ;
#432=ORIENTED_EDGE('',*,*,#420,.F.) ;
#433=ORIENTED_EDGE('',*,*,#425,.T.) ;
#434=ORIENTED_EDGE('',*,*,#371,.T.) ;
#435=ORIENTED_EDGE('',*,*,#430,.F.) ;
#444=ORIENTED_EDGE('',*,*,#442,.F.) ;
#445=ORIENTED_EDGE('',*,*,#430,.T.) ;
#446=ORIENTED_EDGE('',*,*,#354,.T.) ;
#447=ORIENTED_EDGE('',*,*,#425,.F.) ;
#466=ORIENTED_EDGE('',*,*,#459,.T.) ;
#467=ORIENTED_EDGE('',*,*,#442,.T.) ;
#468=ORIENTED_EDGE('',*,*,#464,.F.) ;
#469=ORIENTED_EDGE('',*,*,#396,.F.) ;
#478=ORIENTED_EDGE('',*,*,#464,.T.) ;
#479=ORIENTED_EDGE('',*,*,#420,.T.) ;
#480=ORIENTED_EDGE('',*,*,#459,.F.) ;
#481=ORIENTED_EDGE('',*,*,#401,.F.) ;
#119=FACE_BOUND('',#116,.T.) ;
#329=FACE_BOUND('',#326,.T.) ;
#405=FACE_BOUND('',#402,.T.) ;
#30=CLOSED_SHELL('Closed Shell',(#70,#92,#120,#151,#163,#194,#211,#242,#254,#285,#302,#330,#361,#378,#406,#437,#449,#471,#483)) ;
#484=ADVANCED_BREP_SHAPE_REPRESENTATION('NONE',(#21),#16) ;
#70=ADVANCED_FACE('PartBody',(#69),#35,.F.) ;
#92=ADVANCED_FACE('PartBody',(#91),#75,.F.) ;
#120=ADVANCED_FACE('PartBody',(#115,#119),#97,.T.) ;
#151=ADVANCED_FACE('PartBody',(#150),#125,.T.) ;
#163=ADVANCED_FACE('PartBody',(#162),#125,.T.) ;
#194=ADVANCED_FACE('PartBody',(#193),#168,.T.) ;
#211=ADVANCED_FACE('PartBody',(#210),#199,.T.) ;
#242=ADVANCED_FACE('PartBody',(#241),#216,.T.) ;
#254=ADVANCED_FACE('PartBody',(#253),#216,.T.) ;
#285=ADVANCED_FACE('PartBody',(#284),#259,.T.) ;
#302=ADVANCED_FACE('PartBody',(#301),#290,.T.) ;
#330=ADVANCED_FACE('PartBody',(#311,#329),#307,.T.) ;
#361=ADVANCED_FACE('PartBody',(#360),#335,.F.) ;
#378=ADVANCED_FACE('PartBody',(#377),#366,.F.) ;
#406=ADVANCED_FACE('PartBody',(#387,#405),#383,.F.) ;
#437=ADVANCED_FACE('PartBody',(#436),#411,.F.) ;
#449=ADVANCED_FACE('PartBody',(#448),#411,.F.) ;
#471=ADVANCED_FACE('PartBody',(#470),#454,.F.) ;
#483=ADVANCED_FACE('PartBody',(#482),#476,.F.) ;
#4=APPLICATION_PROTOCOL_DEFINITION('international standard','automotive_design',2001,#1) ;
#21=MANIFOLD_SOLID_BREP('PartBody',#30) ;
#39=CIRCLE('generated circle',#38,17.5) ;
#48=CIRCLE('generated circle',#47,0.3) ;
#55=CIRCLE('generated circle',#54,17.8) ;
#62=CIRCLE('generated circle',#61,0.3) ;
#79=CIRCLE('generated circle',#78,17.5) ;
#84=CIRCLE('generated circle',#83,17.8) ;
#101=CIRCLE('generated circle',#100,19.) ;
#110=CIRCLE('generated circle',#109,19.) ;
#143=CIRCLE('generated circle',#142,19.) ;
#155=CIRCLE('generated circle',#154,19.) ;
#179=CIRCLE('generated circle',#178,18.) ;
#203=CIRCLE('generated circle',#202,18.) ;
#234=CIRCLE('generated circle',#233,17.5) ;
#246=CIRCLE('generated circle',#245,17.5) ;
#277=CIRCLE('generated circle',#276,17.3) ;
#294=CIRCLE('generated circle',#293,17.3) ;
#315=CIRCLE('generated circle',#314,16.7) ;
#324=CIRCLE('generated circle',#323,16.7) ;
#353=CIRCLE('generated circle',#352,16.5) ;
#370=CIRCLE('generated circle',#369,16.5) ;
#391=CIRCLE('generated circle',#390,16.7) ;
#400=CIRCLE('generated circle',#399,16.7) ;
#415=CIRCLE('generated circle',#414,16.5) ;
#441=CIRCLE('generated circle',#440,16.5) ;
#22=COLOUR_RGB('Colour',0.823529411765,0.823529411765,1.) ;
#168=CONICAL_SURFACE('Cone',#167,0.,0.785398163397) ;
#199=CONICAL_SURFACE('Cone',#198,0.,0.785398163397) ;
#259=CONICAL_SURFACE('Cone',#258,0.,0.785398163397) ;
#290=CONICAL_SURFACE('Cone',#289,0.,0.785398163397) ;
#335=CONICAL_SURFACE('Cone',#334,0.,0.785398163397) ;
#366=CONICAL_SURFACE('Cone',#365,0.,0.785398163397) ;
#454=CONICAL_SURFACE('Cone',#453,0.,0.785398163397) ;
#476=CONICAL_SURFACE('Cone',#475,0.,0.785398163397) ;
#495=CONSTRUCTIVE_GEOMETRY_REPRESENTATION('supplemental geometry',(#489),#16) ;
#496=CONSTRUCTIVE_GEOMETRY_REPRESENTATION_RELATIONSHIP('supplemental geometry','',#19,#495) ;
#125=CYLINDRICAL_SURFACE('generated cylinder',#124,19.) ;
#216=CYLINDRICAL_SURFACE('generated cylinder',#215,17.5) ;
#411=CYLINDRICAL_SURFACE('generated cylinder',#410,16.5) ;
#35=TOROIDAL_SURFACE('homeo Torus',#34,17.8,0.3) ;
#75=TOROIDAL_SURFACE('homeo Torus',#74,17.8,0.3) ;
#491=DRAUGHTING_PRE_DEFINED_COLOUR('white') ;
#490=DRAUGHTING_PRE_DEFINED_CURVE_FONT('continuous') ;
#44=EDGE_CURVE('',#41,#43,#39,.F.) ;
#51=EDGE_CURVE('',#43,#50,#48,.T.) ;
#58=EDGE_CURVE('',#57,#50,#55,.F.) ;
#63=EDGE_CURVE('',#41,#57,#62,.T.) ;
#80=EDGE_CURVE('',#43,#41,#79,.F.) ;
#85=EDGE_CURVE('',#50,#57,#84,.F.) ;
#106=EDGE_CURVE('',#103,#105,#101,.T.) ;
#111=EDGE_CURVE('',#105,#103,#110,.T.) ;
#132=EDGE_CURVE('',#131,#105,#129,.T.) ;
#139=EDGE_CURVE('',#138,#103,#136,.T.) ;
#144=EDGE_CURVE('',#138,#131,#143,.T.) ;
#156=EDGE_CURVE('',#131,#138,#155,.T.) ;
#175=EDGE_CURVE('',#131,#174,#172,.F.) ;
#182=EDGE_CURVE('',#174,#181,#179,.T.) ;
#187=EDGE_CURVE('',#138,#181,#186,.F.) ;
#204=EDGE_CURVE('',#181,#174,#203,.T.) ;
#223=EDGE_CURVE('',#222,#43,#220,.F.) ;
#230=EDGE_CURVE('',#229,#41,#227,.F.) ;
#235=EDGE_CURVE('',#222,#229,#234,.T.) ;
#247=EDGE_CURVE('',#229,#222,#246,.T.) ;
#266=EDGE_CURVE('',#265,#229,#263,.T.) ;
#273=EDGE_CURVE('',#272,#222,#270,.T.) ;
#278=EDGE_CURVE('',#265,#272,#277,.T.) ;
#295=EDGE_CURVE('',#272,#265,#294,.T.) ;
#320=EDGE_CURVE('',#317,#319,#315,.T.) ;
#325=EDGE_CURVE('',#319,#317,#324,.T.) ;
#342=EDGE_CURVE('',#341,#319,#339,.T.) ;
#349=EDGE_CURVE('',#348,#317,#346,.T.) ;
#354=EDGE_CURVE('',#341,#348,#353,.T.) ;
#371=EDGE_CURVE('',#348,#341,#370,.T.) ;
#396=EDGE_CURVE('',#393,#395,#391,.T.) ;
#401=EDGE_CURVE('',#395,#393,#400,.T.) ;
#420=EDGE_CURVE('',#417,#419,#415,.T.) ;
#425=EDGE_CURVE('',#417,#348,#424,.T.) ;
#430=EDGE_CURVE('',#419,#341,#429,.T.) ;
#442=EDGE_CURVE('',#419,#417,#441,.T.) ;
#459=EDGE_CURVE('',#393,#419,#458,.F.) ;
#464=EDGE_CURVE('',#395,#417,#463,.F.) ;
#64=EDGE_LOOP('',(#65,#66,#67,#68)) ;
#86=EDGE_LOOP('',(#87,#88,#89,#90)) ;
#112=EDGE_LOOP('',(#113,#114)) ;
#116=EDGE_LOOP('',(#117,#118)) ;
#145=EDGE_LOOP('',(#146,#147,#148,#149)) ;
#157=EDGE_LOOP('',(#158,#159,#160,#161)) ;
#188=EDGE_LOOP('',(#189,#190,#191,#192)) ;
#205=EDGE_LOOP('',(#206,#207,#208,#209)) ;
#236=EDGE_LOOP('',(#237,#238,#239,#240)) ;
#248=EDGE_LOOP('',(#249,#250,#251,#252)) ;
#279=EDGE_LOOP('',(#280,#281,#282,#283)) ;
#296=EDGE_LOOP('',(#297,#298,#299,#300)) ;
#308=EDGE_LOOP('',(#309,#310)) ;
#326=EDGE_LOOP('',(#327,#328)) ;
#355=EDGE_LOOP('',(#356,#357,#358,#359)) ;
#372=EDGE_LOOP('',(#373,#374,#375,#376)) ;
#384=EDGE_LOOP('',(#385,#386)) ;
#402=EDGE_LOOP('',(#403,#404)) ;
#431=EDGE_LOOP('',(#432,#433,#434,#435)) ;
#443=EDGE_LOOP('',(#444,#445,#446,#447)) ;
#465=EDGE_LOOP('',(#466,#467,#468,#469)) ;
#477=EDGE_LOOP('',(#478,#479,#480,#481)) ;
#69=FACE_OUTER_BOUND('',#64,.T.) ;
#91=FACE_OUTER_BOUND('',#86,.T.) ;
#115=FACE_OUTER_BOUND('',#112,.T.) ;
#150=FACE_OUTER_BOUND('',#145,.T.) ;
#162=FACE_OUTER_BOUND('',#157,.T.) ;
#193=FACE_OUTER_BOUND('',#188,.T.) ;
#210=FACE_OUTER_BOUND('',#205,.T.) ;
#241=FACE_OUTER_BOUND('',#236,.T.) ;
#253=FACE_OUTER_BOUND('',#248,.T.) ;
#284=FACE_OUTER_BOUND('',#279,.T.) ;
#301=FACE_OUTER_BOUND('',#296,.T.) ;
#311=FACE_OUTER_BOUND('',#308,.T.) ;
#360=FACE_OUTER_BOUND('',#355,.T.) ;
#377=FACE_OUTER_BOUND('',#372,.T.) ;
#387=FACE_OUTER_BOUND('',#384,.T.) ;
#436=FACE_OUTER_BOUND('',#431,.T.) ;
#448=FACE_OUTER_BOUND('',#443,.T.) ;
#470=FACE_OUTER_BOUND('',#465,.T.) ;
#482=FACE_OUTER_BOUND('',#477,.T.) ;
#129=LINE('Line',#126,#128) ;
#136=LINE('Line',#133,#135) ;
#172=LINE('Line',#169,#171) ;
#186=LINE('Line',#183,#185) ;
#220=LINE('Line',#217,#219) ;
#227=LINE('Line',#224,#226) ;
#263=LINE('Line',#260,#262) ;
#270=LINE('Line',#267,#269) ;
#339=LINE('Line',#336,#338) ;
#346=LINE('Line',#343,#345) ;
#424=LINE('Line',#421,#423) ;
#429=LINE('Line',#426,#428) ;
#458=LINE('Line',#455,#457) ;
#463=LINE('Line',#460,#462) ;
#97=PLANE('',#96) ;
#307=PLANE('',#306) ;
#383=PLANE('',#382) ;
#9=PRODUCT_CATEGORY_RELATIONSHIP(' ',' ',#7,#8) ;
#6=PRODUCT_DEFINITION_FORMATION_WITH_SPECIFIED_SOURCE('',' ',#5,.NOT_KNOWN.) ;
#20=SHAPE_DEFINITION_REPRESENTATION(#11,#19) ;
#41=VERTEX_POINT('',#40) ;
#43=VERTEX_POINT('',#42) ;
#50=VERTEX_POINT('',#49) ;
#57=VERTEX_POINT('',#56) ;
#103=VERTEX_POINT('',#102) ;
#105=VERTEX_POINT('',#104) ;
#131=VERTEX_POINT('',#130) ;
#138=VERTEX_POINT('',#137) ;
#174=VERTEX_POINT('',#173) ;
#181=VERTEX_POINT('',#180) ;
#222=VERTEX_POINT('',#221) ;
#229=VERTEX_POINT('',#228) ;
#265=VERTEX_POINT('',#264) ;
#272=VERTEX_POINT('',#271) ;
#317=VERTEX_POINT('',#316) ;
#319=VERTEX_POINT('',#318) ;
#341=VERTEX_POINT('',#340) ;
#348=VERTEX_POINT('',#347) ;
#393=VERTEX_POINT('',#392) ;
#395=VERTEX_POINT('',#394) ;
#417=VERTEX_POINT('',#416) ;
#419=VERTEX_POINT('',#418) ;
#12=(LENGTH_UNIT()NAMED_UNIT(*)SI_UNIT(.MILLI.,.METRE.)) ;
#13=(NAMED_UNIT(*)PLANE_ANGLE_UNIT()SI_UNIT($,.RADIAN.)) ;
#14=(NAMED_UNIT(*)SI_UNIT($,.STERADIAN.)SOLID_ANGLE_UNIT()) ;
#16=(GEOMETRIC_REPRESENTATION_CONTEXT(3)GLOBAL_UNCERTAINTY_ASSIGNED_CONTEXT((#15))GLOBAL_UNIT_ASSIGNED_CONTEXT((#12,#13,#14))REPRESENTATION_CONTEXT(' ',' ')) ;
ENDSEC;
END-ISO-10303-21;
