ISO-10303-21;
HEADER;
/* Generated by software containing ST-Developer
 * from STEP Tools, Inc. (www.steptools.com) 
 */

FILE_DESCRIPTION(
/* description */ (''),
/* implementation_level */ '2;1');

FILE_NAME(
/* name */ 
'/Users/rubenbermudezsalvato/Documents/Mis documentos/Projecto_herrami
enta/04/F_Shaft.step',
/* time_stamp */ '2021-08-26T16:09:10+02:00',
/* author */ (''),
/* organization */ (''),
/* preprocessor_version */ 'ST-DEVELOPER v18.1',
/* originating_system */ 'Autodesk Translation Framework v10.9.0.1377',

/* authorisation */ '');

FILE_SCHEMA (('AUTOMOTIVE_DESIGN { 1 0 10303 214 3 1 1 }'));
ENDSEC;

DATA;
#10=MECHANICAL_DESIGN_GEOMETRIC_PRESENTATION_REPRESENTATION('',(#13),#448);
#11=SHAPE_REPRESENTATION_RELATIONSHIP('SRR','None',#455,#12);
#12=ADVANCED_BREP_SHAPE_REPRESENTATION('',(#14),#447);
#13=STYLED_ITEM('',(#464),#14);
#14=MANIFOLD_SOLID_BREP('Body1',#260);
#15=CYLINDRICAL_SURFACE('',#279,1.25);
#16=CYLINDRICAL_SURFACE('',#282,3.00000000000001);
#17=CYLINDRICAL_SURFACE('',#298,5.);
#18=FACE_BOUND('',#39,.T.);
#19=FACE_BOUND('',#42,.T.);
#20=FACE_BOUND('',#52,.T.);
#21=FACE_BOUND('',#54,.T.);
#22=FACE_OUTER_BOUND('',#37,.T.);
#23=FACE_OUTER_BOUND('',#38,.T.);
#24=FACE_OUTER_BOUND('',#40,.T.);
#25=FACE_OUTER_BOUND('',#41,.T.);
#26=FACE_OUTER_BOUND('',#43,.T.);
#27=FACE_OUTER_BOUND('',#44,.T.);
#28=FACE_OUTER_BOUND('',#45,.T.);
#29=FACE_OUTER_BOUND('',#46,.T.);
#30=FACE_OUTER_BOUND('',#47,.T.);
#31=FACE_OUTER_BOUND('',#48,.T.);
#32=FACE_OUTER_BOUND('',#49,.T.);
#33=FACE_OUTER_BOUND('',#50,.T.);
#34=FACE_OUTER_BOUND('',#51,.T.);
#35=FACE_OUTER_BOUND('',#53,.T.);
#36=FACE_OUTER_BOUND('',#55,.T.);
#37=EDGE_LOOP('',(#167,#168,#169,#170));
#38=EDGE_LOOP('',(#171,#172,#173,#174));
#39=EDGE_LOOP('',(#175));
#40=EDGE_LOOP('',(#176,#177,#178,#179));
#41=EDGE_LOOP('',(#180,#181,#182,#183));
#42=EDGE_LOOP('',(#184));
#43=EDGE_LOOP('',(#185,#186,#187,#188,#189,#190,#191,#192,#193,#194,#195,
#196));
#44=EDGE_LOOP('',(#197,#198));
#45=EDGE_LOOP('',(#199,#200,#201));
#46=EDGE_LOOP('',(#202,#203,#204,#205));
#47=EDGE_LOOP('',(#206,#207,#208,#209));
#48=EDGE_LOOP('',(#210,#211,#212,#213));
#49=EDGE_LOOP('',(#214,#215,#216,#217));
#50=EDGE_LOOP('',(#218,#219,#220,#221));
#51=EDGE_LOOP('',(#222));
#52=EDGE_LOOP('',(#223,#224,#225,#226));
#53=EDGE_LOOP('',(#227));
#54=EDGE_LOOP('',(#228));
#55=EDGE_LOOP('',(#229,#230,#231,#232));
#56=LINE('',#380,#79);
#57=LINE('',#383,#80);
#58=LINE('',#386,#81);
#59=LINE('',#388,#82);
#60=LINE('',#389,#83);
#61=LINE('',#395,#84);
#62=LINE('',#398,#85);
#63=LINE('',#400,#86);
#64=LINE('',#401,#87);
#65=LINE('',#407,#88);
#66=LINE('',#415,#89);
#67=LINE('',#417,#90);
#68=LINE('',#419,#91);
#69=LINE('',#420,#92);
#70=LINE('',#423,#93);
#71=LINE('',#425,#94);
#72=LINE('',#426,#95);
#73=LINE('',#429,#96);
#74=LINE('',#430,#97);
#75=LINE('',#433,#98);
#76=LINE('',#434,#99);
#77=LINE('',#436,#100);
#78=LINE('',#444,#101);
#79=VECTOR('',#305,10.);
#80=VECTOR('',#308,10.);
#81=VECTOR('',#311,10.);
#82=VECTOR('',#312,10.);
#83=VECTOR('',#313,10.);
#84=VECTOR('',#320,1.25);
#85=VECTOR('',#323,10.);
#86=VECTOR('',#324,10.);
#87=VECTOR('',#325,10.);
#88=VECTOR('',#332,3.00000000000001);
#89=VECTOR('',#343,10.);
#90=VECTOR('',#344,10.);
#91=VECTOR('',#345,10.);
#92=VECTOR('',#346,10.);
#93=VECTOR('',#349,10.);
#94=VECTOR('',#350,10.);
#95=VECTOR('',#351,10.);
#96=VECTOR('',#354,10.);
#97=VECTOR('',#355,10.);
#98=VECTOR('',#358,10.);
#99=VECTOR('',#359,10.);
#100=VECTOR('',#362,10.);
#101=VECTOR('',#373,5.);
#102=CIRCLE('',#275,3.00000000000001);
#103=CIRCLE('',#276,3.00000000000001);
#104=CIRCLE('',#278,1.25);
#105=CIRCLE('',#280,1.25);
#106=CIRCLE('',#283,3.00000000000001);
#107=CIRCLE('',#284,3.00000000000001);
#108=CIRCLE('',#285,3.00000000000001);
#109=CIRCLE('',#286,3.00000000000001);
#110=CIRCLE('',#295,5.);
#111=CIRCLE('',#297,5.);
#112=VERTEX_POINT('',#376);
#113=VERTEX_POINT('',#377);
#114=VERTEX_POINT('',#379);
#115=VERTEX_POINT('',#381);
#116=VERTEX_POINT('',#385);
#117=VERTEX_POINT('',#387);
#118=VERTEX_POINT('',#390);
#119=VERTEX_POINT('',#393);
#120=VERTEX_POINT('',#397);
#121=VERTEX_POINT('',#399);
#122=VERTEX_POINT('',#404);
#123=VERTEX_POINT('',#406);
#124=VERTEX_POINT('',#413);
#125=VERTEX_POINT('',#414);
#126=VERTEX_POINT('',#416);
#127=VERTEX_POINT('',#418);
#128=VERTEX_POINT('',#422);
#129=VERTEX_POINT('',#424);
#130=VERTEX_POINT('',#428);
#131=VERTEX_POINT('',#432);
#132=VERTEX_POINT('',#438);
#133=VERTEX_POINT('',#441);
#134=EDGE_CURVE('',#112,#113,#102,.T.);
#135=EDGE_CURVE('',#114,#112,#56,.T.);
#136=EDGE_CURVE('',#115,#114,#103,.T.);
#137=EDGE_CURVE('',#113,#115,#57,.T.);
#138=EDGE_CURVE('',#116,#115,#58,.T.);
#139=EDGE_CURVE('',#116,#117,#59,.T.);
#140=EDGE_CURVE('',#113,#117,#60,.T.);
#141=EDGE_CURVE('',#118,#118,#104,.T.);
#142=EDGE_CURVE('',#119,#119,#105,.T.);
#143=EDGE_CURVE('',#119,#118,#61,.T.);
#144=EDGE_CURVE('',#120,#112,#62,.T.);
#145=EDGE_CURVE('',#120,#121,#63,.T.);
#146=EDGE_CURVE('',#114,#121,#64,.T.);
#147=EDGE_CURVE('',#117,#116,#106,.T.);
#148=EDGE_CURVE('',#121,#122,#107,.T.);
#149=EDGE_CURVE('',#122,#123,#65,.T.);
#150=EDGE_CURVE('',#123,#123,#108,.T.);
#151=EDGE_CURVE('',#122,#120,#109,.T.);
#152=EDGE_CURVE('',#124,#125,#66,.T.);
#153=EDGE_CURVE('',#124,#126,#67,.T.);
#154=EDGE_CURVE('',#127,#126,#68,.T.);
#155=EDGE_CURVE('',#125,#127,#69,.T.);
#156=EDGE_CURVE('',#128,#127,#70,.T.);
#157=EDGE_CURVE('',#129,#128,#71,.T.);
#158=EDGE_CURVE('',#129,#125,#72,.T.);
#159=EDGE_CURVE('',#130,#126,#73,.T.);
#160=EDGE_CURVE('',#128,#130,#74,.T.);
#161=EDGE_CURVE('',#130,#131,#75,.T.);
#162=EDGE_CURVE('',#131,#124,#76,.T.);
#163=EDGE_CURVE('',#131,#129,#77,.T.);
#164=EDGE_CURVE('',#132,#132,#110,.T.);
#165=EDGE_CURVE('',#133,#133,#111,.T.);
#166=EDGE_CURVE('',#132,#133,#78,.T.);
#167=ORIENTED_EDGE('',*,*,#134,.F.);
#168=ORIENTED_EDGE('',*,*,#135,.F.);
#169=ORIENTED_EDGE('',*,*,#136,.F.);
#170=ORIENTED_EDGE('',*,*,#137,.F.);
#171=ORIENTED_EDGE('',*,*,#137,.T.);
#172=ORIENTED_EDGE('',*,*,#138,.F.);
#173=ORIENTED_EDGE('',*,*,#139,.T.);
#174=ORIENTED_EDGE('',*,*,#140,.F.);
#175=ORIENTED_EDGE('',*,*,#141,.T.);
#176=ORIENTED_EDGE('',*,*,#142,.F.);
#177=ORIENTED_EDGE('',*,*,#143,.T.);
#178=ORIENTED_EDGE('',*,*,#141,.F.);
#179=ORIENTED_EDGE('',*,*,#143,.F.);
#180=ORIENTED_EDGE('',*,*,#135,.T.);
#181=ORIENTED_EDGE('',*,*,#144,.F.);
#182=ORIENTED_EDGE('',*,*,#145,.T.);
#183=ORIENTED_EDGE('',*,*,#146,.F.);
#184=ORIENTED_EDGE('',*,*,#142,.T.);
#185=ORIENTED_EDGE('',*,*,#134,.T.);
#186=ORIENTED_EDGE('',*,*,#140,.T.);
#187=ORIENTED_EDGE('',*,*,#147,.T.);
#188=ORIENTED_EDGE('',*,*,#138,.T.);
#189=ORIENTED_EDGE('',*,*,#136,.T.);
#190=ORIENTED_EDGE('',*,*,#146,.T.);
#191=ORIENTED_EDGE('',*,*,#148,.T.);
#192=ORIENTED_EDGE('',*,*,#149,.T.);
#193=ORIENTED_EDGE('',*,*,#150,.T.);
#194=ORIENTED_EDGE('',*,*,#149,.F.);
#195=ORIENTED_EDGE('',*,*,#151,.T.);
#196=ORIENTED_EDGE('',*,*,#144,.T.);
#197=ORIENTED_EDGE('',*,*,#139,.F.);
#198=ORIENTED_EDGE('',*,*,#147,.F.);
#199=ORIENTED_EDGE('',*,*,#145,.F.);
#200=ORIENTED_EDGE('',*,*,#151,.F.);
#201=ORIENTED_EDGE('',*,*,#148,.F.);
#202=ORIENTED_EDGE('',*,*,#152,.F.);
#203=ORIENTED_EDGE('',*,*,#153,.T.);
#204=ORIENTED_EDGE('',*,*,#154,.F.);
#205=ORIENTED_EDGE('',*,*,#155,.F.);
#206=ORIENTED_EDGE('',*,*,#155,.T.);
#207=ORIENTED_EDGE('',*,*,#156,.F.);
#208=ORIENTED_EDGE('',*,*,#157,.F.);
#209=ORIENTED_EDGE('',*,*,#158,.T.);
#210=ORIENTED_EDGE('',*,*,#154,.T.);
#211=ORIENTED_EDGE('',*,*,#159,.F.);
#212=ORIENTED_EDGE('',*,*,#160,.F.);
#213=ORIENTED_EDGE('',*,*,#156,.T.);
#214=ORIENTED_EDGE('',*,*,#161,.F.);
#215=ORIENTED_EDGE('',*,*,#159,.T.);
#216=ORIENTED_EDGE('',*,*,#153,.F.);
#217=ORIENTED_EDGE('',*,*,#162,.F.);
#218=ORIENTED_EDGE('',*,*,#152,.T.);
#219=ORIENTED_EDGE('',*,*,#158,.F.);
#220=ORIENTED_EDGE('',*,*,#163,.F.);
#221=ORIENTED_EDGE('',*,*,#162,.T.);
#222=ORIENTED_EDGE('',*,*,#164,.F.);
#223=ORIENTED_EDGE('',*,*,#161,.T.);
#224=ORIENTED_EDGE('',*,*,#163,.T.);
#225=ORIENTED_EDGE('',*,*,#157,.T.);
#226=ORIENTED_EDGE('',*,*,#160,.T.);
#227=ORIENTED_EDGE('',*,*,#165,.T.);
#228=ORIENTED_EDGE('',*,*,#150,.F.);
#229=ORIENTED_EDGE('',*,*,#164,.T.);
#230=ORIENTED_EDGE('',*,*,#166,.T.);
#231=ORIENTED_EDGE('',*,*,#165,.F.);
#232=ORIENTED_EDGE('',*,*,#166,.F.);
#233=PLANE('',#274);
#234=PLANE('',#277);
#235=PLANE('',#281);
#236=PLANE('',#287);
#237=PLANE('',#288);
#238=PLANE('',#289);
#239=PLANE('',#290);
#240=PLANE('',#291);
#241=PLANE('',#292);
#242=PLANE('',#293);
#243=PLANE('',#294);
#244=PLANE('',#296);
#245=ADVANCED_FACE('',(#22),#233,.T.);
#246=ADVANCED_FACE('',(#23,#18),#234,.T.);
#247=ADVANCED_FACE('',(#24),#15,.F.);
#248=ADVANCED_FACE('',(#25,#19),#235,.T.);
#249=ADVANCED_FACE('',(#26),#16,.T.);
#250=ADVANCED_FACE('',(#27),#236,.T.);
#251=ADVANCED_FACE('',(#28),#237,.T.);
#252=ADVANCED_FACE('',(#29),#238,.F.);
#253=ADVANCED_FACE('',(#30),#239,.T.);
#254=ADVANCED_FACE('',(#31),#240,.T.);
#255=ADVANCED_FACE('',(#32),#241,.T.);
#256=ADVANCED_FACE('',(#33),#242,.T.);
#257=ADVANCED_FACE('',(#34,#20),#243,.T.);
#258=ADVANCED_FACE('',(#35,#21),#244,.T.);
#259=ADVANCED_FACE('',(#36),#17,.T.);
#260=CLOSED_SHELL('',(#245,#246,#247,#248,#249,#250,#251,#252,#253,#254,
#255,#256,#257,#258,#259));
#261=DERIVED_UNIT_ELEMENT(#263,1.);
#262=DERIVED_UNIT_ELEMENT(#450,-3.);
#263=(
MASS_UNIT()
NAMED_UNIT(*)
SI_UNIT(.KILO.,.GRAM.)
);
#264=DERIVED_UNIT((#261,#262));
#265=MEASURE_REPRESENTATION_ITEM('density measure',
POSITIVE_RATIO_MEASURE(7850.),#264);
#266=PROPERTY_DEFINITION_REPRESENTATION(#271,#268);
#267=PROPERTY_DEFINITION_REPRESENTATION(#272,#269);
#268=REPRESENTATION('material name',(#270),#447);
#269=REPRESENTATION('density',(#265),#447);
#270=DESCRIPTIVE_REPRESENTATION_ITEM('Steel','Steel');
#271=PROPERTY_DEFINITION('material property','material name',#457);
#272=PROPERTY_DEFINITION('material property','density of part',#457);
#273=AXIS2_PLACEMENT_3D('placement',#374,#299,#300);
#274=AXIS2_PLACEMENT_3D('',#375,#301,#302);
#275=AXIS2_PLACEMENT_3D('',#378,#303,#304);
#276=AXIS2_PLACEMENT_3D('',#382,#306,#307);
#277=AXIS2_PLACEMENT_3D('',#384,#309,#310);
#278=AXIS2_PLACEMENT_3D('',#391,#314,#315);
#279=AXIS2_PLACEMENT_3D('',#392,#316,#317);
#280=AXIS2_PLACEMENT_3D('',#394,#318,#319);
#281=AXIS2_PLACEMENT_3D('',#396,#321,#322);
#282=AXIS2_PLACEMENT_3D('',#402,#326,#327);
#283=AXIS2_PLACEMENT_3D('',#403,#328,#329);
#284=AXIS2_PLACEMENT_3D('',#405,#330,#331);
#285=AXIS2_PLACEMENT_3D('',#408,#333,#334);
#286=AXIS2_PLACEMENT_3D('',#409,#335,#336);
#287=AXIS2_PLACEMENT_3D('',#410,#337,#338);
#288=AXIS2_PLACEMENT_3D('',#411,#339,#340);
#289=AXIS2_PLACEMENT_3D('',#412,#341,#342);
#290=AXIS2_PLACEMENT_3D('',#421,#347,#348);
#291=AXIS2_PLACEMENT_3D('',#427,#352,#353);
#292=AXIS2_PLACEMENT_3D('',#431,#356,#357);
#293=AXIS2_PLACEMENT_3D('',#435,#360,#361);
#294=AXIS2_PLACEMENT_3D('',#437,#363,#364);
#295=AXIS2_PLACEMENT_3D('',#439,#365,#366);
#296=AXIS2_PLACEMENT_3D('',#440,#367,#368);
#297=AXIS2_PLACEMENT_3D('',#442,#369,#370);
#298=AXIS2_PLACEMENT_3D('',#443,#371,#372);
#299=DIRECTION('axis',(0.,0.,1.));
#300=DIRECTION('refdir',(1.,0.,0.));
#301=DIRECTION('center_axis',(-0.185695339497126,0.981520745172777,0.0461981350762648));
#302=DIRECTION('ref_axis',(-0.134939035930427,-0.0720433024484294,0.988231359123202));
#303=DIRECTION('center_axis',(0.185695339497126,-0.981520745172777,-0.0461981350762648));
#304=DIRECTION('ref_axis',(0.172750969293982,-0.0136727996386893,0.984870629655505));
#305=DIRECTION('',(0.973297846227564,0.177276025925114,0.145823568605984));
#306=DIRECTION('center_axis',(0.185695339497126,-0.981520745172777,-0.0461981350762648));
#307=DIRECTION('ref_axis',(0.172750969293982,-0.0136727996386893,0.984870629655505));
#308=DIRECTION('',(-0.973297846227564,-0.177276025925114,-0.145823568605984));
#309=DIRECTION('center_axis',(-0.134939035930427,-0.0720433024484285,0.988231359123202));
#310=DIRECTION('ref_axis',(0.973297846227564,0.177276025925114,0.145823568605984));
#311=DIRECTION('',(-0.185695339497131,0.981520745172776,0.0461981350762625));
#312=DIRECTION('',(0.973297846227563,0.177276025925119,0.145823568605984));
#313=DIRECTION('',(0.185695339497131,-0.981520745172776,-0.0461981350762625));
#314=DIRECTION('center_axis',(0.134939035930427,0.0720433024484285,-0.988231359123202));
#315=DIRECTION('ref_axis',(-0.470974070472742,0.882147054034834,6.46379560816388E-15));
#316=DIRECTION('center_axis',(-0.134939035930429,-0.0720433024484359,0.988231359123201));
#317=DIRECTION('ref_axis',(-0.470974070472742,0.882147054034834,6.46379560816388E-15));
#318=DIRECTION('center_axis',(-0.134939035930427,-0.0720433024484285,0.988231359123202));
#319=DIRECTION('ref_axis',(-0.470974070472742,0.882147054034834,6.46379560816388E-15));
#320=DIRECTION('',(-0.134939035930429,-0.0720433024484359,0.988231359123201));
#321=DIRECTION('center_axis',(0.134939035930427,0.0720433024484285,-0.988231359123202));
#322=DIRECTION('ref_axis',(-0.973297846227564,-0.177276025925114,-0.145823568605984));
#323=DIRECTION('',(-0.185695339497131,0.981520745172776,0.0461981350762625));
#324=DIRECTION('',(-0.973297846227563,-0.177276025925119,-0.145823568605984));
#325=DIRECTION('',(0.185695339497131,-0.981520745172776,-0.0461981350762625));
#326=DIRECTION('center_axis',(-0.185695339497131,0.981520745172776,0.0461981350762625));
#327=DIRECTION('ref_axis',(0.172750969293982,-0.0136727996386893,0.984870629655505));
#328=DIRECTION('center_axis',(0.185695339497131,-0.981520745172776,-0.0461981350762628));
#329=DIRECTION('ref_axis',(0.172750969293982,-0.0136727996386893,0.984870629655505));
#330=DIRECTION('center_axis',(0.185695339497131,-0.981520745172776,-0.0461981350762628));
#331=DIRECTION('ref_axis',(0.172750969293982,-0.0136727996386893,0.984870629655505));
#332=DIRECTION('',(0.185695339497131,-0.981520745172776,-0.0461981350762625));
#333=DIRECTION('center_axis',(-0.185695339497131,0.981520745172776,0.0461981350762628));
#334=DIRECTION('ref_axis',(0.172750969293982,-0.0136727996386893,0.984870629655505));
#335=DIRECTION('center_axis',(0.185695339497131,-0.981520745172776,-0.0461981350762628));
#336=DIRECTION('ref_axis',(0.172750969293982,-0.0136727996386893,0.984870629655505));
#337=DIRECTION('center_axis',(-0.185695339497131,0.981520745172776,0.0461981350762628));
#338=DIRECTION('ref_axis',(0.172750969293982,-0.0136727996386895,0.984870629655505));
#339=DIRECTION('center_axis',(-0.185695339497131,0.981520745172776,0.0461981350762628));
#340=DIRECTION('ref_axis',(0.172750969293982,-0.0136727996386895,0.984870629655505));
#341=DIRECTION('center_axis',(-0.537331071311597,0.842279902329502,0.0428938915806824));
#342=DIRECTION('ref_axis',(-0.843327674724582,-0.537125731364678,-0.0171575566322735));
#343=DIRECTION('',(0.843327674724582,0.537125731364678,0.0171575566322745));
#344=DIRECTION('',(-0.00858794776190157,0.0453928941329271,-0.998932296161995));
#345=DIRECTION('',(-0.843327674724582,-0.537125731364678,-0.0171575566322745));
#346=DIRECTION('',(-0.00858794776190333,0.0453928941329364,-0.998932296161995));
#347=DIRECTION('center_axis',(0.98256983876073,0.185893819041177,4.47194984172459E-15));
#348=DIRECTION('ref_axis',(0.00858794776190157,-0.0453928941329271,0.998932296161995));
#349=DIRECTION('',(0.185695339497126,-0.981520745172777,-0.0461981350762596));
#350=DIRECTION('',(-0.0085879477619028,0.0453928941329336,-0.998932296161995));
#351=DIRECTION('',(0.185695339497126,-0.981520745172777,-0.0461981350762596));
#352=DIRECTION('center_axis',(-0.00858794776190168,0.0453928941329277,-0.998932296161995));
#353=DIRECTION('ref_axis',(0.982569838760729,0.185893819041178,4.52052209905194E-15));
#354=DIRECTION('',(0.185695339497126,-0.981520745172777,-0.0461981350762596));
#355=DIRECTION('',(-0.982569838760729,-0.185893819041181,-4.63327912499043E-15));
#356=DIRECTION('center_axis',(-0.98256983876073,-0.185893819041177,-4.47194984172459E-15));
#357=DIRECTION('ref_axis',(-0.00858794776190157,0.0453928941329271,-0.998932296161995));
#358=DIRECTION('',(0.0085879477619028,-0.0453928941329336,0.998932296161995));
#359=DIRECTION('',(0.185695339497126,-0.981520745172777,-0.0461981350762596));
#360=DIRECTION('center_axis',(0.00858794776190168,-0.0453928941329277,0.998932296161995));
#361=DIRECTION('ref_axis',(-0.982569838760729,-0.185893819041178,-4.52052209905194E-15));
#362=DIRECTION('',(0.982569838760729,0.185893819041181,4.63327912499043E-15));
#363=DIRECTION('center_axis',(0.185695339497129,-0.981520745172776,-0.0461981350762657));
#364=DIRECTION('ref_axis',(-0.982569838760729,-0.185893819041181,-3.24396653154208E-15));
#365=DIRECTION('center_axis',(-0.185695339497129,0.981520745172776,0.0461981350762657));
#366=DIRECTION('ref_axis',(0.903996383781568,0.152223686258317,0.399522824694383));
#367=DIRECTION('center_axis',(-0.185695339497131,0.981520745172776,0.0461981350762628));
#368=DIRECTION('ref_axis',(0.172750969293982,-0.0136727996386895,0.984870629655505));
#369=DIRECTION('center_axis',(-0.185695339497131,0.981520745172776,0.0461981350762628));
#370=DIRECTION('ref_axis',(0.903996383781568,0.152223686258317,0.399522824694383));
#371=DIRECTION('center_axis',(0.185695339497125,-0.981520745172777,-0.0461981350762645));
#372=DIRECTION('ref_axis',(0.903996383781568,0.152223686258317,0.399522824694383));
#373=DIRECTION('',(-0.185695339497125,0.981520745172777,0.0461981350762645));
#374=CARTESIAN_POINT('',(0.,0.,0.));
#375=CARTESIAN_POINT('Origin',(-340.496522736657,-55.2362325559956,100.102120961196));
#376=CARTESIAN_POINT('',(-338.050284518277,-54.6957447063491,98.4517296550741));
#377=CARTESIAN_POINT('',(-338.590040661998,-54.9839179161427,102.404655091567));
#378=CARTESIAN_POINT('Origin',(-340.496522736656,-55.2362325559955,100.102120961196));
#379=CARTESIAN_POINT('',(-342.403004811314,-55.4885471958481,97.799586830825));
#380=CARTESIAN_POINT('',(-339.138464591537,-54.893945328724,98.2886939490117));
#381=CARTESIAN_POINT('',(-342.942760955036,-55.776720405642,101.752512267318));
#382=CARTESIAN_POINT('Origin',(-340.496522736656,-55.2362325559955,100.102120961196));
#383=CARTESIAN_POINT('',(-341.854580881778,-55.5785197832673,101.91554797338));
#384=CARTESIAN_POINT('Origin',(-342.478522606294,-58.230522268574,101.637016929627));
#385=CARTESIAN_POINT('',(-341.550045908809,-63.1381259944379,101.406026254246));
#386=CARTESIAN_POINT('',(-339.693092513837,-72.9533334461655,100.944044903483));
#387=CARTESIAN_POINT('',(-337.197325615771,-62.3453235049388,102.058169078495));
#388=CARTESIAN_POINT('',(-340.461865835549,-62.939925372063,101.569061960308));
#389=CARTESIAN_POINT('',(-335.340372220798,-72.1605309566662,101.596187727732));
#390=CARTESIAN_POINT('',(-339.527683369833,-59.918313535757,101.916900119397));
#391=CARTESIAN_POINT('Origin',(-340.116400957924,-58.8156297182135,101.916900119397));
#392=CARTESIAN_POINT('Origin',(-339.576644814202,-58.5274565084198,97.9639746829045));
#393=CARTESIAN_POINT('',(-338.987927226111,-59.6301403259633,97.9639746829045));
#394=CARTESIAN_POINT('Origin',(-339.576644814202,-58.5274565084198,97.9639746829044));
#395=CARTESIAN_POINT('',(-338.987927226111,-59.6301403259633,97.9639746829045));
#396=CARTESIAN_POINT('Origin',(-337.586046169535,-57.1495465692811,98.3362343173833));
#397=CARTESIAN_POINT('',(-336.657569472049,-62.057150295145,98.105243642002));
#398=CARTESIAN_POINT('',(-334.800616077077,-71.8723577468726,97.6432622912395));
#399=CARTESIAN_POINT('',(-341.010289765087,-62.8499527846442,97.4531008177528));
#400=CARTESIAN_POINT('',(-337.745749545308,-62.2553509175197,97.9422079359398));
#401=CARTESIAN_POINT('',(-339.153336370114,-72.6651602363716,96.9911194669904));
#402=CARTESIAN_POINT('Origin',(-337.246854295457,-72.412845596519,99.2936535973617));
#403=CARTESIAN_POINT('Origin',(-339.103807690428,-62.5976381447912,99.7556349481243));
#404=CARTESIAN_POINT('',(-339.62206059831,-62.5566197458752,96.8010230591578));
#405=CARTESIAN_POINT('Origin',(-339.103807690428,-62.5976381447912,99.7556349481243));
#406=CARTESIAN_POINT('',(-338.043650212584,-70.8995460798437,96.4083389110096));
#407=CARTESIAN_POINT('',(-337.765107203339,-72.3718271976029,96.3390417083952));
#408=CARTESIAN_POINT('Origin',(-337.525397304702,-70.9405644787598,99.3629507999761));
#409=CARTESIAN_POINT('Origin',(-339.103807690428,-62.5976381447912,99.7556349481243));
#410=CARTESIAN_POINT('Origin',(-339.103807690428,-62.5976381447912,99.7556349481243));
#411=CARTESIAN_POINT('Origin',(-339.103807690428,-62.5976381447912,99.7556349481243));
#412=CARTESIAN_POINT('Origin',(-333.976270540224,-76.2514721668594,96.5884312491147));
#413=CARTESIAN_POINT('',(-338.474789316223,-79.370947223077,101.490696459772));
#414=CARTESIAN_POINT('',(-333.933330801414,-76.4784366375241,101.583092729925));
#415=CARTESIAN_POINT('',(-333.385223739282,-76.1293405323714,101.594244003909));
#416=CARTESIAN_POINT('',(-338.517729055032,-79.1439827524123,96.4960349789623));
#417=CARTESIAN_POINT('',(-338.517729055032,-79.1439827524123,96.4960349789623));
#418=CARTESIAN_POINT('',(-333.976270540224,-76.2514721668594,96.5884312491147));
#419=CARTESIAN_POINT('',(-335.385688699992,-77.1491478658237,96.5597565445848));
#420=CARTESIAN_POINT('',(-333.976270540223,-76.2514721668591,96.5884312491148));
#421=CARTESIAN_POINT('Origin',(-334.626204228463,-72.8161495587562,96.7501247218817));
#422=CARTESIAN_POINT('',(-334.626204228463,-72.8161495587562,96.7501247218817));
#423=CARTESIAN_POINT('',(-334.626204228463,-72.8161495587562,96.7501247218817));
#424=CARTESIAN_POINT('',(-334.583264489653,-73.0431140294208,101.744786202692));
#425=CARTESIAN_POINT('',(-334.61546929376,-72.8728906764223,97.9987900920836));
#426=CARTESIAN_POINT('',(-334.583264489653,-73.0431140294208,101.744786202692));
#427=CARTESIAN_POINT('Origin',(-339.539053422266,-73.7456186539621,96.7501247218817));
#428=CARTESIAN_POINT('',(-339.539053422266,-73.7456186539621,96.7501247218817));
#429=CARTESIAN_POINT('',(-339.539053422266,-73.7456186539621,96.7501247218817));
#430=CARTESIAN_POINT('',(-338.310841123816,-73.5132513801608,96.7501247218817));
#431=CARTESIAN_POINT('Origin',(-339.496113683457,-73.9725831246267,101.744786202692));
#432=CARTESIAN_POINT('',(-339.496113683457,-73.9725831246267,101.744786202692));
#433=CARTESIAN_POINT('',(-339.506848618159,-73.9158420069605,100.496120832489));
#434=CARTESIAN_POINT('',(-339.496113683457,-73.9725831246267,101.744786202692));
#435=CARTESIAN_POINT('Origin',(-334.583264489653,-73.0431140294208,101.744786202692));
#436=CARTESIAN_POINT('',(-335.811476788105,-73.2754813032224,101.744786202692));
#437=CARTESIAN_POINT('Origin',(-337.061158955961,-73.3943663416917,99.2474554622853));
#438=CARTESIAN_POINT('',(-341.581140874867,-74.155484772983,97.2498413388136));
#439=CARTESIAN_POINT('Origin',(-337.06115895596,-73.3943663416914,99.2474554622855));
#440=CARTESIAN_POINT('Origin',(-337.525397304702,-70.9405644787598,99.3629507999762));
#441=CARTESIAN_POINT('',(-342.04537922361,-71.7016829100514,97.3653366765042));
#442=CARTESIAN_POINT('Origin',(-337.525397304702,-70.9405644787598,99.3629507999761));
#443=CARTESIAN_POINT('Origin',(-337.246854295457,-72.412845596519,99.2936535973617));
#444=CARTESIAN_POINT('',(-341.766836214364,-73.1739640278106,97.2960394738898));
#445=UNCERTAINTY_MEASURE_WITH_UNIT(LENGTH_MEASURE(0.01),#449,
'DISTANCE_ACCURACY_VALUE',
'Maximum model space distance between geometric entities at asserted c
onnectivities');
#446=UNCERTAINTY_MEASURE_WITH_UNIT(LENGTH_MEASURE(0.01),#449,
'DISTANCE_ACCURACY_VALUE',
'Maximum model space distance between geometric entities at asserted c
onnectivities');
#447=(
GEOMETRIC_REPRESENTATION_CONTEXT(3)
GLOBAL_UNCERTAINTY_ASSIGNED_CONTEXT((#445))
GLOBAL_UNIT_ASSIGNED_CONTEXT((#449,#451,#452))
REPRESENTATION_CONTEXT('','3D')
);
#448=(
GEOMETRIC_REPRESENTATION_CONTEXT(3)
GLOBAL_UNCERTAINTY_ASSIGNED_CONTEXT((#446))
GLOBAL_UNIT_ASSIGNED_CONTEXT((#449,#451,#452))
REPRESENTATION_CONTEXT('','3D')
);
#449=(
LENGTH_UNIT()
NAMED_UNIT(*)
SI_UNIT(.MILLI.,.METRE.)
);
#450=(
LENGTH_UNIT()
NAMED_UNIT(*)
SI_UNIT($,.METRE.)
);
#451=(
NAMED_UNIT(*)
PLANE_ANGLE_UNIT()
SI_UNIT($,.RADIAN.)
);
#452=(
NAMED_UNIT(*)
SI_UNIT($,.STERADIAN.)
SOLID_ANGLE_UNIT()
);
#453=SHAPE_DEFINITION_REPRESENTATION(#454,#455);
#454=PRODUCT_DEFINITION_SHAPE('',$,#457);
#455=SHAPE_REPRESENTATION('',(#273),#447);
#456=PRODUCT_DEFINITION_CONTEXT('part definition',#461,'design');
#457=PRODUCT_DEFINITION('F_Shaft','F_Shaft',#458,#456);
#458=PRODUCT_DEFINITION_FORMATION('',$,#463);
#459=PRODUCT_RELATED_PRODUCT_CATEGORY('F_Shaft','F_Shaft',(#463));
#460=APPLICATION_PROTOCOL_DEFINITION('international standard',
'automotive_design',2009,#461);
#461=APPLICATION_CONTEXT(
'Core Data for Automotive Mechanical Design Process');
#462=PRODUCT_CONTEXT('part definition',#461,'mechanical');
#463=PRODUCT('F_Shaft','F_Shaft',$,(#462));
#464=PRESENTATION_STYLE_ASSIGNMENT((#465));
#465=SURFACE_STYLE_USAGE(.BOTH.,#466);
#466=SURFACE_SIDE_STYLE('',(#467));
#467=SURFACE_STYLE_FILL_AREA(#468);
#468=FILL_AREA_STYLE('Copper - Polished',(#469));
#469=FILL_AREA_STYLE_COLOUR('Copper - Polished',#470);
#470=COLOUR_RGB('Copper - Polished',0.929411764705882,0.807843137254902,
0.764705882352941);
ENDSEC;
END-ISO-10303-21;
