ISO-10303-21;
HEADER;
FILE_DESCRIPTION (( 'STEP AP214' ),
    '1' );
FILE_NAME ('GIN-EM08.STEP',
    '2022-01-19T14:08:42',
    ( '' ),
    ( '' ),
    'SwSTEP 2.0',
    'SolidWorks 2021',
    '' );
FILE_SCHEMA (( 'AUTOMOTIVE_DESIGN' ));
ENDSEC;

DATA;
#1 = LINE ( 'NONE', #118, #109 ) ;
#2 = ORIENTED_EDGE ( 'NONE', *, *, #250, .F. ) ;
#3 = CARTESIAN_POINT ( 'NONE',  ( -12.49999999999999645, 40.00000000000000000, -3.000000000000002665 ) ) ;
#4 = EDGE_LOOP ( 'NONE', ( #354, #324 ) ) ;
#5 = VECTOR ( 'NONE', #276, 1000.000000000000000 ) ;
#6 = DIRECTION ( 'NONE',  ( -0.000000000000000000, -0.000000000000000000, -1.000000000000000000 ) ) ;
#7 = VERTEX_POINT ( 'NONE', #208 ) ;
#8 = DIRECTION ( 'NONE',  ( -1.000000000000000000, 0.000000000000000000, 0.000000000000000000 ) ) ;
#9 = EDGE_CURVE ( 'NONE', #67, #36, #329, .T. ) ;
#10 = EDGE_LOOP ( 'NONE', ( #347, #268 ) ) ;
#11 = MANIFOLD_SOLID_BREP ( 'Symétrie10[2]', #231 ) ;
#12 = ORIENTED_EDGE ( 'NONE', *, *, #253, .T. ) ;
#13 = CARTESIAN_POINT ( 'NONE',  ( 0.000000000000000000, 40.00000000000000000, -41.99999999999999289 ) ) ;
#14 = SURFACE_SIDE_STYLE ('',( #72 ) ) ;
#15 = FILL_AREA_STYLE ('',( #210 ) ) ;
#16 = EDGE_LOOP ( 'NONE', ( #265, #355, #235, #2 ) ) ;
#17 = CARTESIAN_POINT ( 'NONE',  ( 0.000000000000000000, 40.00000000000000000, -45.00000000000000000 ) ) ;
#18 = CARTESIAN_POINT ( 'NONE',  ( 8.999999999999994671, 40.00000000000000000, 0.000000000000000000 ) ) ;
#19 = DIRECTION ( 'NONE',  ( -1.000000000000000000, 0.000000000000000000, 0.000000000000000000 ) ) ;
#20 = LINE ( 'NONE', #251, #299 ) ;
#21 = APPLICATION_PROTOCOL_DEFINITION ( 'draft international standard', 'automotive_design', 1998, #56 ) ;
#22 =( NAMED_UNIT ( * ) SI_UNIT ( $, .STERADIAN. ) SOLID_ANGLE_UNIT ( ) );
#23 = CIRCLE ( 'NONE', #331, 6.399999999999995914 ) ;
#24 = DIRECTION ( 'NONE',  ( -0.000000000000000000, -0.000000000000000000, -1.000000000000000000 ) ) ;
#25 = PLANE ( 'NONE',  #223 ) ;
#26 = ORIENTED_EDGE ( 'NONE', *, *, #369, .T. ) ;
#27 = UNCERTAINTY_MEASURE_WITH_UNIT (LENGTH_MEASURE( 1.000000000000000082E-05 ), #93, 'distance_accuracy_value', 'NONE');
#28 = CARTESIAN_POINT ( 'NONE',  ( 0.000000000000000000, 46.40000000000000568, -45.00000000000000000 ) ) ;
#29 = ADVANCED_FACE ( 'NONE', ( #165 ), #153, .T. ) ;
#30 = VERTEX_POINT ( 'NONE', #18 ) ;
#31 = CIRCLE ( 'NONE', #280, 8.999999999999994671 ) ;
#32 = DIRECTION ( 'NONE',  ( -0.000000000000000000, 0.000000000000000000, -1.000000000000000000 ) ) ;
#33 = ORIENTED_EDGE ( 'NONE', *, *, #9, .F. ) ;
#34 = CARTESIAN_POINT ( 'NONE',  ( 0.000000000000000000, 40.00000000000000000, -41.99999999999999289 ) ) ;
#35 = ORIENTED_EDGE ( 'NONE', *, *, #253, .F. ) ;
#36 = VERTEX_POINT ( 'NONE', #133 ) ;
#37 = CARTESIAN_POINT ( 'NONE',  ( 8.999999999999991118, 40.00000000000000000, -45.00000000000000000 ) ) ;
#38 = MECHANICAL_DESIGN_GEOMETRIC_PRESENTATION_REPRESENTATION (  '', ( #332 ), #87 ) ;
#39 = ORIENTED_EDGE ( 'NONE', *, *, #232, .T. ) ;
#40 = CIRCLE ( 'NONE', #191, 8.999999999999994671 ) ;
#41 = ORIENTED_EDGE ( 'NONE', *, *, #278, .F. ) ;
#42 = ORIENTED_EDGE ( 'NONE', *, *, #232, .F. ) ;
#43 = CIRCLE ( 'NONE', #304, 8.999999999999987566 ) ;
#44 = VERTEX_POINT ( 'NONE', #275 ) ;
#45 = EDGE_CURVE ( 'NONE', #67, #294, #270, .T. ) ;
#46 = DIRECTION ( 'NONE',  ( -0.000000000000000000, -0.000000000000000000, -1.000000000000000000 ) ) ;
#47 = DIRECTION ( 'NONE',  ( -0.000000000000000000, -0.000000000000000000, -1.000000000000000000 ) ) ;
#48 = ADVANCED_FACE ( 'NONE', ( #367 ), #110, .T. ) ;
#49 = DIRECTION ( 'NONE',  ( -1.000000000000000000, 0.000000000000000000, 0.000000000000000000 ) ) ;
#50 = PRODUCT_DEFINITION_FORMATION_WITH_SPECIFIED_SOURCE ( 'ANY', '', #277, .NOT_KNOWN. ) ;
#51 = DIRECTION ( 'NONE',  ( -0.000000000000000000, -0.000000000000000000, -1.000000000000000000 ) ) ;
#52 = EDGE_CURVE ( 'NONE', #44, #7, #154, .T. ) ;
#53 = DIRECTION ( 'NONE',  ( -1.000000000000000000, 0.000000000000000000, 0.000000000000000000 ) ) ;
#54 = DIRECTION ( 'NONE',  ( -1.000000000000000000, 0.000000000000000000, 0.000000000000000000 ) ) ;
#55 = DIRECTION ( 'NONE',  ( -0.000000000000000000, -0.000000000000000000, -1.000000000000000000 ) ) ;
#56 = APPLICATION_CONTEXT ( 'automotive_design' ) ;
#57 = EDGE_LOOP ( 'NONE', ( #233, #242 ) ) ;
#58 = DIRECTION ( 'NONE',  ( -1.000000000000000000, 0.000000000000000000, 0.000000000000000000 ) ) ;
#59 = EDGE_LOOP ( 'NONE', ( #73, #321, #312, #256 ) ) ;
#60 = AXIS2_PLACEMENT_3D ( 'NONE', #134, #274, #254 ) ;
#61 = CARTESIAN_POINT ( 'NONE',  ( 8.999999999999987566, 40.00000000000000000, -3.000000000000002665 ) ) ;
#62 = VERTEX_POINT ( 'NONE', #273 ) ;
#63 = DIRECTION ( 'NONE',  ( 0.000000000000000000, 0.000000000000000000, 1.000000000000000000 ) ) ;
#64 = EDGE_LOOP ( 'NONE', ( #211, #222 ) ) ;
#65 = EDGE_CURVE ( 'NONE', #7, #44, #23, .T. ) ;
#66 = DIRECTION ( 'NONE',  ( -1.000000000000000000, 0.000000000000000000, 0.000000000000000000 ) ) ;
#67 = VERTEX_POINT ( 'NONE', #366 ) ;
#68 = PRESENTATION_STYLE_ASSIGNMENT (( #243 ) ) ;
#69 = ORIENTED_EDGE ( 'NONE', *, *, #169, .F. ) ;
#70 = EDGE_CURVE ( 'NONE', #298, #185, #303, .T. ) ;
#71 = DIRECTION ( 'NONE',  ( -0.000000000000000000, -0.000000000000000000, -1.000000000000000000 ) ) ;
#72 = SURFACE_STYLE_FILL_AREA ( #156 ) ;
#73 = ORIENTED_EDGE ( 'NONE', *, *, #139, .F. ) ;
#74 = CARTESIAN_POINT ( 'NONE',  ( 0.000000000000000000, 40.00000000000000000, 0.000000000000000000 ) ) ;
#75 = EDGE_CURVE ( 'NONE', #62, #124, #220, .T. ) ;
#76 = DIRECTION ( 'NONE',  ( 1.000000000000000000, 0.000000000000000000, 0.000000000000000000 ) ) ;
#77 = CARTESIAN_POINT ( 'NONE',  ( 0.000000000000000000, 40.00000000000000000, -45.00000000000000000 ) ) ;
#78 = ADVANCED_FACE ( 'NONE', ( #83 ), #246, .T. ) ;
#79 = AXIS2_PLACEMENT_3D ( 'NONE', #234, #63, #203 ) ;
#80 = CARTESIAN_POINT ( 'NONE',  ( -8.999999999999991118, 40.00000000000000000, -45.00000000000000000 ) ) ;
#81 = PRESENTATION_LAYER_ASSIGNMENT (  '', '', ( #217 ) ) ;
#82 = DIRECTION ( 'NONE',  ( -0.000000000000000000, -0.000000000000000000, -1.000000000000000000 ) ) ;
#83 = FACE_OUTER_BOUND ( 'NONE', #316, .T. ) ;
#84 = PRODUCT_DEFINITION ( 'UNKNOWN', '', #50, #166 ) ;
#85 = AXIS2_PLACEMENT_3D ( 'NONE', #230, #172, #176 ) ;
#86 = DIRECTION ( 'NONE',  ( -0.000000000000000000, -0.000000000000000000, -1.000000000000000000 ) ) ;
#87 =( GEOMETRIC_REPRESENTATION_CONTEXT ( 3 ) GLOBAL_UNCERTAINTY_ASSIGNED_CONTEXT ( ( #27 ) ) GLOBAL_UNIT_ASSIGNED_CONTEXT ( ( #93, #146, #320 ) ) REPRESENTATION_CONTEXT ( 'NONE', 'WORKASPACE' ) );
#88 = CARTESIAN_POINT ( 'NONE',  ( 0.000000000000000000, 40.00000000000000000, -45.00000000000000000 ) ) ;
#89 = DIRECTION ( 'NONE',  ( -0.000000000000000000, -0.000000000000000000, -1.000000000000000000 ) ) ;
#90 = ADVANCED_FACE ( 'NONE', ( #365 ), #334, .T. ) ;
#91 = FACE_OUTER_BOUND ( 'NONE', #4, .T. ) ;
#92 = AXIS2_PLACEMENT_3D ( 'NONE', #136, #213, #300 ) ;
#93 =( LENGTH_UNIT ( ) NAMED_UNIT ( * ) SI_UNIT ( .MILLI., .METRE. ) );
#94 = ORIENTED_EDGE ( 'NONE', *, *, #45, .T. ) ;
#95 = DIRECTION ( 'NONE',  ( -1.000000000000000000, 0.000000000000000000, 0.000000000000000000 ) ) ;
#96 = EDGE_LOOP ( 'NONE', ( #361, #149 ) ) ;
#97 = AXIS2_PLACEMENT_3D ( 'NONE', #141, #197, #58 ) ;
#98 = UNCERTAINTY_MEASURE_WITH_UNIT (LENGTH_MEASURE( 1.000000000000000082E-05 ), #237, 'distance_accuracy_value', 'NONE');
#99 = DIRECTION ( 'NONE',  ( -0.000000000000000000, -0.000000000000000000, -1.000000000000000000 ) ) ;
#100 = EDGE_LOOP ( 'NONE', ( #119, #39 ) ) ;
#101 = AXIS2_PLACEMENT_3D ( 'NONE', #194, #86, #307 ) ;
#102 =( NAMED_UNIT ( * ) SI_UNIT ( $, .STERADIAN. ) SOLID_ANGLE_UNIT ( ) );
#103 = PRESENTATION_STYLE_ASSIGNMENT (( #183 ) ) ;
#104 = ORIENTED_EDGE ( 'NONE', *, *, #360, .F. ) ;
#105 = AXIS2_PLACEMENT_3D ( 'NONE', #258, #373, #53 ) ;
#106 = VECTOR ( 'NONE', #55, 1000.000000000000000 ) ;
#107 = DIRECTION ( 'NONE',  ( -1.000000000000000000, 0.000000000000000000, 0.000000000000000000 ) ) ;
#108 = CARTESIAN_POINT ( 'NONE',  ( -8.999999999999987566, 40.00000000000000000, -3.000000000000002665 ) ) ;
#109 = VECTOR ( 'NONE', #289, 1000.000000000000000 ) ;
#110 = CYLINDRICAL_SURFACE ( 'NONE', #92, 8.999999999999991118 ) ;
#111 = AXIS2_PLACEMENT_3D ( 'NONE', #368, #160, #279 ) ;
#112 = ADVANCED_FACE ( 'NONE', ( #214 ), #249, .F. ) ;
#113 = DIRECTION ( 'NONE',  ( -1.000000000000000000, 0.000000000000000000, 0.000000000000000000 ) ) ;
#114 = CARTESIAN_POINT ( 'NONE',  ( 0.000000000000000000, 40.00000000000000000, 0.000000000000000000 ) ) ;
#115 = AXIS2_PLACEMENT_3D ( 'NONE', #28, #285, #346 ) ;
#116 = FACE_OUTER_BOUND ( 'NONE', #100, .T. ) ;
#117 = CARTESIAN_POINT ( 'NONE',  ( 0.000000000000000000, 40.00000000000000000, -45.00000000000000000 ) ) ;
#118 = CARTESIAN_POINT ( 'NONE',  ( -12.50000000000000000, 40.00000000000000000, -45.00000000000000000 ) ) ;
#119 = ORIENTED_EDGE ( 'NONE', *, *, #205, .T. ) ;
#120 = CARTESIAN_POINT ( 'NONE',  ( -8.999999999999994671, 40.00000000000000000, -41.99999999999999289 ) ) ;
#121 = ORIENTED_EDGE ( 'NONE', *, *, #184, .T. ) ;
#122 = CIRCLE ( 'NONE', #286, 8.999999999999994671 ) ;
#123 = FACE_OUTER_BOUND ( 'NONE', #178, .T. ) ;
#124 = VERTEX_POINT ( 'NONE', #108 ) ;
#125 = ORIENTED_EDGE ( 'NONE', *, *, #139, .T. ) ;
#126 = CARTESIAN_POINT ( 'NONE',  ( -6.400000000000003020, 40.00000000000000000, -45.00000000000000000 ) ) ;
#127 = ORIENTED_EDGE ( 'NONE', *, *, #205, .F. ) ;
#128 = FACE_BOUND ( 'NONE', #226, .T. ) ;
#129 = ORIENTED_EDGE ( 'NONE', *, *, #247, .F. ) ;
#130 = SURFACE_SIDE_STYLE ('',( #323 ) ) ;
#131 = ORIENTED_EDGE ( 'NONE', *, *, #374, .T. ) ;
#132 = DIRECTION ( 'NONE',  ( -0.000000000000000000, -0.000000000000000000, -1.000000000000000000 ) ) ;
#133 = CARTESIAN_POINT ( 'NONE',  ( 9.000000000000001776, 40.00000000000000000, -45.00000000000000000 ) ) ;
#134 = CARTESIAN_POINT ( 'NONE',  ( 0.000000000000000000, 40.00000000000000000, -45.00000000000000000 ) ) ;
#135 = ADVANCED_FACE ( 'NONE', ( #337 ), #216, .F. ) ;
#136 = CARTESIAN_POINT ( 'NONE',  ( 0.000000000000000000, 40.00000000000000000, -45.00000000000000000 ) ) ;
#137 = CARTESIAN_POINT ( 'NONE',  ( 0.000000000000000000, 40.00000000000000000, -45.00000000000000000 ) ) ;
#138 = VERTEX_POINT ( 'NONE', #192 ) ;
#139 = EDGE_CURVE ( 'NONE', #7, #138, #20, .T. ) ;
#140 = PLANE ( 'NONE',  #115 ) ;
#141 = CARTESIAN_POINT ( 'NONE',  ( 0.000000000000000000, 40.00000000000000000, -3.000000000000002665 ) ) ;
#142 = ORIENTED_EDGE ( 'NONE', *, *, #169, .T. ) ;
#143 = CARTESIAN_POINT ( 'NONE',  ( 0.000000000000000000, 48.99999999999999289, -41.99999999999999289 ) ) ;
#144 = EDGE_CURVE ( 'NONE', #151, #185, #186, .T. ) ;
#145 = DIRECTION ( 'NONE',  ( -0.000000000000000000, -0.000000000000000000, -1.000000000000000000 ) ) ;
#146 =( NAMED_UNIT ( * ) PLANE_ANGLE_UNIT ( ) SI_UNIT ( $, .RADIAN. ) );
#147 = ORIENTED_EDGE ( 'NONE', *, *, #70, .T. ) ;
#148 = MECHANICAL_DESIGN_GEOMETRIC_PRESENTATION_REPRESENTATION (  '', ( #217 ), #343 ) ;
#149 = ORIENTED_EDGE ( 'NONE', *, *, #65, .T. ) ;
#150 = DIRECTION ( 'NONE',  ( -0.000000000000000000, -0.000000000000000000, -1.000000000000000000 ) ) ;
#151 = VERTEX_POINT ( 'NONE', #342 ) ;
#152 = CYLINDRICAL_SURFACE ( 'NONE', #239, 12.50000000000000000 ) ;
#153 = CYLINDRICAL_SURFACE ( 'NONE', #60, 12.50000000000000000 ) ;
#154 = CIRCLE ( 'NONE', #351, 6.399999999999995914 ) ;
#155 =( NAMED_UNIT ( * ) PLANE_ANGLE_UNIT ( ) SI_UNIT ( $, .RADIAN. ) );
#156 = FILL_AREA_STYLE ('',( #269 ) ) ;
#157 = AXIS2_PLACEMENT_3D ( 'NONE', #77, #188, #49 ) ;
#158 =( NAMED_UNIT ( * ) PLANE_ANGLE_UNIT ( ) SI_UNIT ( $, .RADIAN. ) );
#159 = PRODUCT_RELATED_PRODUCT_CATEGORY ( 'part', '', ( #277 ) ) ;
#160 = DIRECTION ( 'NONE',  ( -0.000000000000000000, -0.000000000000000000, -1.000000000000000000 ) ) ;
#161 = AXIS2_PLACEMENT_3D ( 'NONE', #88, #227, #348 ) ;
#162 = PRODUCT_CONTEXT ( 'NONE', #363, 'mechanical' ) ;
#163 =( LENGTH_UNIT ( ) NAMED_UNIT ( * ) SI_UNIT ( .MILLI., .METRE. ) );
#164 = DIRECTION ( 'NONE',  ( -1.000000000000000000, 0.000000000000000000, 0.000000000000000000 ) ) ;
#165 = FACE_OUTER_BOUND ( 'NONE', #179, .T. ) ;
#166 = PRODUCT_DEFINITION_CONTEXT ( 'detailed design', #56, 'design' ) ;
#167 = DIRECTION ( 'NONE',  ( -1.000000000000000000, 0.000000000000000000, 0.000000000000000000 ) ) ;
#168 = VECTOR ( 'NONE', #46, 1000.000000000000000 ) ;
#169 = EDGE_CURVE ( 'NONE', #294, #238, #224, .T. ) ;
#170 = DIRECTION ( 'NONE',  ( -1.000000000000000000, 0.000000000000000000, 0.000000000000000000 ) ) ;
#171 = ORIENTED_EDGE ( 'NONE', *, *, #144, .F. ) ;
#172 = DIRECTION ( 'NONE',  ( 0.000000000000000000, 0.000000000000000000, 1.000000000000000000 ) ) ;
#173 = CARTESIAN_POINT ( 'NONE',  ( 0.000000000000000000, 40.00000000000000000, -3.000000000000002665 ) ) ;
#174 = ORIENTED_EDGE ( 'NONE', *, *, #9, .T. ) ;
#175 = COLOUR_RGB ( '',0.7529411764705882248, 0.7529411764705882248, 0.7529411764705882248 ) ;
#176 = DIRECTION ( 'NONE',  ( 1.000000000000000000, 0.000000000000000000, -0.000000000000000000 ) ) ;
#177 = DIRECTION ( 'NONE',  ( -1.000000000000000000, 0.000000000000000000, 0.000000000000000000 ) ) ;
#178 = EDGE_LOOP ( 'NONE', ( #129, #41 ) ) ;
#179 = EDGE_LOOP ( 'NONE', ( #204, #244, #12, #290 ) ) ;
#180 = CARTESIAN_POINT ( 'NONE',  ( 0.000000000000000000, 40.00000000000000000, -3.000000000000002665 ) ) ;
#181 = ORIENTED_EDGE ( 'NONE', *, *, #65, .F. ) ;
#182 = DIRECTION ( 'NONE',  ( -0.000000000000000000, -0.000000000000000000, -1.000000000000000000 ) ) ;
#183 = SURFACE_STYLE_USAGE ( .BOTH. , #14 ) ;
#184 = EDGE_CURVE ( 'NONE', #138, #319, #313, .T. ) ;
#185 = VERTEX_POINT ( 'NONE', #310 ) ;
#186 = CIRCLE ( 'NONE', #207, 12.50000000000000355 ) ;
#187 = CARTESIAN_POINT ( 'NONE',  ( 12.50000000000000000, 40.00000000000000000, -45.00000000000000000 ) ) ;
#188 = DIRECTION ( 'NONE',  ( -0.000000000000000000, -0.000000000000000000, -1.000000000000000000 ) ) ;
#189 = EDGE_CURVE ( 'NONE', #62, #30, #40, .T. ) ;
#190 = CARTESIAN_POINT ( 'NONE',  ( 0.000000000000000000, 40.00000000000000000, -45.00000000000000000 ) ) ;
#191 = AXIS2_PLACEMENT_3D ( 'NONE', #114, #89, #370 ) ;
#192 = CARTESIAN_POINT ( 'NONE',  ( 6.400000000000002132, 40.00000000000000000, -45.00000000000000000 ) ) ;
#193 = FACE_OUTER_BOUND ( 'NONE', #261, .T. ) ;
#194 = CARTESIAN_POINT ( 'NONE',  ( 0.000000000000000000, 40.00000000000000000, -45.00000000000000000 ) ) ;
#195 = AXIS2_PLACEMENT_3D ( 'NONE', #340, #82, #19 ) ;
#196 = FACE_OUTER_BOUND ( 'NONE', #57, .T. ) ;
#197 = DIRECTION ( 'NONE',  ( -0.000000000000000000, -0.000000000000000000, -1.000000000000000000 ) ) ;
#198 = DIRECTION ( 'NONE',  ( -0.000000000000000000, -0.000000000000000000, -1.000000000000000000 ) ) ;
#199 = ORIENTED_EDGE ( 'NONE', *, *, #250, .T. ) ;
#200 = ORIENTED_EDGE ( 'NONE', *, *, #349, .T. ) ;
#201 = EDGE_CURVE ( 'NONE', #185, #151, #248, .T. ) ;
#202 = CIRCLE ( 'NONE', #97, 12.49999999999999645 ) ;
#203 = DIRECTION ( 'NONE',  ( 1.000000000000000000, 0.000000000000000000, -0.000000000000000000 ) ) ;
#204 = ORIENTED_EDGE ( 'NONE', *, *, #70, .F. ) ;
#205 = EDGE_CURVE ( 'NONE', #238, #36, #356, .T. ) ;
#206 = APPLICATION_PROTOCOL_DEFINITION ( 'draft international standard', 'automotive_design', 1998, #363 ) ;
#207 = AXIS2_PLACEMENT_3D ( 'NONE', #34, #221, #317 ) ;
#208 = CARTESIAN_POINT ( 'NONE',  ( 6.399999999999995914, 40.00000000000000000, 0.000000000000000000 ) ) ;
#209 = ADVANCED_FACE ( 'NONE', ( #91, #283 ), #25, .T. ) ;
#210 = FILL_AREA_STYLE_COLOUR ( '', #282 ) ;
#211 = ORIENTED_EDGE ( 'NONE', *, *, #240, .F. ) ;
#212 = VECTOR ( 'NONE', #150, 1000.000000000000000 ) ;
#213 = DIRECTION ( 'NONE',  ( -0.000000000000000000, -0.000000000000000000, -1.000000000000000000 ) ) ;
#214 = FACE_OUTER_BOUND ( 'NONE', #59, .T. ) ;
#215 = ADVANCED_FACE ( 'NONE', ( #255, #196 ), #260, .T. ) ;
#216 = CYLINDRICAL_SURFACE ( 'NONE', #333, 6.399999999999999467 ) ;
#217 = STYLED_ITEM ( 'NONE', ( #103 ), #11 ) ;
#218 = DIRECTION ( 'NONE',  ( -0.000000000000000000, -0.000000000000000000, -1.000000000000000000 ) ) ;
#219 = ADVANCED_FACE ( 'NONE', ( #116, #315 ), #140, .T. ) ;
#220 = LINE ( 'NONE', #80, #5 ) ;
#221 = DIRECTION ( 'NONE',  ( -0.000000000000000000, -0.000000000000000000, -1.000000000000000000 ) ) ;
#222 = ORIENTED_EDGE ( 'NONE', *, *, #184, .F. ) ;
#223 = AXIS2_PLACEMENT_3D ( 'NONE', #143, #32, #170 ) ;
#224 = LINE ( 'NONE', #287, #106 ) ;
#225 = AXIS2_PLACEMENT_3D ( 'NONE', #17, #132, #107 ) ;
#226 = EDGE_LOOP ( 'NONE', ( #26, #199 ) ) ;
#227 = DIRECTION ( 'NONE',  ( -0.000000000000000000, -0.000000000000000000, -1.000000000000000000 ) ) ;
#228 = DIRECTION ( 'NONE',  ( -0.000000000000000000, -0.000000000000000000, -1.000000000000000000 ) ) ;
#229 = AXIS2_PLACEMENT_3D ( 'NONE', #117, #198, #257 ) ;
#230 = CARTESIAN_POINT ( 'NONE',  ( 0.000000000000000000, 48.99999999999999289, -3.673940397442100174E-17 ) ) ;
#231 = CLOSED_SHELL ( 'NONE', ( #301, #306, #78, #135, #215, #112, #219, #90, #209, #29, #314, #48 ) ) ;
#232 = EDGE_CURVE ( 'NONE', #36, #238, #372, .T. ) ;
#233 = ORIENTED_EDGE ( 'NONE', *, *, #189, .F. ) ;
#234 = CARTESIAN_POINT ( 'NONE',  ( 0.000000000000000000, 52.50000000000000000, -3.000000000000000000 ) ) ;
#235 = ORIENTED_EDGE ( 'NONE', *, *, #75, .T. ) ;
#236 = AXIS2_PLACEMENT_3D ( 'NONE', #350, #228, #54 ) ;
#237 =( LENGTH_UNIT ( ) NAMED_UNIT ( * ) SI_UNIT ( .MILLI., .METRE. ) );
#238 = VERTEX_POINT ( 'NONE', #371 ) ;
#239 = AXIS2_PLACEMENT_3D ( 'NONE', #327, #99, #95 ) ;
#240 = EDGE_CURVE ( 'NONE', #319, #138, #322, .T. ) ;
#241 = DIRECTION ( 'NONE',  ( -0.000000000000000000, -0.000000000000000000, -1.000000000000000000 ) ) ;
#242 = ORIENTED_EDGE ( 'NONE', *, *, #364, .F. ) ;
#243 = SURFACE_STYLE_USAGE ( .BOTH. , #130 ) ;
#244 = ORIENTED_EDGE ( 'NONE', *, *, #278, .T. ) ;
#245 = DIRECTION ( 'NONE',  ( -0.000000000000000000, -0.000000000000000000, -1.000000000000000000 ) ) ;
#246 = CYLINDRICAL_SURFACE ( 'NONE', #195, 8.999999999999998224 ) ;
#247 = EDGE_CURVE ( 'NONE', #284, #298, #202, .T. ) ;
#248 = CIRCLE ( 'NONE', #105, 12.50000000000000355 ) ;
#249 = CYLINDRICAL_SURFACE ( 'NONE', #157, 6.399999999999999467 ) ;
#250 = EDGE_CURVE ( 'NONE', #272, #124, #43, .T. ) ;
#251 = CARTESIAN_POINT ( 'NONE',  ( 6.399999999999999467, 40.00000000000000000, -45.00000000000000000 ) ) ;
#252 = ADVANCED_BREP_SHAPE_REPRESENTATION ( 'GIN-EM08', ( #11, #345 ), #308 ) ;
#253 = EDGE_CURVE ( 'NONE', #284, #151, #1, .T. ) ;
#254 = DIRECTION ( 'NONE',  ( -1.000000000000000000, 0.000000000000000000, 0.000000000000000000 ) ) ;
#255 = FACE_BOUND ( 'NONE', #96, .T. ) ;
#256 = ORIENTED_EDGE ( 'NONE', *, *, #240, .T. ) ;
#257 = DIRECTION ( 'NONE',  ( -1.000000000000000000, 0.000000000000000000, 0.000000000000000000 ) ) ;
#258 = CARTESIAN_POINT ( 'NONE',  ( 0.000000000000000000, 40.00000000000000000, -41.99999999999999289 ) ) ;
#259 = ORIENTED_EDGE ( 'NONE', *, *, #247, .T. ) ;
#260 = PLANE ( 'NONE',  #85 ) ;
#261 = EDGE_LOOP ( 'NONE', ( #297, #131, #266, #357 ) ) ;
#262 = DIRECTION ( 'NONE',  ( -1.000000000000000000, 0.000000000000000000, 0.000000000000000000 ) ) ;
#263 = AXIS2_PLACEMENT_3D ( 'NONE', #318, #145, #262 ) ;
#264 = DIRECTION ( 'NONE',  ( -1.000000000000000000, 0.000000000000000000, 0.000000000000000000 ) ) ;
#265 = ORIENTED_EDGE ( 'NONE', *, *, #374, .F. ) ;
#266 = ORIENTED_EDGE ( 'NONE', *, *, #369, .F. ) ;
#267 = LINE ( 'NONE', #292, #212 ) ;
#268 = ORIENTED_EDGE ( 'NONE', *, *, #45, .F. ) ;
#269 = FILL_AREA_STYLE_COLOUR ( '', #175 ) ;
#270 = CIRCLE ( 'NONE', #111, 8.999999999999994671 ) ;
#271 = CARTESIAN_POINT ( 'NONE',  ( 0.000000000000000000, 40.00000000000000000, 0.000000000000000000 ) ) ;
#272 = VERTEX_POINT ( 'NONE', #61 ) ;
#273 = CARTESIAN_POINT ( 'NONE',  ( -8.999999999999994671, 40.00000000000000000, 0.000000000000000000 ) ) ;
#274 = DIRECTION ( 'NONE',  ( -0.000000000000000000, -0.000000000000000000, -1.000000000000000000 ) ) ;
#275 = CARTESIAN_POINT ( 'NONE',  ( -6.399999999999995914, 40.00000000000000000, 0.000000000000000000 ) ) ;
#276 = DIRECTION ( 'NONE',  ( -0.000000000000000000, -0.000000000000000000, -1.000000000000000000 ) ) ;
#277 = PRODUCT ( 'GIN-EM08', 'GIN-EM08', '', ( #162 ) ) ;
#278 = EDGE_CURVE ( 'NONE', #298, #284, #328, .T. ) ;
#279 = DIRECTION ( 'NONE',  ( -1.000000000000000000, 0.000000000000000000, 0.000000000000000000 ) ) ;
#280 = AXIS2_PLACEMENT_3D ( 'NONE', #13, #293, #66 ) ;
#281 = CYLINDRICAL_SURFACE ( 'NONE', #305, 8.999999999999991118 ) ;
#282 = COLOUR_RGB ( '',0.7529411764705882248, 0.7529411764705882248, 0.7529411764705882248 ) ;
#283 = FACE_BOUND ( 'NONE', #10, .T. ) ;
#284 = VERTEX_POINT ( 'NONE', #3 ) ;
#285 = DIRECTION ( 'NONE',  ( -0.000000000000000000, 0.000000000000000000, -1.000000000000000000 ) ) ;
#286 = AXIS2_PLACEMENT_3D ( 'NONE', #271, #325, #264 ) ;
#287 = CARTESIAN_POINT ( 'NONE',  ( -8.999999999999998224, 40.00000000000000000, -45.00000000000000000 ) ) ;
#288 = EDGE_LOOP ( 'NONE', ( #33, #94, #142, #42 ) ) ;
#289 = DIRECTION ( 'NONE',  ( -0.000000000000000000, -0.000000000000000000, -1.000000000000000000 ) ) ;
#290 = ORIENTED_EDGE ( 'NONE', *, *, #201, .F. ) ;
#291 = UNCERTAINTY_MEASURE_WITH_UNIT (LENGTH_MEASURE( 1.000000000000000082E-05 ), #163, 'distance_accuracy_value', 'NONE');
#292 = CARTESIAN_POINT ( 'NONE',  ( -6.399999999999999467, 40.00000000000000000, -45.00000000000000000 ) ) ;
#293 = DIRECTION ( 'NONE',  ( -0.000000000000000000, -0.000000000000000000, -1.000000000000000000 ) ) ;
#294 = VERTEX_POINT ( 'NONE', #120 ) ;
#295 = EDGE_LOOP ( 'NONE', ( #259, #147, #171, #35 ) ) ;
#296 = PLANE ( 'NONE',  #79 ) ;
#297 = ORIENTED_EDGE ( 'NONE', *, *, #189, .T. ) ;
#298 = VERTEX_POINT ( 'NONE', #352 ) ;
#299 = VECTOR ( 'NONE', #218, 1000.000000000000000 ) ;
#300 = DIRECTION ( 'NONE',  ( -1.000000000000000000, 0.000000000000000000, 0.000000000000000000 ) ) ;
#301 = ADVANCED_FACE ( 'NONE', ( #193 ), #281, .T. ) ;
#302 = CARTESIAN_POINT ( 'NONE',  ( 0.000000000000000000, 0.000000000000000000, 0.000000000000000000 ) ) ;
#303 = LINE ( 'NONE', #187, #168 ) ;
#304 = AXIS2_PLACEMENT_3D ( 'NONE', #173, #24, #167 ) ;
#305 = AXIS2_PLACEMENT_3D ( 'NONE', #137, #241, #177 ) ;
#306 = ADVANCED_FACE ( 'NONE', ( #353 ), #152, .T. ) ;
#307 = DIRECTION ( 'NONE',  ( -1.000000000000000000, 0.000000000000000000, 0.000000000000000000 ) ) ;
#308 =( GEOMETRIC_REPRESENTATION_CONTEXT ( 3 ) GLOBAL_UNCERTAINTY_ASSIGNED_CONTEXT ( ( #98 ) ) GLOBAL_UNIT_ASSIGNED_CONTEXT ( ( #237, #155, #102 ) ) REPRESENTATION_CONTEXT ( 'NONE', 'WORKASPACE' ) );
#309 = VECTOR ( 'NONE', #6, 1000.000000000000000 ) ;
#310 = CARTESIAN_POINT ( 'NONE',  ( 12.50000000000000355, 40.00000000000000000, -41.99999999999999289 ) ) ;
#311 = PRESENTATION_LAYER_ASSIGNMENT (  '', '', ( #332 ) ) ;
#312 = ORIENTED_EDGE ( 'NONE', *, *, #360, .T. ) ;
#313 = CIRCLE ( 'NONE', #101, 6.400000000000003020 ) ;
#314 = ADVANCED_FACE ( 'NONE', ( #128, #123 ), #296, .T. ) ;
#315 = FACE_BOUND ( 'NONE', #64, .T. ) ;
#316 = EDGE_LOOP ( 'NONE', ( #200, #174, #127, #69 ) ) ;
#317 = DIRECTION ( 'NONE',  ( -1.000000000000000000, 0.000000000000000000, 0.000000000000000000 ) ) ;
#318 = CARTESIAN_POINT ( 'NONE',  ( 0.000000000000000000, 40.00000000000000000, -3.000000000000002665 ) ) ;
#319 = VERTEX_POINT ( 'NONE', #126 ) ;
#320 =( NAMED_UNIT ( * ) SI_UNIT ( $, .STERADIAN. ) SOLID_ANGLE_UNIT ( ) );
#321 = ORIENTED_EDGE ( 'NONE', *, *, #52, .F. ) ;
#322 = CIRCLE ( 'NONE', #161, 6.400000000000003020 ) ;
#323 = SURFACE_STYLE_FILL_AREA ( #15 ) ;
#324 = ORIENTED_EDGE ( 'NONE', *, *, #201, .T. ) ;
#325 = DIRECTION ( 'NONE',  ( -0.000000000000000000, -0.000000000000000000, -1.000000000000000000 ) ) ;
#326 = CARTESIAN_POINT ( 'NONE',  ( 8.999999999999998224, 40.00000000000000000, -45.00000000000000000 ) ) ;
#327 = CARTESIAN_POINT ( 'NONE',  ( 0.000000000000000000, 40.00000000000000000, -45.00000000000000000 ) ) ;
#328 = CIRCLE ( 'NONE', #263, 12.49999999999999645 ) ;
#329 = LINE ( 'NONE', #326, #339 ) ;
#330 = AXIS2_PLACEMENT_3D ( 'NONE', #180, #182, #8 ) ;
#331 = AXIS2_PLACEMENT_3D ( 'NONE', #74, #47, #335 ) ;
#332 = STYLED_ITEM ( 'NONE', ( #68 ), #252 ) ;
#333 = AXIS2_PLACEMENT_3D ( 'NONE', #190, #51, #164 ) ;
#334 = CYLINDRICAL_SURFACE ( 'NONE', #225, 8.999999999999998224 ) ;
#335 = DIRECTION ( 'NONE',  ( -1.000000000000000000, 0.000000000000000000, 0.000000000000000000 ) ) ;
#336 = DIRECTION ( 'NONE',  ( 0.000000000000000000, 0.000000000000000000, 1.000000000000000000 ) ) ;
#337 = FACE_OUTER_BOUND ( 'NONE', #359, .T. ) ;
#338 = CIRCLE ( 'NONE', #330, 8.999999999999987566 ) ;
#339 = VECTOR ( 'NONE', #71, 1000.000000000000000 ) ;
#340 = CARTESIAN_POINT ( 'NONE',  ( 0.000000000000000000, 40.00000000000000000, -45.00000000000000000 ) ) ;
#341 = CARTESIAN_POINT ( 'NONE',  ( 0.000000000000000000, 40.00000000000000000, 0.000000000000000000 ) ) ;
#342 = CARTESIAN_POINT ( 'NONE',  ( -12.50000000000000355, 40.00000000000000000, -41.99999999999999289 ) ) ;
#343 =( GEOMETRIC_REPRESENTATION_CONTEXT ( 3 ) GLOBAL_UNCERTAINTY_ASSIGNED_CONTEXT ( ( #291 ) ) GLOBAL_UNIT_ASSIGNED_CONTEXT ( ( #163, #158, #22 ) ) REPRESENTATION_CONTEXT ( 'NONE', 'WORKASPACE' ) );
#344 = PRODUCT_DEFINITION_SHAPE ( 'NONE', 'NONE',  #84 ) ;
#345 = AXIS2_PLACEMENT_3D ( 'NONE', #302, #336, #76 ) ;
#346 = DIRECTION ( 'NONE',  ( -1.000000000000000000, 0.000000000000000000, 0.000000000000000000 ) ) ;
#347 = ORIENTED_EDGE ( 'NONE', *, *, #349, .F. ) ;
#348 = DIRECTION ( 'NONE',  ( -1.000000000000000000, 0.000000000000000000, 0.000000000000000000 ) ) ;
#349 = EDGE_CURVE ( 'NONE', #294, #67, #31, .T. ) ;
#350 = CARTESIAN_POINT ( 'NONE',  ( 0.000000000000000000, 40.00000000000000000, -45.00000000000000000 ) ) ;
#351 = AXIS2_PLACEMENT_3D ( 'NONE', #341, #245, #113 ) ;
#352 = CARTESIAN_POINT ( 'NONE',  ( 12.49999999999999645, 40.00000000000000000, -3.000000000000002665 ) ) ;
#353 = FACE_OUTER_BOUND ( 'NONE', #295, .T. ) ;
#354 = ORIENTED_EDGE ( 'NONE', *, *, #144, .T. ) ;
#355 = ORIENTED_EDGE ( 'NONE', *, *, #364, .T. ) ;
#356 = CIRCLE ( 'NONE', #236, 9.000000000000001776 ) ;
#357 = ORIENTED_EDGE ( 'NONE', *, *, #75, .F. ) ;
#358 = LINE ( 'NONE', #37, #309 ) ;
#359 = EDGE_LOOP ( 'NONE', ( #181, #125, #121, #104 ) ) ;
#360 = EDGE_CURVE ( 'NONE', #44, #319, #267, .T. ) ;
#361 = ORIENTED_EDGE ( 'NONE', *, *, #52, .T. ) ;
#362 = SHAPE_DEFINITION_REPRESENTATION ( #344, #252 ) ;
#363 = APPLICATION_CONTEXT ( 'automotive_design' ) ;
#364 = EDGE_CURVE ( 'NONE', #30, #62, #122, .T. ) ;
#365 = FACE_OUTER_BOUND ( 'NONE', #288, .T. ) ;
#366 = CARTESIAN_POINT ( 'NONE',  ( 8.999999999999994671, 40.00000000000000000, -41.99999999999999289 ) ) ;
#367 = FACE_OUTER_BOUND ( 'NONE', #16, .T. ) ;
#368 = CARTESIAN_POINT ( 'NONE',  ( 0.000000000000000000, 40.00000000000000000, -41.99999999999999289 ) ) ;
#369 = EDGE_CURVE ( 'NONE', #124, #272, #338, .T. ) ;
#370 = DIRECTION ( 'NONE',  ( -1.000000000000000000, 0.000000000000000000, 0.000000000000000000 ) ) ;
#371 = CARTESIAN_POINT ( 'NONE',  ( -9.000000000000001776, 40.00000000000000000, -45.00000000000000000 ) ) ;
#372 = CIRCLE ( 'NONE', #229, 9.000000000000001776 ) ;
#373 = DIRECTION ( 'NONE',  ( -0.000000000000000000, -0.000000000000000000, -1.000000000000000000 ) ) ;
#374 = EDGE_CURVE ( 'NONE', #30, #272, #358, .T. ) ;
ENDSEC;
END-ISO-10303-21;
