ISO-10303-21;
HEADER;
FILE_DESCRIPTION (( 'STEP AP214' ),
    '1' );
FILE_NAME ('GIN-RAR-USN01.STEP',
    '2022-01-19T14:13:27',
    ( '' ),
    ( '' ),
    'SwSTEP 2.0',
    'SolidWorks 2021',
    '' );
FILE_SCHEMA (( 'AUTOMOTIVE_DESIGN' ));
ENDSEC;

DATA;
#1 = VERTEX_POINT ( 'NONE', #224 ) ;
#2 = MANIFOLD_SOLID_BREP ( 'Chanfrein1', #126 ) ;
#3 = ADVANCED_FACE ( 'NONE', ( #30 ), #175, .F. ) ;
#4 = SURFACE_SIDE_STYLE ('',( #245 ) ) ;
#5 = DIRECTION ( 'NONE',  ( -0.2756373558170043259, 0.000000000000000000, 0.9612616959383174509 ) ) ;
#6 = PRODUCT_DEFINITION_FORMATION_WITH_SPECIFIED_SOURCE ( 'ANY', '', #128, .NOT_KNOWN. ) ;
#7 = AXIS2_PLACEMENT_3D ( 'NONE', #205, #94, #273 ) ;
#8 = DIRECTION ( 'NONE',  ( 0.9612616959383196713, 0.000000000000000000, 0.2756373558169963878 ) ) ;
#9 = PRODUCT_DEFINITION ( 'UNKNOWN', '', #6, #247 ) ;
#10 = DIRECTION ( 'NONE',  ( -0.9612616959383173398, -0.000000000000000000, -0.2756373558170044924 ) ) ;
#11 = CARTESIAN_POINT ( 'NONE',  ( 176.6318366286657806, 0.000000000000000000, -360.1062849804517896 ) ) ;
#12 = DIRECTION ( 'NONE',  ( -0.9612616959383174509, -0.000000000000000000, -0.2756373558170045479 ) ) ;
#13 = CARTESIAN_POINT ( 'NONE',  ( 176.6318366286657806, 0.000000000000000000, -360.1062849804517896 ) ) ;
#14 = PRESENTATION_STYLE_ASSIGNMENT (( #261 ) ) ;
#15 = ORIENTED_EDGE ( 'NONE', *, *, #220, .T. ) ;
#16 = AXIS2_PLACEMENT_3D ( 'NONE', #252, #90, #276 ) ;
#17 = SURFACE_STYLE_FILL_AREA ( #233 ) ;
#18 = ORIENTED_EDGE ( 'NONE', *, *, #229, .F. ) ;
#19 = EDGE_CURVE ( 'NONE', #1, #77, #291, .T. ) ;
#20 = DIRECTION ( 'NONE',  ( 0.2756373558169976645, 0.000000000000000000, -0.9612616959383193382 ) ) ;
#21 = ORIENTED_EDGE ( 'NONE', *, *, #189, .T. ) ;
#22 = CARTESIAN_POINT ( 'NONE',  ( 136.6827085812455209, 1.469576158976827694E-15, -384.0451063434768457 ) ) ;
#23 = ORIENTED_EDGE ( 'NONE', *, *, #312, .T. ) ;
#24 = CONICAL_SURFACE ( 'NONE', #266, 12.00000000000001599, 0.7853981633974849164 ) ;
#25 =( LENGTH_UNIT ( ) NAMED_UNIT ( * ) SI_UNIT ( .MILLI., .METRE. ) );
#26 = AXIS2_PLACEMENT_3D ( 'NONE', #163, #159, #92 ) ;
#27 = ORIENTED_EDGE ( 'NONE', *, *, #181, .T. ) ;
#28 = CARTESIAN_POINT ( 'NONE',  ( 137.3683329213668003, 1.347111479062089785E-15, -382.8082072917214873 ) ) ;
#29 = PRODUCT_CONTEXT ( 'NONE', #200, 'mechanical' ) ;
#30 = FACE_OUTER_BOUND ( 'NONE', #216, .T. ) ;
#31 = CARTESIAN_POINT ( 'NONE',  ( 128.9648626183694660, 0.000000000000000000, -357.1297788572038598 ) ) ;
#32 = AXIS2_PLACEMENT_3D ( 'NONE', #255, #278, #138 ) ;
#33 = APPLICATION_PROTOCOL_DEFINITION ( 'draft international standard', 'automotive_design', 1998, #142 ) ;
#34 = DIRECTION ( 'NONE',  ( -0.9612616959383173398, -0.000000000000000000, -0.2756373558170044924 ) ) ;
#35 = AXIS2_PLACEMENT_3D ( 'NONE', #195, #238, #213 ) ;
#36 = CARTESIAN_POINT ( 'NONE',  ( 175.6705749327275043, 0.000000000000000000, -360.3819223362687580 ) ) ;
#37 = DIRECTION ( 'NONE',  ( 0.2756373558170031046, 0.000000000000000000, -0.9612616959383177839 ) ) ;
#38 = LINE ( 'NONE', #134, #60 ) ;
#39 = AXIS2_PLACEMENT_3D ( 'NONE', #99, #243, #264 ) ;
#40 = CIRCLE ( 'NONE', #32, 11.99999999999987921 ) ;
#41 = ADVANCED_FACE ( 'NONE', ( #153 ), #131, .T. ) ;
#42 = CARTESIAN_POINT ( 'NONE',  ( 137.7852580045136222, 1.959434878635768681E-15, -387.8901531272300645 ) ) ;
#43 = DIRECTION ( 'NONE',  ( 0.2756373558170031046, 0.000000000000000000, -0.9612616959383177839 ) ) ;
#44 =( NAMED_UNIT ( * ) SI_UNIT ( $, .STERADIAN. ) SOLID_ANGLE_UNIT ( ) );
#45 = EDGE_LOOP ( 'NONE', ( #284, #192, #27, #225 ) ) ;
#46 = CARTESIAN_POINT ( 'NONE',  ( 172.6385640187405386, 0.000000000000000000, -349.8080436809472644 ) ) ;
#47 = VERTEX_POINT ( 'NONE', #31 ) ;
#48 = VERTEX_POINT ( 'NONE', #28 ) ;
#49 = ORIENTED_EDGE ( 'NONE', *, *, #236, .F. ) ;
#50 = ADVANCED_FACE ( 'NONE', ( #88, #129 ), #270, .F. ) ;
#51 = AXIS2_PLACEMENT_3D ( 'NONE', #178, #53, #294 ) ;
#52 = FILL_AREA_STYLE_COLOUR ( '', #292 ) ;
#53 = DIRECTION ( 'NONE',  ( -0.9612616959383196713, -0.000000000000000000, -0.2756373558169963878 ) ) ;
#54 = APPLICATION_PROTOCOL_DEFINITION ( 'draft international standard', 'automotive_design', 1998, #200 ) ;
#55 = CARTESIAN_POINT ( 'NONE',  ( 133.3750603114415583, 0.000000000000000000, -372.5099659922169621 ) ) ;
#56 = EDGE_CURVE ( 'NONE', #146, #1, #198, .T. ) ;
#57 = COLOUR_RGB ( '',0.000000000000000000, 0.5450980392156862253, 0.8117647058823529438 ) ;
#58 = CIRCLE ( 'NONE', #96, 10.99999999999998757 ) ;
#59 = EDGE_LOOP ( 'NONE', ( #75, #251 ) ) ;
#60 = VECTOR ( 'NONE', #12, 999.9999999999998863 ) ;
#61 = DIRECTION ( 'NONE',  ( -0.9612616959383174509, -0.000000000000000000, -0.2756373558170045479 ) ) ;
#62 = ADVANCED_FACE ( 'NONE', ( #260 ), #279, .T. ) ;
#63 = DIRECTION ( 'NONE',  ( 0.2756373558170045479, 0.000000000000000000, -0.9612616959383174509 ) ) ;
#64 = CARTESIAN_POINT ( 'NONE',  ( 172.6385640187405386, 1.347111479062089785E-15, -349.8080436809472644 ) ) ;
#65 = CONICAL_SURFACE ( 'NONE', #235, 10.99999999999998757, 0.7853981633974613796 ) ;
#66 = FACE_OUTER_BOUND ( 'NONE', #174, .T. ) ;
#67 = FACE_OUTER_BOUND ( 'NONE', #97, .T. ) ;
#68 = CARTESIAN_POINT ( 'NONE',  ( 178.7025858467144701, 0.000000000000000000, -370.9558009915902517 ) ) ;
#69 = AXIS2_PLACEMENT_3D ( 'NONE', #103, #121, #20 ) ;
#70 = SURFACE_SIDE_STYLE ('',( #17 ) ) ;
#71 = UNCERTAINTY_MEASURE_WITH_UNIT (LENGTH_MEASURE( 1.000000000000000082E-05 ), #108, 'distance_accuracy_value', 'NONE');
#72 = EDGE_CURVE ( 'NONE', #263, #268, #156, .T. ) ;
#73 = ORIENTED_EDGE ( 'NONE', *, *, #123, .T. ) ;
#74 = DIRECTION ( 'NONE',  ( 0.2756373558169976645, 0.000000000000000000, -0.9612616959383193382 ) ) ;
#75 = ORIENTED_EDGE ( 'NONE', *, *, #189, .F. ) ;
#76 = CARTESIAN_POINT ( 'NONE',  ( 134.3363220073798345, 0.000000000000000000, -372.2343286363999937 ) ) ;
#77 = VERTEX_POINT ( 'NONE', #42 ) ;
#78 = DIRECTION ( 'NONE',  ( 0.9612616959383173398, 0.000000000000000000, 0.2756373558170044924 ) ) ;
#79 = EDGE_CURVE ( 'NONE', #263, #303, #203, .T. ) ;
#80 =( NAMED_UNIT ( * ) PLANE_ANGLE_UNIT ( ) SI_UNIT ( $, .RADIAN. ) );
#81 = AXIS2_PLACEMENT_3D ( 'NONE', #158, #84, #5 ) ;
#82 = AXIS2_PLACEMENT_3D ( 'NONE', #299, #231, #164 ) ;
#83 = EDGE_CURVE ( 'NONE', #268, #263, #58, .T. ) ;
#84 = DIRECTION ( 'NONE',  ( -0.9612616959383173398, -0.000000000000000000, -0.2756373558170044924 ) ) ;
#85 = ORIENTED_EDGE ( 'NONE', *, *, #56, .T. ) ;
#86 = STYLED_ITEM ( 'NONE', ( #14 ), #281 ) ;
#87 = CIRCLE ( 'NONE', #7, 16.00000000000002487 ) ;
#88 = FACE_BOUND ( 'NONE', #237, .T. ) ;
#89 = DIRECTION ( 'NONE',  ( 0.9612616959383173398, 0.000000000000000000, 0.2756373558170044924 ) ) ;
#90 = DIRECTION ( 'NONE',  ( 0.9612616959383174509, 0.000000000000000000, 0.2756373558170045479 ) ) ;
#91 = AXIS2_PLACEMENT_3D ( 'NONE', #76, #240, #124 ) ;
#92 = DIRECTION ( 'NONE',  ( -0.2756373558170046589, 0.000000000000000000, 0.9612616959383171178 ) ) ;
#93 = DIRECTION ( 'NONE',  ( -0.2756373558170046589, 0.000000000000000000, 0.9612616959383171178 ) ) ;
#94 = DIRECTION ( 'NONE',  ( 0.9612616959383173398, 0.000000000000000000, 0.2756373558170044924 ) ) ;
#95 = AXIS2_PLACEMENT_3D ( 'NONE', #179, #311, #269 ) ;
#96 = AXIS2_PLACEMENT_3D ( 'NONE', #137, #8, #232 ) ;
#97 = EDGE_LOOP ( 'NONE', ( #155, #282, #180, #244 ) ) ;
#98 = UNCERTAINTY_MEASURE_WITH_UNIT (LENGTH_MEASURE( 1.000000000000000082E-05 ), #120, 'distance_accuracy_value', 'NONE');
#99 = CARTESIAN_POINT ( 'NONE',  ( 176.6318366286657806, 0.000000000000000000, -360.1062849804517896 ) ) ;
#100 = ORIENTED_EDGE ( 'NONE', *, *, #56, .F. ) ;
#101 = DIRECTION ( 'NONE',  ( -0.4848096202463075266, 8.659560562355249635E-17, -0.8746197071394120615 ) ) ;
#102 = CIRCLE ( 'NONE', #133, 12.00000000000009948 ) ;
#103 = CARTESIAN_POINT ( 'NONE',  ( 175.6705749327275043, 0.000000000000000000, -360.3819223362687580 ) ) ;
#104 = ORIENTED_EDGE ( 'NONE', *, *, #230, .T. ) ;
#105 = ORIENTED_EDGE ( 'NONE', *, *, #300, .T. ) ;
#106 = SURFACE_STYLE_USAGE ( .BOTH. , #4 ) ;
#107 = ORIENTED_EDGE ( 'NONE', *, *, #72, .T. ) ;
#108 =( LENGTH_UNIT ( ) NAMED_UNIT ( * ) SI_UNIT ( .MILLI., .METRE. ) );
#109 = DIRECTION ( 'NONE',  ( 0.2756373558170043259, 0.000000000000000000, -0.9612616959383174509 ) ) ;
#110 = PRODUCT_DEFINITION_SHAPE ( 'NONE', 'NONE',  #9 ) ;
#111 = FACE_BOUND ( 'NONE', #152, .T. ) ;
#112 = ADVANCED_FACE ( 'NONE', ( #274 ), #24, .F. ) ;
#113 = CARTESIAN_POINT ( 'NONE',  ( 172.2216389355936883, 0.000000000000000000, -344.7260978454386873 ) ) ;
#114 = CARTESIAN_POINT ( 'NONE',  ( 130.0674120416374251, 0.000000000000000000, -360.9748256409570217 ) ) ;
#115 = DIRECTION ( 'NONE',  ( 0.9612616959383196713, 0.000000000000000000, 0.2756373558169963878 ) ) ;
#116 = CARTESIAN_POINT ( 'NONE',  ( 131.3043110933928688, 0.000000000000000000, -361.6604499810784432 ) ) ;
#117 = EDGE_CURVE ( 'NONE', #303, #154, #102, .T. ) ;
#118 = ORIENTED_EDGE ( 'NONE', *, *, #220, .F. ) ;
#119 = AXIS2_PLACEMENT_3D ( 'NONE', #186, #34, #162 ) ;
#120 =( LENGTH_UNIT ( ) NAMED_UNIT ( * ) SI_UNIT ( .MILLI., .METRE. ) );
#121 = DIRECTION ( 'NONE',  ( 0.9612616959383196713, 0.000000000000000000, 0.2756373558169963878 ) ) ;
#122 = ORIENTED_EDGE ( 'NONE', *, *, #117, .F. ) ;
#123 = EDGE_CURVE ( 'NONE', #268, #217, #254, .T. ) ;
#124 = DIRECTION ( 'NONE',  ( 0.2756373558169976645, 0.000000000000000000, -0.9612616959383193382 ) ) ;
#125 = ORIENTED_EDGE ( 'NONE', *, *, #222, .T. ) ;
#126 = CLOSED_SHELL ( 'NONE', ( #277, #3, #176, #41, #130, #62, #132, #50, #112, #218 ) ) ;
#127 = MECHANICAL_DESIGN_GEOMETRIC_PRESENTATION_REPRESENTATION (  '', ( #86 ), #161 ) ;
#128 = PRODUCT ( 'GIN-RAR-USN01', 'GIN-RAR-USN01', '', ( #29 ) ) ;
#129 = FACE_OUTER_BOUND ( 'NONE', #59, .T. ) ;
#130 = ADVANCED_FACE ( 'NONE', ( #111, #202 ), #296, .T. ) ;
#131 = CYLINDRICAL_SURFACE ( 'NONE', #81, 16.00000000000002487 ) ;
#132 = ADVANCED_FACE ( 'NONE', ( #66 ), #226, .F. ) ;
#133 = AXIS2_PLACEMENT_3D ( 'NONE', #139, #10, #37 ) ;
#134 = CARTESIAN_POINT ( 'NONE',  ( 179.6638475426528316, 1.347111479062089785E-15, -370.6801636357732832 ) ) ;
#135 = AXIS2_PLACEMENT_3D ( 'NONE', #262, #78, #170 ) ;
#136 = ORIENTED_EDGE ( 'NONE', *, *, #236, .T. ) ;
#137 = CARTESIAN_POINT ( 'NONE',  ( 175.6705749327275043, 0.000000000000000000, -360.3819223362687580 ) ) ;
#138 = DIRECTION ( 'NONE',  ( 0.2756373558170058247, 0.000000000000000000, -0.9612616959383170068 ) ) ;
#139 = CARTESIAN_POINT ( 'NONE',  ( 176.6318366286657806, 0.000000000000000000, -360.1062849804517896 ) ) ;
#140 = CARTESIAN_POINT ( 'NONE',  ( 173.5998257146787296, 0.000000000000000000, -349.5324063251302960 ) ) ;
#141 = CARTESIAN_POINT ( 'NONE',  ( 175.6705749327275043, 0.000000000000000000, -360.3819223362687580 ) ) ;
#142 = APPLICATION_CONTEXT ( 'automotive_design' ) ;
#143 = DIRECTION ( 'NONE',  ( 0.9612616959383196713, 0.000000000000000000, 0.2756373558169963878 ) ) ;
#144 = ORIENTED_EDGE ( 'NONE', *, *, #147, .T. ) ;
#145 = CIRCLE ( 'NONE', #91, 10.99999999999998757 ) ;
#146 = VERTEX_POINT ( 'NONE', #113 ) ;
#147 = EDGE_CURVE ( 'NONE', #172, #215, #40, .T. ) ;
#148 = FACE_OUTER_BOUND ( 'NONE', #209, .T. ) ;
#149 = ORIENTED_EDGE ( 'NONE', *, *, #300, .F. ) ;
#150 = SHAPE_DEFINITION_REPRESENTATION ( #110, #281 ) ;
#151 = CARTESIAN_POINT ( 'NONE',  ( 176.6318366286657806, 0.000000000000000000, -360.1062849804517896 ) ) ;
#152 = EDGE_LOOP ( 'NONE', ( #248, #125 ) ) ;
#153 = FACE_OUTER_BOUND ( 'NONE', #45, .T. ) ;
#154 = VERTEX_POINT ( 'NONE', #228 ) ;
#155 = ORIENTED_EDGE ( 'NONE', *, *, #83, .T. ) ;
#156 = CIRCLE ( 'NONE', #253, 10.99999999999998757 ) ;
#157 = VECTOR ( 'NONE', #256, 999.9999999999998863 ) ;
#158 = CARTESIAN_POINT ( 'NONE',  ( 176.6318366286657806, 0.000000000000000000, -360.1062849804517896 ) ) ;
#159 = DIRECTION ( 'NONE',  ( -0.9612616959383173398, -0.000000000000000000, -0.2756373558170044924 ) ) ;
#160 = VECTOR ( 'NONE', #298, 999.9999999999998863 ) ;
#161 =( GEOMETRIC_REPRESENTATION_CONTEXT ( 3 ) GLOBAL_UNCERTAINTY_ASSIGNED_CONTEXT ( ( #98 ) ) GLOBAL_UNIT_ASSIGNED_CONTEXT ( ( #120, #80, #290 ) ) REPRESENTATION_CONTEXT ( 'NONE', 'WORKASPACE' ) );
#162 = DIRECTION ( 'NONE',  ( -0.2756373558170043259, 0.000000000000000000, 0.9612616959383174509 ) ) ;
#163 = CARTESIAN_POINT ( 'NONE',  ( 176.6318366286657806, 0.000000000000000000, -360.1062849804517896 ) ) ;
#164 = DIRECTION ( 'NONE',  ( 0.2756373558170043259, 0.000000000000000000, -0.9612616959383174509 ) ) ;
#165 = DIRECTION ( 'NONE',  ( 0.9612616959383174509, 0.000000000000000000, 0.2756373558170045479 ) ) ;
#166 = CONICAL_SURFACE ( 'NONE', #69, 10.99999999999998757, 0.7853981633974613796 ) ;
#167 =( NAMED_UNIT ( * ) PLANE_ANGLE_UNIT ( ) SI_UNIT ( $, .RADIAN. ) );
#168 = FILL_AREA_STYLE_COLOUR ( '', #57 ) ;
#169 = ORIENTED_EDGE ( 'NONE', *, *, #147, .F. ) ;
#170 = DIRECTION ( 'NONE',  ( 0.2756373558170058247, 0.000000000000000000, -0.9612616959383170068 ) ) ;
#171 = ORIENTED_EDGE ( 'NONE', *, *, #83, .F. ) ;
#172 = VERTEX_POINT ( 'NONE', #114 ) ;
#173 = DIRECTION ( 'NONE',  ( -0.9612616959383174509, -0.000000000000000000, -0.2756373558170045479 ) ) ;
#174 = EDGE_LOOP ( 'NONE', ( #250, #107, #73, #105 ) ) ;
#175 = CONICAL_SURFACE ( 'NONE', #51, 12.00000000000001599, 0.7853981633974849164 ) ;
#176 = ADVANCED_FACE ( 'NONE', ( #67 ), #295, .F. ) ;
#177 = AXIS2_PLACEMENT_3D ( 'NONE', #151, #207, #43 ) ;
#178 = CARTESIAN_POINT ( 'NONE',  ( 133.3750603114415583, 0.000000000000000000, -372.5099659922169621 ) ) ;
#179 = CARTESIAN_POINT ( 'NONE',  ( 0.000000000000000000, 0.000000000000000000, 0.000000000000000000 ) ) ;
#180 = ORIENTED_EDGE ( 'NONE', *, *, #229, .T. ) ;
#181 = EDGE_CURVE ( 'NONE', #77, #47, #286, .T. ) ;
#182 = EDGE_CURVE ( 'NONE', #268, #154, #188, .T. ) ;
#183 = ORIENTED_EDGE ( 'NONE', *, *, #72, .F. ) ;
#184 = EDGE_CURVE ( 'NONE', #263, #48, #38, .T. ) ;
#185 = DIRECTION ( 'NONE',  ( 0.8746197071393879696, 0.000000000000000000, -0.4848096202463511029 ) ) ;
#186 = CARTESIAN_POINT ( 'NONE',  ( 176.6318366286657806, 0.000000000000000000, -360.1062849804517896 ) ) ;
#187 = DIRECTION ( 'NONE',  ( -0.2756373558169957216, 0.000000000000000000, 0.9612616959383197823 ) ) ;
#188 = LINE ( 'NONE', #64, #157 ) ;
#189 = EDGE_CURVE ( 'NONE', #47, #77, #87, .T. ) ;
#190 = CARTESIAN_POINT ( 'NONE',  ( 179.9394848984698285, 0.000000000000000000, -371.6414253317116163 ) ) ;
#191 = VECTOR ( 'NONE', #61, 999.9999999999998863 ) ;
#192 = ORIENTED_EDGE ( 'NONE', *, *, #19, .T. ) ;
#193 = CARTESIAN_POINT ( 'NONE',  ( 136.6827085812455778, 1.469576158976816256E-15, -384.0451063434767320 ) ) ;
#194 = VECTOR ( 'NONE', #185, 1000.000000000000000 ) ;
#195 = CARTESIAN_POINT ( 'NONE',  ( 134.3363220073798345, 0.000000000000000000, -372.2343286363999937 ) ) ;
#196 = ORIENTED_EDGE ( 'NONE', *, *, #79, .F. ) ;
#197 = PRESENTATION_STYLE_ASSIGNMENT (( #106 ) ) ;
#198 = CIRCLE ( 'NONE', #308, 16.00000000000002487 ) ;
#199 =( NAMED_UNIT ( * ) PLANE_ANGLE_UNIT ( ) SI_UNIT ( $, .RADIAN. ) );
#200 = APPLICATION_CONTEXT ( 'automotive_design' ) ;
#201 =( GEOMETRIC_REPRESENTATION_CONTEXT ( 3 ) GLOBAL_UNCERTAINTY_ASSIGNED_CONTEXT ( ( #71 ) ) GLOBAL_UNIT_ASSIGNED_CONTEXT ( ( #108, #199, #246 ) ) REPRESENTATION_CONTEXT ( 'NONE', 'WORKASPACE' ) );
#202 = FACE_OUTER_BOUND ( 'NONE', #219, .T. ) ;
#203 = LINE ( 'NONE', #68, #194 ) ;
#204 = DIRECTION ( 'NONE',  ( 0.2756373558169976645, 0.000000000000000000, -0.9612616959383193382 ) ) ;
#205 = CARTESIAN_POINT ( 'NONE',  ( 133.3750603114415583, 0.000000000000000000, -372.5099659922169621 ) ) ;
#206 = DIRECTION ( 'NONE',  ( -0.9612616959383173398, -0.000000000000000000, -0.2756373558170044924 ) ) ;
#207 = DIRECTION ( 'NONE',  ( -0.9612616959383173398, -0.000000000000000000, -0.2756373558170044924 ) ) ;
#208 = VECTOR ( 'NONE', #173, 999.9999999999998863 ) ;
#209 = EDGE_LOOP ( 'NONE', ( #239, #183, #241, #223 ) ) ;
#210 = UNCERTAINTY_MEASURE_WITH_UNIT (LENGTH_MEASURE( 1.000000000000000082E-05 ), #25, 'distance_accuracy_value', 'NONE');
#211 = CARTESIAN_POINT ( 'NONE',  ( 130.0674120416375956, 0.000000000000000000, -360.9748256409571354 ) ) ;
#212 = ORIENTED_EDGE ( 'NONE', *, *, #182, .T. ) ;
#213 = DIRECTION ( 'NONE',  ( 0.2756373558169976645, 0.000000000000000000, -0.9612616959383193382 ) ) ;
#214 =( GEOMETRIC_REPRESENTATION_CONTEXT ( 3 ) GLOBAL_UNCERTAINTY_ASSIGNED_CONTEXT ( ( #210 ) ) GLOBAL_UNIT_ASSIGNED_CONTEXT ( ( #25, #167, #44 ) ) REPRESENTATION_CONTEXT ( 'NONE', 'WORKASPACE' ) );
#215 = VERTEX_POINT ( 'NONE', #193 ) ;
#216 = EDGE_LOOP ( 'NONE', ( #18, #136, #169, #309 ) ) ;
#217 = VERTEX_POINT ( 'NONE', #116 ) ;
#218 = ADVANCED_FACE ( 'NONE', ( #148 ), #166, .F. ) ;
#219 = EDGE_LOOP ( 'NONE', ( #85, #23 ) ) ;
#220 = EDGE_CURVE ( 'NONE', #215, #172, #267, .T. ) ;
#221 = CIRCLE ( 'NONE', #35, 10.99999999999998757 ) ;
#222 = EDGE_CURVE ( 'NONE', #154, #303, #301, .T. ) ;
#223 = ORIENTED_EDGE ( 'NONE', *, *, #222, .F. ) ;
#224 = CARTESIAN_POINT ( 'NONE',  ( 181.0420343217378445, 1.959434878635768681E-15, -375.4864721154648919 ) ) ;
#225 = ORIENTED_EDGE ( 'NONE', *, *, #230, .F. ) ;
#226 = CYLINDRICAL_SURFACE ( 'NONE', #26, 11.00000000000001243 ) ;
#227 = CARTESIAN_POINT ( 'NONE',  ( 133.3750603114415583, 0.000000000000000000, -372.5099659922169621 ) ) ;
#228 = CARTESIAN_POINT ( 'NONE',  ( 173.3241883588617611, 1.469576158976811325E-15, -348.5711446291920765 ) ) ;
#229 = EDGE_CURVE ( 'NONE', #48, #217, #221, .T. ) ;
#230 = EDGE_CURVE ( 'NONE', #146, #47, #287, .T. ) ;
#231 = DIRECTION ( 'NONE',  ( 0.9612616959383173398, 0.000000000000000000, 0.2756373558170044924 ) ) ;
#232 = DIRECTION ( 'NONE',  ( 0.2756373558169976645, 0.000000000000000000, -0.9612616959383193382 ) ) ;
#233 = FILL_AREA_STYLE ('',( #168 ) ) ;
#234 = ORIENTED_EDGE ( 'NONE', *, *, #293, .T. ) ;
#235 = AXIS2_PLACEMENT_3D ( 'NONE', #141, #143, #74 ) ;
#236 = EDGE_CURVE ( 'NONE', #48, #215, #302, .T. ) ;
#237 = EDGE_LOOP ( 'NONE', ( #144, #15 ) ) ;
#238 = DIRECTION ( 'NONE',  ( -0.9612616959383196713, -0.000000000000000000, -0.2756373558169963878 ) ) ;
#239 = ORIENTED_EDGE ( 'NONE', *, *, #182, .F. ) ;
#240 = DIRECTION ( 'NONE',  ( -0.9612616959383196713, -0.000000000000000000, -0.2756373558169963878 ) ) ;
#241 = ORIENTED_EDGE ( 'NONE', *, *, #79, .T. ) ;
#242 = STYLED_ITEM ( 'NONE', ( #197 ), #2 ) ;
#243 = DIRECTION ( 'NONE',  ( 0.9612616959383173398, 0.000000000000000000, 0.2756373558170044924 ) ) ;
#244 = ORIENTED_EDGE ( 'NONE', *, *, #123, .F. ) ;
#245 = SURFACE_STYLE_FILL_AREA ( #313 ) ;
#246 =( NAMED_UNIT ( * ) SI_UNIT ( $, .STERADIAN. ) SOLID_ANGLE_UNIT ( ) );
#247 = PRODUCT_DEFINITION_CONTEXT ( 'detailed design', #142, 'design' ) ;
#248 = ORIENTED_EDGE ( 'NONE', *, *, #117, .T. ) ;
#249 = PRESENTATION_LAYER_ASSIGNMENT (  '', '', ( #242 ) ) ;
#250 = ORIENTED_EDGE ( 'NONE', *, *, #184, .F. ) ;
#251 = ORIENTED_EDGE ( 'NONE', *, *, #181, .F. ) ;
#252 = CARTESIAN_POINT ( 'NONE',  ( 176.6318366286657806, 0.000000000000000000, -360.1062849804517896 ) ) ;
#253 = AXIS2_PLACEMENT_3D ( 'NONE', #36, #115, #204 ) ;
#254 = LINE ( 'NONE', #140, #160 ) ;
#255 = CARTESIAN_POINT ( 'NONE',  ( 133.3750603114415583, 0.000000000000000000, -372.5099659922170190 ) ) ;
#256 = DIRECTION ( 'NONE',  ( 0.4848096202463281768, 8.659560562355047490E-17, 0.8746197071394008482 ) ) ;
#257 = PRESENTATION_LAYER_ASSIGNMENT (  '', '', ( #86 ) ) ;
#258 = MECHANICAL_DESIGN_GEOMETRIC_PRESENTATION_REPRESENTATION (  '', ( #242 ), #201 ) ;
#259 = AXIS2_PLACEMENT_3D ( 'NONE', #11, #206, #93 ) ;
#260 = FACE_OUTER_BOUND ( 'NONE', #265, .T. ) ;
#261 = SURFACE_STYLE_USAGE ( .BOTH. , #70 ) ;
#262 = CARTESIAN_POINT ( 'NONE',  ( 133.3750603114415583, 0.000000000000000000, -372.5099659922170190 ) ) ;
#263 = VERTEX_POINT ( 'NONE', #306 ) ;
#264 = DIRECTION ( 'NONE',  ( 0.2756373558170043259, 0.000000000000000000, -0.9612616959383174509 ) ) ;
#265 = EDGE_LOOP ( 'NONE', ( #307, #100, #104, #21 ) ) ;
#266 = AXIS2_PLACEMENT_3D ( 'NONE', #227, #297, #187 ) ;
#267 = CIRCLE ( 'NONE', #135, 11.99999999999987921 ) ;
#268 = VERTEX_POINT ( 'NONE', #46 ) ;
#269 = DIRECTION ( 'NONE',  ( 1.000000000000000000, 0.000000000000000000, 0.000000000000000000 ) ) ;
#270 = PLANE ( 'NONE',  #288 ) ;
#271 = CARTESIAN_POINT ( 'NONE',  ( 181.0420343217378445, 1.959434878635768681E-15, -375.4864721154648919 ) ) ;
#272 = PRODUCT_RELATED_PRODUCT_CATEGORY ( 'part', '', ( #128 ) ) ;
#273 = DIRECTION ( 'NONE',  ( 0.2756373558170043259, 0.000000000000000000, -0.9612616959383174509 ) ) ;
#274 = FACE_OUTER_BOUND ( 'NONE', #310, .T. ) ;
#275 = VECTOR ( 'NONE', #283, 1000.000000000000114 ) ;
#276 = DIRECTION ( 'NONE',  ( 0.2756373558170045479, 0.000000000000000000, -0.9612616959383174509 ) ) ;
#277 = ADVANCED_FACE ( 'NONE', ( #304 ), #65, .F. ) ;
#278 = DIRECTION ( 'NONE',  ( 0.9612616959383173398, 0.000000000000000000, 0.2756373558170044924 ) ) ;
#279 = CYLINDRICAL_SURFACE ( 'NONE', #119, 16.00000000000002487 ) ;
#280 = CARTESIAN_POINT ( 'NONE',  ( 172.2216389355936883, 0.000000000000000000, -344.7260978454386873 ) ) ;
#281 = ADVANCED_BREP_SHAPE_REPRESENTATION ( 'GIN-RAR-USN01', ( #2, #95 ), #214 ) ;
#282 = ORIENTED_EDGE ( 'NONE', *, *, #184, .T. ) ;
#283 = DIRECTION ( 'NONE',  ( -0.8746197071393766453, 0.000000000000000000, 0.4848096202463715865 ) ) ;
#284 = ORIENTED_EDGE ( 'NONE', *, *, #312, .F. ) ;
#285 = LINE ( 'NONE', #211, #275 ) ;
#286 = CIRCLE ( 'NONE', #82, 16.00000000000002487 ) ;
#287 = LINE ( 'NONE', #280, #208 ) ;
#288 = AXIS2_PLACEMENT_3D ( 'NONE', #55, #165, #63 ) ;
#289 = VECTOR ( 'NONE', #101, 1000.000000000000114 ) ;
#290 =( NAMED_UNIT ( * ) SI_UNIT ( $, .STERADIAN. ) SOLID_ANGLE_UNIT ( ) );
#291 = LINE ( 'NONE', #271, #191 ) ;
#292 = COLOUR_RGB ( '',0.000000000000000000, 0.5450980392156862253, 0.8117647058823529438 ) ;
#293 = EDGE_CURVE ( 'NONE', #217, #172, #285, .T. ) ;
#294 = DIRECTION ( 'NONE',  ( -0.2756373558169957216, 0.000000000000000000, 0.9612616959383197823 ) ) ;
#295 = CYLINDRICAL_SURFACE ( 'NONE', #259, 11.00000000000001243 ) ;
#296 = PLANE ( 'NONE',  #16 ) ;
#297 = DIRECTION ( 'NONE',  ( -0.9612616959383196713, -0.000000000000000000, -0.2756373558169963878 ) ) ;
#298 = DIRECTION ( 'NONE',  ( -0.9612616959383174509, -0.000000000000000000, -0.2756373558170045479 ) ) ;
#299 = CARTESIAN_POINT ( 'NONE',  ( 133.3750603114415583, 0.000000000000000000, -372.5099659922169621 ) ) ;
#300 = EDGE_CURVE ( 'NONE', #217, #48, #145, .T. ) ;
#301 = CIRCLE ( 'NONE', #177, 12.00000000000009948 ) ;
#302 = LINE ( 'NONE', #22, #289 ) ;
#303 = VERTEX_POINT ( 'NONE', #190 ) ;
#304 = FACE_OUTER_BOUND ( 'NONE', #305, .T. ) ;
#305 = EDGE_LOOP ( 'NONE', ( #171, #212, #122, #196 ) ) ;
#306 = CARTESIAN_POINT ( 'NONE',  ( 178.7025858467144701, 1.347111479062089785E-15, -370.9558009915903085 ) ) ;
#307 = ORIENTED_EDGE ( 'NONE', *, *, #19, .F. ) ;
#308 = AXIS2_PLACEMENT_3D ( 'NONE', #13, #89, #109 ) ;
#309 = ORIENTED_EDGE ( 'NONE', *, *, #293, .F. ) ;
#310 = EDGE_LOOP ( 'NONE', ( #49, #149, #234, #118 ) ) ;
#311 = DIRECTION ( 'NONE',  ( 0.000000000000000000, 0.000000000000000000, 1.000000000000000000 ) ) ;
#312 = EDGE_CURVE ( 'NONE', #1, #146, #314, .T. ) ;
#313 = FILL_AREA_STYLE ('',( #52 ) ) ;
#314 = CIRCLE ( 'NONE', #39, 16.00000000000002487 ) ;
ENDSEC;
END-ISO-10303-21;
