ISO-10303-21;
HEADER;
FILE_DESCRIPTION (( 'STEP AP214' ),
    '1' );
FILE_NAME ('GIN-LFA-USN01 bis.STEP',
    '2022-01-19T14:06:09',
    ( '' ),
    ( '' ),
    'SwSTEP 2.0',
    'SolidWorks 2021',
    '' );
FILE_SCHEMA (( 'AUTOMOTIVE_DESIGN' ));
ENDSEC;

DATA;
#1 = EDGE_LOOP ( 'NONE', ( #287, #128 ) ) ;
#2 = EDGE_CURVE ( 'NONE', #54, #75, #56, .T. ) ;
#3 = ORIENTED_EDGE ( 'NONE', *, *, #182, .T. ) ;
#4 = LINE ( 'NONE', #26, #83 ) ;
#5 = AXIS2_PLACEMENT_3D ( 'NONE', #7, #214, #77 ) ;
#6 = ORIENTED_EDGE ( 'NONE', *, *, #169, .T. ) ;
#7 = CARTESIAN_POINT ( 'NONE',  ( -9.196270203294665293E-13, 0.000000000000000000, -7013.779527559056078 ) ) ;
#8 = PRESENTATION_STYLE_ASSIGNMENT (( #104 ) ) ;
#9 = ORIENTED_EDGE ( 'NONE', *, *, #169, .F. ) ;
#10 = DIRECTION ( 'NONE',  ( 2.434699615406050345E-15, 0.000000000000000000, 1.000000000000000000 ) ) ;
#11 = SURFACE_SIDE_STYLE ('',( #292 ) ) ;
#12 =( LENGTH_UNIT ( ) NAMED_UNIT ( * ) SI_UNIT ( $, .METRE. ) );
#13 = DIRECTION ( 'NONE',  ( 2.434699615406050345E-15, 0.000000000000000000, 1.000000000000000000 ) ) ;
#14 = EDGE_LOOP ( 'NONE', ( #250, #173, #16, #175 ) ) ;
#15 = AXIS2_PLACEMENT_3D ( 'NONE', #315, #309, #73 ) ;
#16 = ORIENTED_EDGE ( 'NONE', *, *, #46, .F. ) ;
#17 = DIRECTION ( 'NONE',  ( 1.000000000000000000, 0.000000000000000000, -2.434699615406044823E-15 ) ) ;
#18 = EDGE_LOOP ( 'NONE', ( #141, #129, #296, #232 ) ) ;
#19 = DIRECTION ( 'NONE',  ( -0.7071067811865394681, 8.659560562354841646E-17, 0.7071067811865554553 ) ) ;
#20 = EDGE_CURVE ( 'NONE', #246, #207, #278, .T. ) ;
#21 = VERTEX_POINT ( 'NONE', #119 ) ;
#22 = CARTESIAN_POINT ( 'NONE',  ( 8.557640328065864829E-13, 0.000000000000000000, -5919.291338582678691 ) ) ;
#23 = AXIS2_PLACEMENT_3D ( 'NONE', #178, #57, #238 ) ;
#24 = ADVANCED_FACE ( 'NONE', ( #39 ), #257, .F. ) ;
#25 = MECHANICAL_DESIGN_GEOMETRIC_PRESENTATION_REPRESENTATION (  '', ( #167 ), #120 ) ;
#26 = CARTESIAN_POINT ( 'NONE',  ( 409.4488188976378069, 0.000000000000000000, -7013.779527559056078 ) ) ;
#27 = VERTEX_POINT ( 'NONE', #134 ) ;
#28 = DIRECTION ( 'NONE',  ( 1.622119883081144994E-15, 0.000000000000000000, 1.000000000000000000 ) ) ;
#29 = CARTESIAN_POINT ( 'NONE',  ( -448.8188976377953736, 0.000000000000000000, -7013.779527559056078 ) ) ;
#30 = CARTESIAN_POINT ( 'NONE',  ( -492.1259842519685890, 6.026805113914154165E-14, -7013.779527559056078 ) ) ;
#31 = DIRECTION ( 'NONE',  ( -1.000000000000000000, 0.000000000000000000, 2.668805347656626481E-15 ) ) ;
#32 = FACE_BOUND ( 'NONE', #236, .T. ) ;
#33 = FACE_OUTER_BOUND ( 'NONE', #271, .T. ) ;
#34 = CIRCLE ( 'NONE', #230, 409.4488188976378069 ) ;
#35 = AXIS2_PLACEMENT_3D ( 'NONE', #210, #149, #261 ) ;
#36 = DIRECTION ( 'NONE',  ( 1.000000000000000000, 0.000000000000000000, -2.220446049250313081E-15 ) ) ;
#37 =( CONVERSION_BASED_UNIT ( 'MILS', #133 ) LENGTH_UNIT ( ) NAMED_UNIT ( #188 ) );
#38 = ADVANCED_FACE ( 'NONE', ( #222 ), #132, .F. ) ;
#39 = FACE_OUTER_BOUND ( 'NONE', #145, .T. ) ;
#40 = FILL_AREA_STYLE_COLOUR ( '', #95 ) ;
#41 =( NAMED_UNIT ( * ) PLANE_ANGLE_UNIT ( ) SI_UNIT ( $, .RADIAN. ) );
#42 = PRODUCT_CONTEXT ( 'NONE', #142, 'mechanical' ) ;
#43 = ORIENTED_EDGE ( 'NONE', *, *, #46, .T. ) ;
#44 = CARTESIAN_POINT ( 'NONE',  ( -492.1259842519685890, 6.026805113914135232E-14, -5879.921259842521067 ) ) ;
#45 = DIRECTION ( 'NONE',  ( 1.622119883081144994E-15, 0.000000000000000000, 1.000000000000000000 ) ) ;
#46 = EDGE_CURVE ( 'NONE', #49, #137, #305, .T. ) ;
#47 = CIRCLE ( 'NONE', #97, 492.1259842519685890 ) ;
#48 = ORIENTED_EDGE ( 'NONE', *, *, #82, .F. ) ;
#49 = VERTEX_POINT ( 'NONE', #29 ) ;
#50 = EDGE_CURVE ( 'NONE', #223, #246, #86, .T. ) ;
#51 = CIRCLE ( 'NONE', #289, 492.1259842519685890 ) ;
#52 = DIRECTION ( 'NONE',  ( -1.000000000000000000, 0.000000000000000000, 2.220446049250313081E-15 ) ) ;
#53 = CARTESIAN_POINT ( 'NONE',  ( -8.557640328065864829E-13, 0.000000000000000000, -6974.409448818898454 ) ) ;
#54 = VERTEX_POINT ( 'NONE', #44 ) ;
#55 = VECTOR ( 'NONE', #277, 39370.07874015748530 ) ;
#56 = CIRCLE ( 'NONE', #248, 492.1259842519685890 ) ;
#57 = DIRECTION ( 'NONE',  ( -1.622119883081144994E-15, 0.000000000000000000, -1.000000000000000000 ) ) ;
#58 = EDGE_CURVE ( 'NONE', #21, #312, #185, .T. ) ;
#59 = ORIENTED_EDGE ( 'NONE', *, *, #50, .T. ) ;
#60 = CARTESIAN_POINT ( 'NONE',  ( 492.1259842519685890, 0.000000000000000000, -7013.779527559056078 ) ) ;
#61 = LINE ( 'NONE', #220, #146 ) ;
#62 = FACE_OUTER_BOUND ( 'NONE', #14, .T. ) ;
#63 = PRESENTATION_STYLE_ASSIGNMENT (( #166 ) ) ;
#64 = LENGTH_MEASURE_WITH_UNIT ( LENGTH_MEASURE( 2.540000000000000076E-05 ), #190 );
#65 = ORIENTED_EDGE ( 'NONE', *, *, #20, .T. ) ;
#66 = CYLINDRICAL_SURFACE ( 'NONE', #5, 492.1259842519685890 ) ;
#67 = CIRCLE ( 'NONE', #135, 448.8188976377953736 ) ;
#68 = EDGE_LOOP ( 'NONE', ( #43, #157 ) ) ;
#69 = EDGE_LOOP ( 'NONE', ( #307, #187, #3, #88 ) ) ;
#70 = EDGE_CURVE ( 'NONE', #27, #207, #217, .T. ) ;
#71 = ADVANCED_FACE ( 'NONE', ( #62 ), #153, .F. ) ;
#72 = PRESENTATION_LAYER_ASSIGNMENT (  '', '', ( #167 ) ) ;
#73 = DIRECTION ( 'NONE',  ( 1.000000000000000000, 0.000000000000000000, -2.668805347656626481E-15 ) ) ;
#74 = EDGE_CURVE ( 'NONE', #213, #76, #47, .T. ) ;
#75 = VERTEX_POINT ( 'NONE', #197 ) ;
#76 = VERTEX_POINT ( 'NONE', #112 ) ;
#77 = DIRECTION ( 'NONE',  ( 1.000000000000000000, 0.000000000000000000, -2.220446049250313081E-15 ) ) ;
#78 =( NAMED_UNIT ( * ) SI_UNIT ( $, .STERADIAN. ) SOLID_ANGLE_UNIT ( ) );
#79 = CIRCLE ( 'NONE', #152, 409.4488188976378069 ) ;
#80 = CARTESIAN_POINT ( 'NONE',  ( 8.557640328065864829E-13, 0.000000000000000000, -5919.291338582678691 ) ) ;
#81 = DIRECTION ( 'NONE',  ( -2.668805347656625298E-15, 0.000000000000000000, -1.000000000000000000 ) ) ;
#82 = EDGE_CURVE ( 'NONE', #137, #49, #203, .T. ) ;
#83 = VECTOR ( 'NONE', #159, 39370.07874015748530 ) ;
#84 = VECTOR ( 'NONE', #260, 39370.07874015748530 ) ;
#85 = FACE_OUTER_BOUND ( 'NONE', #18, .T. ) ;
#86 = LINE ( 'NONE', #89, #234 ) ;
#87 = CARTESIAN_POINT ( 'NONE',  ( 409.4488188976378069, 0.000000000000000000, -6974.409448818898454 ) ) ;
#88 = ORIENTED_EDGE ( 'NONE', *, *, #107, .T. ) ;
#89 = CARTESIAN_POINT ( 'NONE',  ( -448.8188976377953736, 5.496446263889684870E-14, -5879.921259842521067 ) ) ;
#90 = DIRECTION ( 'NONE',  ( -1.000000000000000000, 0.000000000000000000, 2.220446049250313081E-15 ) ) ;
#91 = DIRECTION ( 'NONE',  ( -2.668805347656625298E-15, 0.000000000000000000, -1.000000000000000000 ) ) ;
#92 = MECHANICAL_DESIGN_GEOMETRIC_PRESENTATION_REPRESENTATION (  '', ( #279 ), #199 ) ;
#93 = DIRECTION ( 'NONE',  ( 0.000000000000000000, 0.000000000000000000, 1.000000000000000000 ) ) ;
#94 = EDGE_LOOP ( 'NONE', ( #205, #180, #148, #123 ) ) ;
#95 = COLOUR_RGB ( '',0.000000000000000000, 0.5450980392156862253, 0.8117647058823529438 ) ;
#96 = ADVANCED_FACE ( 'NONE', ( #251 ), #66, .T. ) ;
#97 = AXIS2_PLACEMENT_3D ( 'NONE', #124, #111, #321 ) ;
#98 = PRODUCT_DEFINITION_SHAPE ( 'NONE', 'NONE',  #311 ) ;
#99 = CARTESIAN_POINT ( 'NONE',  ( 448.8188976377953736, 0.000000000000000000, -5879.921259842521067 ) ) ;
#100 = DIRECTION ( 'NONE',  ( -1.000000000000000000, 0.000000000000000000, 2.434699615406044823E-15 ) ) ;
#101 = ORIENTED_EDGE ( 'NONE', *, *, #283, .T. ) ;
#102 = FILL_AREA_STYLE ('',( #272 ) ) ;
#103 = ORIENTED_EDGE ( 'NONE', *, *, #235, .T. ) ;
#104 = SURFACE_STYLE_USAGE ( .BOTH. , #11 ) ;
#105 = AXIS2_PLACEMENT_3D ( 'NONE', #274, #10, #17 ) ;
#106 = DIRECTION ( 'NONE',  ( -1.000000000000000000, 0.000000000000000000, 2.668805347656626481E-15 ) ) ;
#107 = EDGE_CURVE ( 'NONE', #75, #54, #51, .T. ) ;
#108 = CARTESIAN_POINT ( 'NONE',  ( -9.196270203294665293E-13, 0.000000000000000000, -7013.779527559056078 ) ) ;
#109 = DIRECTION ( 'NONE',  ( 2.220446049250310320E-15, 0.000000000000000000, 1.000000000000000000 ) ) ;
#110 = CARTESIAN_POINT ( 'NONE',  ( -9.196270203294665293E-13, 0.000000000000000000, -7013.779527559056078 ) ) ;
#111 = DIRECTION ( 'NONE',  ( -2.220446049250310320E-15, 0.000000000000000000, -1.000000000000000000 ) ) ;
#112 = CARTESIAN_POINT ( 'NONE',  ( 492.1259842519685890, 0.000000000000000000, -7013.779527559056078 ) ) ;
#113 = PLANE ( 'NONE',  #288 ) ;
#114 = DIRECTION ( 'NONE',  ( 1.000000000000000000, 0.000000000000000000, 0.000000000000000000 ) ) ;
#115 = ORIENTED_EDGE ( 'NONE', *, *, #158, .F. ) ;
#116 = APPLICATION_PROTOCOL_DEFINITION ( 'draft international standard', 'automotive_design', 1998, #142 ) ;
#117 = EDGE_CURVE ( 'NONE', #27, #223, #34, .T. ) ;
#118 = CARTESIAN_POINT ( 'NONE',  ( 448.8188976377953736, 5.496446263889684870E-14, -7013.779527559056078 ) ) ;
#119 = CARTESIAN_POINT ( 'NONE',  ( -409.4488188976378069, 5.014301854776575887E-14, -6974.409448818898454 ) ) ;
#120 =( GEOMETRIC_REPRESENTATION_CONTEXT ( 3 ) GLOBAL_UNCERTAINTY_ASSIGNED_CONTEXT ( ( #281 ) ) GLOBAL_UNIT_ASSIGNED_CONTEXT ( ( #37, #245, #140 ) ) REPRESENTATION_CONTEXT ( 'NONE', 'WORKASPACE' ) );
#121 = AXIS2_PLACEMENT_3D ( 'NONE', #263, #91, #31 ) ;
#122 = EDGE_CURVE ( 'NONE', #312, #27, #4, .T. ) ;
#123 = ORIENTED_EDGE ( 'NONE', *, *, #117, .T. ) ;
#124 = CARTESIAN_POINT ( 'NONE',  ( -9.196270203294665293E-13, 0.000000000000000000, -7013.779527559056078 ) ) ;
#125 = CARTESIAN_POINT ( 'NONE',  ( -8.557640328065864829E-13, 0.000000000000000000, -6974.409448818898454 ) ) ;
#126 = DIRECTION ( 'NONE',  ( -1.000000000000000000, 0.000000000000000000, 2.434699615406044823E-15 ) ) ;
#127 = DIRECTION ( 'NONE',  ( 1.622119883081144994E-15, 0.000000000000000000, 1.000000000000000000 ) ) ;
#128 = ORIENTED_EDGE ( 'NONE', *, *, #74, .T. ) ;
#129 = ORIENTED_EDGE ( 'NONE', *, *, #117, .F. ) ;
#130 = DIRECTION ( 'NONE',  ( -2.668805347656625298E-15, 0.000000000000000000, -1.000000000000000000 ) ) ;
#131 = AXIS2_PLACEMENT_3D ( 'NONE', #165, #299, #269 ) ;
#132 = CYLINDRICAL_SURFACE ( 'NONE', #131, 409.4488188976378069 ) ;
#133 = LENGTH_MEASURE_WITH_UNIT ( LENGTH_MEASURE( 2.540000000000000076E-05 ), #227 );
#134 = CARTESIAN_POINT ( 'NONE',  ( 409.4488188976378069, 0.000000000000000000, -5919.291338582678691 ) ) ;
#135 = AXIS2_PLACEMENT_3D ( 'NONE', #231, #291, #100 ) ;
#136 = CARTESIAN_POINT ( 'NONE',  ( -409.4488188976378069, 0.000000000000000000, -6974.409448818898454 ) ) ;
#137 = VERTEX_POINT ( 'NONE', #118 ) ;
#138 = DIRECTION ( 'NONE',  ( -1.000000000000000000, 0.000000000000000000, 2.434699615406044823E-15 ) ) ;
#139 = DIRECTION ( 'NONE',  ( 1.000000000000000000, 0.000000000000000000, -2.434699615406044823E-15 ) ) ;
#140 =( NAMED_UNIT ( * ) SI_UNIT ( $, .STERADIAN. ) SOLID_ANGLE_UNIT ( ) );
#141 = ORIENTED_EDGE ( 'NONE', *, *, #50, .F. ) ;
#142 = APPLICATION_CONTEXT ( 'automotive_design' ) ;
#143 = PRESENTATION_LAYER_ASSIGNMENT (  '', '', ( #279 ) ) ;
#144 = UNCERTAINTY_MEASURE_WITH_UNIT (LENGTH_MEASURE( 1.000000000000000082E-05 ), #215, 'distance_accuracy_value', 'NONE');
#145 = EDGE_LOOP ( 'NONE', ( #9, #59, #172, #168 ) ) ;
#146 = VECTOR ( 'NONE', #45, 39370.07874015748530 ) ;
#147 = LENGTH_MEASURE_WITH_UNIT ( LENGTH_MEASURE( 2.540000000000000076E-05 ), #12 );
#148 = ORIENTED_EDGE ( 'NONE', *, *, #122, .T. ) ;
#149 = DIRECTION ( 'NONE',  ( -2.434699615406050345E-15, 0.000000000000000000, -1.000000000000000000 ) ) ;
#150 = LINE ( 'NONE', #262, #294 ) ;
#151 = PLANE ( 'NONE',  #23 ) ;
#152 = AXIS2_PLACEMENT_3D ( 'NONE', #125, #81, #106 ) ;
#153 = CONICAL_SURFACE ( 'NONE', #201, 409.4488188976378069, 0.7853981633974399523 ) ;
#154 = EDGE_LOOP ( 'NONE', ( #225, #103, #6, #290 ) ) ;
#155 = CARTESIAN_POINT ( 'NONE',  ( 409.4488188976378069, 5.014301854776560110E-14, -6974.409448818898454 ) ) ;
#156 = EDGE_CURVE ( 'NONE', #207, #246, #67, .T. ) ;
#157 = ORIENTED_EDGE ( 'NONE', *, *, #82, .T. ) ;
#158 = EDGE_CURVE ( 'NONE', #312, #137, #240, .T. ) ;
#159 = DIRECTION ( 'NONE',  ( 1.622119883081144994E-15, 0.000000000000000000, 1.000000000000000000 ) ) ;
#160 = FILL_AREA_STYLE ('',( #40 ) ) ;
#161 = DIRECTION ( 'NONE',  ( 2.434699615406050345E-15, 0.000000000000000000, 1.000000000000000000 ) ) ;
#162 = FACE_BOUND ( 'NONE', #68, .T. ) ;
#163 = SHAPE_DEFINITION_REPRESENTATION ( #98, #243 ) ;
#164 = ADVANCED_FACE ( 'NONE', ( #32, #211 ), #151, .F. ) ;
#165 = CARTESIAN_POINT ( 'NONE',  ( -9.196270203294665293E-13, 0.000000000000000000, -7013.779527559056078 ) ) ;
#166 = SURFACE_STYLE_USAGE ( .BOTH. , #316 ) ;
#167 = STYLED_ITEM ( 'NONE', ( #63 ), #243 ) ;
#168 = ORIENTED_EDGE ( 'NONE', *, *, #70, .F. ) ;
#169 = EDGE_CURVE ( 'NONE', #223, #27, #191, .T. ) ;
#170 = CIRCLE ( 'NONE', #208, 492.1259842519685890 ) ;
#171 = MANIFOLD_SOLID_BREP ( 'NONE', #206 ) ;
#172 = ORIENTED_EDGE ( 'NONE', *, *, #156, .F. ) ;
#173 = ORIENTED_EDGE ( 'NONE', *, *, #158, .T. ) ;
#174 = DIRECTION ( 'NONE',  ( -2.220446049250310320E-15, 0.000000000000000000, -1.000000000000000000 ) ) ;
#175 = ORIENTED_EDGE ( 'NONE', *, *, #267, .F. ) ;
#176 = ORIENTED_EDGE ( 'NONE', *, *, #58, .F. ) ;
#177 = AXIS2_PLACEMENT_3D ( 'NONE', #224, #93, #114 ) ;
#178 = CARTESIAN_POINT ( 'NONE',  ( 9.196270203294665293E-13, 0.000000000000000000, -5879.921259842521067 ) ) ;
#179 =( NAMED_UNIT ( * ) PLANE_ANGLE_UNIT ( ) SI_UNIT ( $, .RADIAN. ) );
#180 = ORIENTED_EDGE ( 'NONE', *, *, #58, .T. ) ;
#181 = CARTESIAN_POINT ( 'NONE',  ( 9.196270203294665293E-13, 0.000000000000000000, -5879.921259842521067 ) ) ;
#182 = EDGE_CURVE ( 'NONE', #76, #75, #266, .T. ) ;
#183 = FACE_OUTER_BOUND ( 'NONE', #154, .T. ) ;
#184 = CONICAL_SURFACE ( 'NONE', #317, 448.8188976377953736, 0.7853981633974391752 ) ;
#185 = CIRCLE ( 'NONE', #121, 409.4488188976378069 ) ;
#186 = ADVANCED_FACE ( 'NONE', ( #33 ), #218, .F. ) ;
#187 = ORIENTED_EDGE ( 'NONE', *, *, #297, .F. ) ;
#188 = DIMENSIONAL_EXPONENTS ( 1.000000000000000000, 0.000000000000000000, 0.000000000000000000, 0.000000000000000000, 0.000000000000000000, 0.000000000000000000, 0.000000000000000000 ) ;
#189 = CARTESIAN_POINT ( 'NONE',  ( -9.196270203294665293E-13, 0.000000000000000000, -7013.779527559056078 ) ) ;
#190 =( LENGTH_UNIT ( ) NAMED_UNIT ( * ) SI_UNIT ( $, .METRE. ) );
#191 = CIRCLE ( 'NONE', #204, 409.4488188976378069 ) ;
#192 = AXIS2_PLACEMENT_3D ( 'NONE', #110, #161, #126 ) ;
#193 = LINE ( 'NONE', #136, #55 ) ;
#194 = DIRECTION ( 'NONE',  ( 2.668805347656625298E-15, 0.000000000000000000, 1.000000000000000000 ) ) ;
#195 = CARTESIAN_POINT ( 'NONE',  ( 448.8188976377953736, 0.000000000000000000, -5879.921259842521067 ) ) ;
#196 = DIRECTION ( 'NONE',  ( -2.220446049250310320E-15, 0.000000000000000000, -1.000000000000000000 ) ) ;
#197 = CARTESIAN_POINT ( 'NONE',  ( 492.1259842519685890, 0.000000000000000000, -5879.921259842521067 ) ) ;
#198 = DIRECTION ( 'NONE',  ( 2.434699615406050345E-15, 0.000000000000000000, 1.000000000000000000 ) ) ;
#199 =( GEOMETRIC_REPRESENTATION_CONTEXT ( 3 ) GLOBAL_UNCERTAINTY_ASSIGNED_CONTEXT ( ( #144 ) ) GLOBAL_UNIT_ASSIGNED_CONTEXT ( ( #215, #179, #78 ) ) REPRESENTATION_CONTEXT ( 'NONE', 'WORKASPACE' ) );
#200 = PRODUCT_DEFINITION_FORMATION_WITH_SPECIFIED_SOURCE ( 'ANY', '', #284, .NOT_KNOWN. ) ;
#201 = AXIS2_PLACEMENT_3D ( 'NONE', #276, #247, #244 ) ;
#202 = CARTESIAN_POINT ( 'NONE',  ( 9.196270203294665293E-13, 0.000000000000000000, -5879.921259842521067 ) ) ;
#203 = CIRCLE ( 'NONE', #254, 448.8188976377953736 ) ;
#204 = AXIS2_PLACEMENT_3D ( 'NONE', #80, #270, #310 ) ;
#205 = ORIENTED_EDGE ( 'NONE', *, *, #235, .F. ) ;
#206 = CLOSED_SHELL ( 'NONE', ( #265, #186, #38, #96, #164, #319, #286, #226, #71, #24 ) ) ;
#207 = VERTEX_POINT ( 'NONE', #99 ) ;
#208 = AXIS2_PLACEMENT_3D ( 'NONE', #323, #196, #90 ) ;
#209 = CYLINDRICAL_SURFACE ( 'NONE', #15, 409.4488188976378069 ) ;
#210 = CARTESIAN_POINT ( 'NONE',  ( 9.196270203294685488E-13, 0.000000000000000000, -5879.921259842521067 ) ) ;
#211 = FACE_OUTER_BOUND ( 'NONE', #308, .T. ) ;
#212 = APPLICATION_CONTEXT ( 'automotive_design' ) ;
#213 = VERTEX_POINT ( 'NONE', #30 ) ;
#214 = DIRECTION ( 'NONE',  ( 2.220446049250310320E-15, 0.000000000000000000, 1.000000000000000000 ) ) ;
#215 =( CONVERSION_BASED_UNIT ( 'MILS', #147 ) LENGTH_UNIT ( ) NAMED_UNIT ( #301 ) );
#216 = ORIENTED_EDGE ( 'NONE', *, *, #182, .F. ) ;
#217 = LINE ( 'NONE', #195, #318 ) ;
#218 = CONICAL_SURFACE ( 'NONE', #264, 409.4488188976378069, 0.7853981633974399523 ) ;
#219 = CARTESIAN_POINT ( 'NONE',  ( -409.4488188976378069, 5.014301854776560110E-14, -5919.291338582678691 ) ) ;
#220 = CARTESIAN_POINT ( 'NONE',  ( -492.1259842519685890, 6.026805113914135232E-14, -7013.779527559056078 ) ) ;
#221 = EDGE_CURVE ( 'NONE', #312, #21, #79, .T. ) ;
#222 = FACE_OUTER_BOUND ( 'NONE', #94, .T. ) ;
#223 = VERTEX_POINT ( 'NONE', #219 ) ;
#224 = CARTESIAN_POINT ( 'NONE',  ( 0.000000000000000000, 0.000000000000000000, 0.000000000000000000 ) ) ;
#225 = ORIENTED_EDGE ( 'NONE', *, *, #221, .T. ) ;
#226 = ADVANCED_FACE ( 'NONE', ( #183 ), #209, .F. ) ;
#227 =( LENGTH_UNIT ( ) NAMED_UNIT ( * ) SI_UNIT ( $, .METRE. ) );
#228 = COLOUR_RGB ( '',0.000000000000000000, 0.5450980392156862253, 0.8117647058823529438 ) ;
#229 = AXIS2_PLACEMENT_3D ( 'NONE', #108, #109, #36 ) ;
#230 = AXIS2_PLACEMENT_3D ( 'NONE', #22, #194, #295 ) ;
#231 = CARTESIAN_POINT ( 'NONE',  ( 9.196270203294685488E-13, 0.000000000000000000, -5879.921259842521067 ) ) ;
#232 = ORIENTED_EDGE ( 'NONE', *, *, #20, .F. ) ;
#233 = CARTESIAN_POINT ( 'NONE',  ( -448.8188976377953736, 5.496446263889684870E-14, -5879.921259842521067 ) ) ;
#234 = VECTOR ( 'NONE', #19, 39370.07874015749258 ) ;
#235 = EDGE_CURVE ( 'NONE', #21, #223, #150, .T. ) ;
#236 = EDGE_LOOP ( 'NONE', ( #320, #65 ) ) ;
#237 = CARTESIAN_POINT ( 'NONE',  ( -9.196270203294665293E-13, 0.000000000000000000, -7013.779527559056078 ) ) ;
#238 = DIRECTION ( 'NONE',  ( -1.000000000000000000, 0.000000000000000000, 1.622119883081144994E-15 ) ) ;
#239 = DIRECTION ( 'NONE',  ( -1.000000000000000000, 0.000000000000000000, 2.220446049250313081E-15 ) ) ;
#240 = LINE ( 'NONE', #155, #84 ) ;
#241 = DIRECTION ( 'NONE',  ( -1.000000000000000000, 0.000000000000000000, 2.668805347656626481E-15 ) ) ;
#242 =( CONVERSION_BASED_UNIT ( 'MILS', #64 ) LENGTH_UNIT ( ) NAMED_UNIT ( #252 ) );
#243 = ADVANCED_BREP_SHAPE_REPRESENTATION ( 'GIN-LFA-USN01 bis', ( #171, #177 ), #314 ) ;
#244 = DIRECTION ( 'NONE',  ( -1.000000000000000000, 0.000000000000000000, 2.668805347656626481E-15 ) ) ;
#245 =( NAMED_UNIT ( * ) PLANE_ANGLE_UNIT ( ) SI_UNIT ( $, .RADIAN. ) );
#246 = VERTEX_POINT ( 'NONE', #233 ) ;
#247 = DIRECTION ( 'NONE',  ( -2.668805347656625298E-15, 0.000000000000000000, -1.000000000000000000 ) ) ;
#248 = AXIS2_PLACEMENT_3D ( 'NONE', #202, #174, #52 ) ;
#249 =( NAMED_UNIT ( * ) SI_UNIT ( $, .STERADIAN. ) SOLID_ANGLE_UNIT ( ) );
#250 = ORIENTED_EDGE ( 'NONE', *, *, #221, .F. ) ;
#251 = FACE_OUTER_BOUND ( 'NONE', #69, .T. ) ;
#252 = DIMENSIONAL_EXPONENTS ( 1.000000000000000000, 0.000000000000000000, 0.000000000000000000, 0.000000000000000000, 0.000000000000000000, 0.000000000000000000, 0.000000000000000000 ) ;
#253 = PRODUCT_RELATED_PRODUCT_CATEGORY ( 'part', '', ( #284 ) ) ;
#254 = AXIS2_PLACEMENT_3D ( 'NONE', #237, #198, #138 ) ;
#255 = VECTOR ( 'NONE', #127, 39370.07874015748530 ) ;
#256 = ORIENTED_EDGE ( 'NONE', *, *, #107, .F. ) ;
#257 = CONICAL_SURFACE ( 'NONE', #105, 448.8188976377953736, 0.7853981633974391752 ) ;
#258 = PRODUCT_DEFINITION_CONTEXT ( 'detailed design', #212, 'design' ) ;
#259 = ORIENTED_EDGE ( 'NONE', *, *, #2, .T. ) ;
#260 = DIRECTION ( 'NONE',  ( 0.7071067811865400232, 8.659560562354858902E-17, -0.7071067811865550112 ) ) ;
#261 = DIRECTION ( 'NONE',  ( -1.000000000000000000, 0.000000000000000000, 2.434699615406044823E-15 ) ) ;
#262 = CARTESIAN_POINT ( 'NONE',  ( -409.4488188976378069, 5.014301854776560110E-14, -7013.779527559056078 ) ) ;
#263 = CARTESIAN_POINT ( 'NONE',  ( -8.557640328065864829E-13, 0.000000000000000000, -6974.409448818898454 ) ) ;
#264 = AXIS2_PLACEMENT_3D ( 'NONE', #53, #130, #241 ) ;
#265 = ADVANCED_FACE ( 'NONE', ( #85 ), #184, .F. ) ;
#266 = LINE ( 'NONE', #60, #255 ) ;
#267 = EDGE_CURVE ( 'NONE', #21, #49, #193, .T. ) ;
#268 = EDGE_LOOP ( 'NONE', ( #306, #101, #259, #216 ) ) ;
#269 = DIRECTION ( 'NONE',  ( 1.000000000000000000, 0.000000000000000000, -2.668805347656626481E-15 ) ) ;
#270 = DIRECTION ( 'NONE',  ( 2.668805347656625298E-15, 0.000000000000000000, 1.000000000000000000 ) ) ;
#271 = EDGE_LOOP ( 'NONE', ( #115, #176, #322, #48 ) ) ;
#272 = FILL_AREA_STYLE_COLOUR ( '', #228 ) ;
#273 = CYLINDRICAL_SURFACE ( 'NONE', #229, 492.1259842519685890 ) ;
#274 = CARTESIAN_POINT ( 'NONE',  ( 9.196270203294665293E-13, 0.000000000000000000, -5879.921259842521067 ) ) ;
#275 = DIRECTION ( 'NONE',  ( -1.622119883081144994E-15, 0.000000000000000000, -1.000000000000000000 ) ) ;
#276 = CARTESIAN_POINT ( 'NONE',  ( -8.557640328065864829E-13, 0.000000000000000000, -6974.409448818898454 ) ) ;
#277 = DIRECTION ( 'NONE',  ( -0.7071067811865425767, 0.000000000000000000, -0.7071067811865525687 ) ) ;
#278 = CIRCLE ( 'NONE', #35, 448.8188976377953736 ) ;
#279 = STYLED_ITEM ( 'NONE', ( #8 ), #171 ) ;
#280 = CARTESIAN_POINT ( 'NONE',  ( 9.196270203294665293E-13, 0.000000000000000000, -5879.921259842521067 ) ) ;
#281 = UNCERTAINTY_MEASURE_WITH_UNIT (LENGTH_MEASURE( 1.000000000000000082E-05 ), #37, 'distance_accuracy_value', 'NONE');
#282 = APPLICATION_PROTOCOL_DEFINITION ( 'draft international standard', 'automotive_design', 1998, #212 ) ;
#283 = EDGE_CURVE ( 'NONE', #213, #54, #61, .T. ) ;
#284 = PRODUCT ( 'GIN-LFA-USN01 bis', 'GIN-LFA-USN01 bis', '', ( #42 ) ) ;
#285 = UNCERTAINTY_MEASURE_WITH_UNIT (LENGTH_MEASURE( 1.000000000000000082E-05 ), #242, 'distance_accuracy_value', 'NONE');
#286 = ADVANCED_FACE ( 'NONE', ( #304 ), #273, .T. ) ;
#287 = ORIENTED_EDGE ( 'NONE', *, *, #297, .T. ) ;
#288 = AXIS2_PLACEMENT_3D ( 'NONE', #189, #275, #300 ) ;
#289 = AXIS2_PLACEMENT_3D ( 'NONE', #181, #293, #239 ) ;
#290 = ORIENTED_EDGE ( 'NONE', *, *, #122, .F. ) ;
#291 = DIRECTION ( 'NONE',  ( -2.434699615406050345E-15, 0.000000000000000000, -1.000000000000000000 ) ) ;
#292 = SURFACE_STYLE_FILL_AREA ( #102 ) ;
#293 = DIRECTION ( 'NONE',  ( -2.220446049250310320E-15, 0.000000000000000000, -1.000000000000000000 ) ) ;
#294 = VECTOR ( 'NONE', #28, 39370.07874015748530 ) ;
#295 = DIRECTION ( 'NONE',  ( -1.000000000000000000, 0.000000000000000000, 2.668805347656626481E-15 ) ) ;
#296 = ORIENTED_EDGE ( 'NONE', *, *, #70, .T. ) ;
#297 = EDGE_CURVE ( 'NONE', #76, #213, #170, .T. ) ;
#298 = SURFACE_STYLE_FILL_AREA ( #160 ) ;
#299 = DIRECTION ( 'NONE',  ( 2.668805347656625298E-15, 0.000000000000000000, 1.000000000000000000 ) ) ;
#300 = DIRECTION ( 'NONE',  ( -1.000000000000000000, 0.000000000000000000, 1.622119883081144994E-15 ) ) ;
#301 = DIMENSIONAL_EXPONENTS ( 1.000000000000000000, 0.000000000000000000, 0.000000000000000000, 0.000000000000000000, 0.000000000000000000, 0.000000000000000000, 0.000000000000000000 ) ;
#302 = FACE_OUTER_BOUND ( 'NONE', #1, .T. ) ;
#303 = ORIENTED_EDGE ( 'NONE', *, *, #2, .F. ) ;
#304 = FACE_OUTER_BOUND ( 'NONE', #268, .T. ) ;
#305 = CIRCLE ( 'NONE', #192, 448.8188976377953736 ) ;
#306 = ORIENTED_EDGE ( 'NONE', *, *, #74, .F. ) ;
#307 = ORIENTED_EDGE ( 'NONE', *, *, #283, .F. ) ;
#308 = EDGE_LOOP ( 'NONE', ( #256, #303 ) ) ;
#309 = DIRECTION ( 'NONE',  ( 2.668805347656625298E-15, 0.000000000000000000, 1.000000000000000000 ) ) ;
#310 = DIRECTION ( 'NONE',  ( -1.000000000000000000, 0.000000000000000000, 2.668805347656626481E-15 ) ) ;
#311 = PRODUCT_DEFINITION ( 'UNKNOWN', '', #200, #258 ) ;
#312 = VERTEX_POINT ( 'NONE', #87 ) ;
#313 = DIRECTION ( 'NONE',  ( 0.7071067811865420216, 0.000000000000000000, 0.7071067811865530128 ) ) ;
#314 =( GEOMETRIC_REPRESENTATION_CONTEXT ( 3 ) GLOBAL_UNCERTAINTY_ASSIGNED_CONTEXT ( ( #285 ) ) GLOBAL_UNIT_ASSIGNED_CONTEXT ( ( #242, #41, #249 ) ) REPRESENTATION_CONTEXT ( 'NONE', 'WORKASPACE' ) );
#315 = CARTESIAN_POINT ( 'NONE',  ( -9.196270203294665293E-13, 0.000000000000000000, -7013.779527559056078 ) ) ;
#316 = SURFACE_SIDE_STYLE ('',( #298 ) ) ;
#317 = AXIS2_PLACEMENT_3D ( 'NONE', #280, #13, #139 ) ;
#318 = VECTOR ( 'NONE', #313, 39370.07874015748530 ) ;
#319 = ADVANCED_FACE ( 'NONE', ( #162, #302 ), #113, .T. ) ;
#320 = ORIENTED_EDGE ( 'NONE', *, *, #156, .T. ) ;
#321 = DIRECTION ( 'NONE',  ( -1.000000000000000000, 0.000000000000000000, 2.220446049250313081E-15 ) ) ;
#322 = ORIENTED_EDGE ( 'NONE', *, *, #267, .T. ) ;
#323 = CARTESIAN_POINT ( 'NONE',  ( -9.196270203294665293E-13, 0.000000000000000000, -7013.779527559056078 ) ) ;
ENDSEC;
END-ISO-10303-21;
