ISO-10303-21;
HEADER;
/* Generated by software containing ST-Developer
 * from STEP Tools, Inc. (www.steptools.com) 
 */

FILE_DESCRIPTION(
/* description */ (''),
/* implementation_level */ '2;1');

FILE_NAME(
/* name */ '/Users/vincentfremy/Desktop/galet 60 tube 25 v1.step',
/* time_stamp */ '2022-01-20T08:11:09+01:00',
/* author */ (''),
/* organization */ (''),
/* preprocessor_version */ 'ST-DEVELOPER v18.1',
/* originating_system */ 'Autodesk Translation Framework v10.10.0.1391',

/* authorisation */ '');

FILE_SCHEMA (('AUTOMOTIVE_DESIGN { 1 0 10303 214 3 1 1 }'));
ENDSEC;

DATA;
#10=MECHANICAL_DESIGN_GEOMETRIC_PRESENTATION_REPRESENTATION('',(#13),#228);
#11=SHAPE_REPRESENTATION_RELATIONSHIP('SRR','None',#235,#12);
#12=ADVANCED_BREP_SHAPE_REPRESENTATION('',(#14),#227);
#13=STYLED_ITEM('',(#244),#14);
#14=MANIFOLD_SOLID_BREP('Corps1',#118);
#15=FACE_BOUND('',#43,.T.);
#16=FACE_BOUND('',#45,.T.);
#17=PLANE('',#149);
#18=PLANE('',#150);
#19=LINE('',#204,#22);
#20=LINE('',#213,#23);
#21=LINE('',#219,#24);
#22=VECTOR('',#165,30.);
#23=VECTOR('',#176,30.);
#24=VECTOR('',#183,6.);
#25=CYLINDRICAL_SURFACE('',#136,30.);
#26=CYLINDRICAL_SURFACE('',#142,30.);
#27=CYLINDRICAL_SURFACE('',#144,6.);
#28=FACE_OUTER_BOUND('',#36,.T.);
#29=FACE_OUTER_BOUND('',#37,.T.);
#30=FACE_OUTER_BOUND('',#38,.T.);
#31=FACE_OUTER_BOUND('',#39,.T.);
#32=FACE_OUTER_BOUND('',#40,.T.);
#33=FACE_OUTER_BOUND('',#41,.T.);
#34=FACE_OUTER_BOUND('',#42,.T.);
#35=FACE_OUTER_BOUND('',#44,.T.);
#36=EDGE_LOOP('',(#79,#80,#81,#82));
#37=EDGE_LOOP('',(#83,#84,#85,#86));
#38=EDGE_LOOP('',(#87,#88,#89,#90));
#39=EDGE_LOOP('',(#91,#92,#93,#94));
#40=EDGE_LOOP('',(#95,#96,#97,#98));
#41=EDGE_LOOP('',(#99,#100,#101,#102));
#42=EDGE_LOOP('',(#103));
#43=EDGE_LOOP('',(#104));
#44=EDGE_LOOP('',(#105));
#45=EDGE_LOOP('',(#106));
#46=CIRCLE('',#133,30.);
#47=CIRCLE('',#134,1.5);
#48=CIRCLE('',#135,28.6607142857143);
#49=CIRCLE('',#137,30.);
#50=CIRCLE('',#139,28.6607142857143);
#51=CIRCLE('',#140,1.5);
#52=CIRCLE('',#141,30.);
#53=CIRCLE('',#143,30.);
#54=CIRCLE('',#145,6.);
#55=CIRCLE('',#146,6.);
#56=CIRCLE('',#148,12.5);
#57=VERTEX_POINT('',#196);
#58=VERTEX_POINT('',#198);
#59=VERTEX_POINT('',#202);
#60=VERTEX_POINT('',#206);
#61=VERTEX_POINT('',#208);
#62=VERTEX_POINT('',#212);
#63=VERTEX_POINT('',#216);
#64=VERTEX_POINT('',#218);
#65=EDGE_CURVE('',#57,#57,#46,.T.);
#66=EDGE_CURVE('',#57,#58,#47,.T.);
#67=EDGE_CURVE('',#58,#58,#48,.T.);
#68=EDGE_CURVE('',#59,#59,#49,.T.);
#69=EDGE_CURVE('',#59,#57,#19,.T.);
#70=EDGE_CURVE('',#60,#60,#50,.T.);
#71=EDGE_CURVE('',#60,#61,#51,.T.);
#72=EDGE_CURVE('',#61,#61,#52,.T.);
#73=EDGE_CURVE('',#61,#62,#20,.T.);
#74=EDGE_CURVE('',#62,#62,#53,.T.);
#75=EDGE_CURVE('',#63,#63,#54,.T.);
#76=EDGE_CURVE('',#63,#64,#21,.T.);
#77=EDGE_CURVE('',#64,#64,#55,.T.);
#78=EDGE_CURVE('',#60,#58,#56,.T.);
#79=ORIENTED_EDGE('',*,*,#65,.T.);
#80=ORIENTED_EDGE('',*,*,#66,.T.);
#81=ORIENTED_EDGE('',*,*,#67,.T.);
#82=ORIENTED_EDGE('',*,*,#66,.F.);
#83=ORIENTED_EDGE('',*,*,#68,.F.);
#84=ORIENTED_EDGE('',*,*,#69,.T.);
#85=ORIENTED_EDGE('',*,*,#65,.F.);
#86=ORIENTED_EDGE('',*,*,#69,.F.);
#87=ORIENTED_EDGE('',*,*,#70,.T.);
#88=ORIENTED_EDGE('',*,*,#71,.T.);
#89=ORIENTED_EDGE('',*,*,#72,.T.);
#90=ORIENTED_EDGE('',*,*,#71,.F.);
#91=ORIENTED_EDGE('',*,*,#72,.F.);
#92=ORIENTED_EDGE('',*,*,#73,.T.);
#93=ORIENTED_EDGE('',*,*,#74,.T.);
#94=ORIENTED_EDGE('',*,*,#73,.F.);
#95=ORIENTED_EDGE('',*,*,#75,.F.);
#96=ORIENTED_EDGE('',*,*,#76,.T.);
#97=ORIENTED_EDGE('',*,*,#77,.F.);
#98=ORIENTED_EDGE('',*,*,#76,.F.);
#99=ORIENTED_EDGE('',*,*,#70,.F.);
#100=ORIENTED_EDGE('',*,*,#78,.T.);
#101=ORIENTED_EDGE('',*,*,#67,.F.);
#102=ORIENTED_EDGE('',*,*,#78,.F.);
#103=ORIENTED_EDGE('',*,*,#68,.T.);
#104=ORIENTED_EDGE('',*,*,#75,.T.);
#105=ORIENTED_EDGE('',*,*,#74,.F.);
#106=ORIENTED_EDGE('',*,*,#77,.T.);
#107=TOROIDAL_SURFACE('',#132,28.5,1.5);
#108=TOROIDAL_SURFACE('',#138,28.5,1.5);
#109=TOROIDAL_SURFACE('',#147,30.,12.5);
#110=ADVANCED_FACE('',(#28),#107,.T.);
#111=ADVANCED_FACE('',(#29),#25,.T.);
#112=ADVANCED_FACE('',(#30),#108,.T.);
#113=ADVANCED_FACE('',(#31),#26,.T.);
#114=ADVANCED_FACE('',(#32),#27,.F.);
#115=ADVANCED_FACE('',(#33),#109,.F.);
#116=ADVANCED_FACE('',(#34,#15),#17,.T.);
#117=ADVANCED_FACE('',(#35,#16),#18,.T.);
#118=CLOSED_SHELL('',(#110,#111,#112,#113,#114,#115,#116,#117));
#119=DERIVED_UNIT_ELEMENT(#121,1.);
#120=DERIVED_UNIT_ELEMENT(#230,-3.);
#121=(
MASS_UNIT()
NAMED_UNIT(*)
SI_UNIT(.KILO.,.GRAM.)
);
#122=DERIVED_UNIT((#119,#120));
#123=MEASURE_REPRESENTATION_ITEM('density measure',
POSITIVE_RATIO_MEASURE(7850.),#122);
#124=PROPERTY_DEFINITION_REPRESENTATION(#129,#126);
#125=PROPERTY_DEFINITION_REPRESENTATION(#130,#127);
#126=REPRESENTATION('material name',(#128),#227);
#127=REPRESENTATION('density',(#123),#227);
#128=DESCRIPTIVE_REPRESENTATION_ITEM('Acier','Acier');
#129=PROPERTY_DEFINITION('material property','material name',#237);
#130=PROPERTY_DEFINITION('material property','density of part',#237);
#131=AXIS2_PLACEMENT_3D('placement',#194,#151,#152);
#132=AXIS2_PLACEMENT_3D('',#195,#153,#154);
#133=AXIS2_PLACEMENT_3D('',#197,#155,#156);
#134=AXIS2_PLACEMENT_3D('',#199,#157,#158);
#135=AXIS2_PLACEMENT_3D('',#200,#159,#160);
#136=AXIS2_PLACEMENT_3D('',#201,#161,#162);
#137=AXIS2_PLACEMENT_3D('',#203,#163,#164);
#138=AXIS2_PLACEMENT_3D('',#205,#166,#167);
#139=AXIS2_PLACEMENT_3D('',#207,#168,#169);
#140=AXIS2_PLACEMENT_3D('',#209,#170,#171);
#141=AXIS2_PLACEMENT_3D('',#210,#172,#173);
#142=AXIS2_PLACEMENT_3D('',#211,#174,#175);
#143=AXIS2_PLACEMENT_3D('',#214,#177,#178);
#144=AXIS2_PLACEMENT_3D('',#215,#179,#180);
#145=AXIS2_PLACEMENT_3D('',#217,#181,#182);
#146=AXIS2_PLACEMENT_3D('',#220,#184,#185);
#147=AXIS2_PLACEMENT_3D('',#221,#186,#187);
#148=AXIS2_PLACEMENT_3D('',#222,#188,#189);
#149=AXIS2_PLACEMENT_3D('',#223,#190,#191);
#150=AXIS2_PLACEMENT_3D('',#224,#192,#193);
#151=DIRECTION('axis',(0.,0.,1.));
#152=DIRECTION('refdir',(1.,0.,0.));
#153=DIRECTION('center_axis',(0.,0.,1.));
#154=DIRECTION('ref_axis',(1.,0.,0.));
#155=DIRECTION('center_axis',(0.,0.,-1.));
#156=DIRECTION('ref_axis',(-1.,1.22464679914735E-16,0.));
#157=DIRECTION('center_axis',(1.22464679914735E-16,-1.,0.));
#158=DIRECTION('ref_axis',(-1.,-1.22464679914735E-16,0.));
#159=DIRECTION('center_axis',(0.,0.,1.));
#160=DIRECTION('ref_axis',(-1.,1.22464679914735E-16,0.));
#161=DIRECTION('center_axis',(0.,0.,1.));
#162=DIRECTION('ref_axis',(1.,0.,0.));
#163=DIRECTION('center_axis',(0.,0.,1.));
#164=DIRECTION('ref_axis',(1.,0.,0.));
#165=DIRECTION('',(0.,0.,-1.));
#166=DIRECTION('center_axis',(0.,0.,1.));
#167=DIRECTION('ref_axis',(1.,0.,0.));
#168=DIRECTION('center_axis',(0.,0.,-1.));
#169=DIRECTION('ref_axis',(-1.,1.22464679914735E-16,0.));
#170=DIRECTION('center_axis',(1.22464679914735E-16,-1.,0.));
#171=DIRECTION('ref_axis',(-1.,-1.22464679914735E-16,0.));
#172=DIRECTION('center_axis',(0.,0.,1.));
#173=DIRECTION('ref_axis',(-1.,1.22464679914735E-16,0.));
#174=DIRECTION('center_axis',(0.,0.,1.));
#175=DIRECTION('ref_axis',(1.,0.,0.));
#176=DIRECTION('',(0.,0.,-1.));
#177=DIRECTION('center_axis',(0.,0.,1.));
#178=DIRECTION('ref_axis',(1.,0.,0.));
#179=DIRECTION('center_axis',(0.,0.,-1.));
#180=DIRECTION('ref_axis',(0.,1.,0.));
#181=DIRECTION('center_axis',(0.,0.,-1.));
#182=DIRECTION('ref_axis',(0.,1.,0.));
#183=DIRECTION('',(0.,0.,-1.));
#184=DIRECTION('center_axis',(0.,0.,1.));
#185=DIRECTION('ref_axis',(0.,1.,0.));
#186=DIRECTION('center_axis',(0.,0.,1.));
#187=DIRECTION('ref_axis',(1.,0.,0.));
#188=DIRECTION('center_axis',(1.22464679914735E-16,-1.,0.));
#189=DIRECTION('ref_axis',(-1.,-1.22464679914735E-16,0.));
#190=DIRECTION('center_axis',(0.,0.,1.));
#191=DIRECTION('ref_axis',(1.,0.,0.));
#192=DIRECTION('center_axis',(0.,0.,-1.));
#193=DIRECTION('ref_axis',(-1.,0.,0.));
#194=CARTESIAN_POINT('',(0.,0.,0.));
#195=CARTESIAN_POINT('Origin',(0.,0.,36.9194109070751));
#196=CARTESIAN_POINT('',(-30.,-3.67394039744206E-15,36.9194109070751));
#197=CARTESIAN_POINT('Origin',(0.,0.,36.9194109070751));
#198=CARTESIAN_POINT('',(-28.6607142857143,-3.50992520112768E-15,35.4280454527456));
#199=CARTESIAN_POINT('Origin',(-28.5,-3.49024337756996E-15,36.9194109070751));
#200=CARTESIAN_POINT('Origin',(0.,0.,35.4280454527456));
#201=CARTESIAN_POINT('Origin',(0.,0.,40.75));
#202=CARTESIAN_POINT('',(-30.,-3.67394039744206E-15,46.));
#203=CARTESIAN_POINT('Origin',(0.,0.,46.));
#204=CARTESIAN_POINT('',(-30.,-3.67394039744206E-15,40.75));
#205=CARTESIAN_POINT('Origin',(0.,0.,9.08058909292494));
#206=CARTESIAN_POINT('',(-28.6607142857143,-3.50992520112768E-15,10.5719545472544));
#207=CARTESIAN_POINT('Origin',(0.,0.,10.5719545472544));
#208=CARTESIAN_POINT('',(-30.,-3.67394039744206E-15,9.08058909292494));
#209=CARTESIAN_POINT('Origin',(-28.5,-3.49024337756996E-15,9.08058909292494));
#210=CARTESIAN_POINT('Origin',(0.,0.,9.08058909292494));
#211=CARTESIAN_POINT('Origin',(0.,0.,5.25));
#212=CARTESIAN_POINT('',(-30.,-3.67394039744206E-15,0.));
#213=CARTESIAN_POINT('',(-30.,-3.67394039744206E-15,5.25));
#214=CARTESIAN_POINT('Origin',(0.,0.,0.));
#215=CARTESIAN_POINT('Origin',(0.,0.,-204.));
#216=CARTESIAN_POINT('',(-7.34788079488412E-16,-6.,46.));
#217=CARTESIAN_POINT('Origin',(0.,0.,46.));
#218=CARTESIAN_POINT('',(7.34788079488412E-16,-6.,0.));
#219=CARTESIAN_POINT('',(-7.34788079488412E-16,-6.,-204.));
#220=CARTESIAN_POINT('Origin',(0.,0.,0.));
#221=CARTESIAN_POINT('Origin',(0.,0.,23.));
#222=CARTESIAN_POINT('Origin',(-30.,-3.67394039744206E-15,23.));
#223=CARTESIAN_POINT('Origin',(0.,0.,46.));
#224=CARTESIAN_POINT('Origin',(30.,0.,0.));
#225=UNCERTAINTY_MEASURE_WITH_UNIT(LENGTH_MEASURE(0.01),#229,
'DISTANCE_ACCURACY_VALUE',
'Maximum model space distance between geometric entities at asserted c
onnectivities');
#226=UNCERTAINTY_MEASURE_WITH_UNIT(LENGTH_MEASURE(0.01),#229,
'DISTANCE_ACCURACY_VALUE',
'Maximum model space distance between geometric entities at asserted c
onnectivities');
#227=(
GEOMETRIC_REPRESENTATION_CONTEXT(3)
GLOBAL_UNCERTAINTY_ASSIGNED_CONTEXT((#225))
GLOBAL_UNIT_ASSIGNED_CONTEXT((#229,#231,#232))
REPRESENTATION_CONTEXT('','3D')
);
#228=(
GEOMETRIC_REPRESENTATION_CONTEXT(3)
GLOBAL_UNCERTAINTY_ASSIGNED_CONTEXT((#226))
GLOBAL_UNIT_ASSIGNED_CONTEXT((#229,#231,#232))
REPRESENTATION_CONTEXT('','3D')
);
#229=(
LENGTH_UNIT()
NAMED_UNIT(*)
SI_UNIT(.MILLI.,.METRE.)
);
#230=(
LENGTH_UNIT()
NAMED_UNIT(*)
SI_UNIT($,.METRE.)
);
#231=(
NAMED_UNIT(*)
PLANE_ANGLE_UNIT()
SI_UNIT($,.RADIAN.)
);
#232=(
NAMED_UNIT(*)
SI_UNIT($,.STERADIAN.)
SOLID_ANGLE_UNIT()
);
#233=SHAPE_DEFINITION_REPRESENTATION(#234,#235);
#234=PRODUCT_DEFINITION_SHAPE('',$,#237);
#235=SHAPE_REPRESENTATION('',(#131),#227);
#236=PRODUCT_DEFINITION_CONTEXT('part definition',#241,'design');
#237=PRODUCT_DEFINITION('galet 60 tube 25','galet 60 tube 25 v1',#238,#236);
#238=PRODUCT_DEFINITION_FORMATION('',$,#243);
#239=PRODUCT_RELATED_PRODUCT_CATEGORY('galet 60 tube 25 v1',
'galet 60 tube 25 v1',(#243));
#240=APPLICATION_PROTOCOL_DEFINITION('international standard',
'automotive_design',2009,#241);
#241=APPLICATION_CONTEXT(
'Core Data for Automotive Mechanical Design Process');
#242=PRODUCT_CONTEXT('part definition',#241,'mechanical');
#243=PRODUCT('galet 60 tube 25','galet 60 tube 25 v1',$,(#242));
#244=PRESENTATION_STYLE_ASSIGNMENT((#245));
#245=SURFACE_STYLE_USAGE(.BOTH.,#246);
#246=SURFACE_SIDE_STYLE('',(#247));
#247=SURFACE_STYLE_FILL_AREA(#248);
#248=FILL_AREA_STYLE('Acier - Satin\X\E9',(#249));
#249=FILL_AREA_STYLE_COLOUR('Acier - Satin\X\E9',#250);
#250=COLOUR_RGB('Acier - Satin\X\E9',0.627450980392157,0.627450980392157,
0.627450980392157);
ENDSEC;
END-ISO-10303-21;
