ISO-10303-21;
HEADER;
/* Generated by software containing ST-Developer
 * from STEP Tools, Inc. (www.steptools.com) 
 */

FILE_DESCRIPTION(
/* description */ (''),
/* implementation_level */ '2;1');

FILE_NAME(
/* name */ 'C:/Users/Olivier/Downloads/galet de meuble v1.step',
/* time_stamp */ '2022-01-03T16:20:22+01:00',
/* author */ (''),
/* organization */ (''),
/* preprocessor_version */ 'ST-DEVELOPER v18.1',
/* originating_system */ 'Autodesk Translation Framework v10.10.0.1391',

/* authorisation */ '');

FILE_SCHEMA (('AUTOMOTIVE_DESIGN { 1 0 10303 214 3 1 1 }'));
ENDSEC;

DATA;
#10=MECHANICAL_DESIGN_GEOMETRIC_PRESENTATION_REPRESENTATION('',(#13),#340);
#11=SHAPE_REPRESENTATION_RELATIONSHIP('SRR','None',#347,#12);
#12=ADVANCED_BREP_SHAPE_REPRESENTATION('',(#14),#339);
#13=STYLED_ITEM('',(#356),#14);
#14=MANIFOLD_SOLID_BREP('Corps1',#184);
#15=FACE_BOUND('',#49,.T.);
#16=FACE_BOUND('',#52,.T.);
#17=FACE_BOUND('',#55,.T.);
#18=FACE_BOUND('',#58,.T.);
#19=FACE_BOUND('',#61,.T.);
#20=FACE_BOUND('',#64,.T.);
#21=PLANE('',#204);
#22=PLANE('',#208);
#23=PLANE('',#212);
#24=PLANE('',#216);
#25=PLANE('',#220);
#26=PLANE('',#224);
#27=CYLINDRICAL_SURFACE('',#202,14.);
#28=CYLINDRICAL_SURFACE('',#206,8.);
#29=CYLINDRICAL_SURFACE('',#210,3.);
#30=CYLINDRICAL_SURFACE('',#214,8.);
#31=CYLINDRICAL_SURFACE('',#218,14.);
#32=CYLINDRICAL_SURFACE('',#222,11.);
#33=FACE_OUTER_BOUND('',#46,.T.);
#34=FACE_OUTER_BOUND('',#47,.T.);
#35=FACE_OUTER_BOUND('',#48,.T.);
#36=FACE_OUTER_BOUND('',#50,.T.);
#37=FACE_OUTER_BOUND('',#51,.T.);
#38=FACE_OUTER_BOUND('',#53,.T.);
#39=FACE_OUTER_BOUND('',#54,.T.);
#40=FACE_OUTER_BOUND('',#56,.T.);
#41=FACE_OUTER_BOUND('',#57,.T.);
#42=FACE_OUTER_BOUND('',#59,.T.);
#43=FACE_OUTER_BOUND('',#60,.T.);
#44=FACE_OUTER_BOUND('',#62,.T.);
#45=FACE_OUTER_BOUND('',#63,.T.);
#46=EDGE_LOOP('',(#128,#129,#130,#131,#132));
#47=EDGE_LOOP('',(#133,#134,#135,#136,#137));
#48=EDGE_LOOP('',(#138));
#49=EDGE_LOOP('',(#139));
#50=EDGE_LOOP('',(#140,#141,#142,#143));
#51=EDGE_LOOP('',(#144));
#52=EDGE_LOOP('',(#145));
#53=EDGE_LOOP('',(#146,#147,#148,#149));
#54=EDGE_LOOP('',(#150));
#55=EDGE_LOOP('',(#151));
#56=EDGE_LOOP('',(#152,#153,#154,#155));
#57=EDGE_LOOP('',(#156));
#58=EDGE_LOOP('',(#157));
#59=EDGE_LOOP('',(#158,#159,#160,#161));
#60=EDGE_LOOP('',(#162));
#61=EDGE_LOOP('',(#163));
#62=EDGE_LOOP('',(#164,#165,#166,#167));
#63=EDGE_LOOP('',(#168));
#64=EDGE_LOOP('',(#169));
#65=LINE('',#293,#72);
#66=LINE('',#299,#73);
#67=LINE('',#306,#74);
#68=LINE('',#313,#75);
#69=LINE('',#320,#76);
#70=LINE('',#328,#77);
#71=LINE('',#335,#78);
#72=VECTOR('',#231,13.25);
#73=VECTOR('',#238,14.);
#74=VECTOR('',#247,8.);
#75=VECTOR('',#256,3.);
#76=VECTOR('',#265,8.);
#77=VECTOR('',#276,14.);
#78=VECTOR('',#285,11.);
#79=CIRCLE('',#199,12.5);
#80=CIRCLE('',#200,14.);
#81=CIRCLE('',#201,14.);
#82=CIRCLE('',#203,14.);
#83=CIRCLE('',#205,8.);
#84=CIRCLE('',#207,8.);
#85=CIRCLE('',#209,3.);
#86=CIRCLE('',#211,3.);
#87=CIRCLE('',#213,8.);
#88=CIRCLE('',#215,8.);
#89=CIRCLE('',#217,14.);
#90=CIRCLE('',#219,14.);
#91=CIRCLE('',#221,11.);
#92=CIRCLE('',#223,11.);
#93=VERTEX_POINT('',#290);
#94=VERTEX_POINT('',#292);
#95=VERTEX_POINT('',#294);
#96=VERTEX_POINT('',#298);
#97=VERTEX_POINT('',#302);
#98=VERTEX_POINT('',#305);
#99=VERTEX_POINT('',#309);
#100=VERTEX_POINT('',#312);
#101=VERTEX_POINT('',#316);
#102=VERTEX_POINT('',#319);
#103=VERTEX_POINT('',#323);
#104=VERTEX_POINT('',#326);
#105=VERTEX_POINT('',#330);
#106=VERTEX_POINT('',#333);
#107=EDGE_CURVE('',#93,#93,#79,.T.);
#108=EDGE_CURVE('',#93,#94,#65,.T.);
#109=EDGE_CURVE('',#94,#95,#80,.T.);
#110=EDGE_CURVE('',#95,#94,#81,.T.);
#111=EDGE_CURVE('',#95,#96,#66,.T.);
#112=EDGE_CURVE('',#96,#96,#82,.T.);
#113=EDGE_CURVE('',#97,#97,#83,.T.);
#114=EDGE_CURVE('',#97,#98,#67,.T.);
#115=EDGE_CURVE('',#98,#98,#84,.T.);
#116=EDGE_CURVE('',#99,#99,#85,.T.);
#117=EDGE_CURVE('',#99,#100,#68,.T.);
#118=EDGE_CURVE('',#100,#100,#86,.T.);
#119=EDGE_CURVE('',#101,#101,#87,.T.);
#120=EDGE_CURVE('',#101,#102,#69,.T.);
#121=EDGE_CURVE('',#102,#102,#88,.T.);
#122=EDGE_CURVE('',#103,#103,#89,.T.);
#123=EDGE_CURVE('',#104,#104,#90,.T.);
#124=EDGE_CURVE('',#104,#103,#70,.T.);
#125=EDGE_CURVE('',#105,#105,#91,.T.);
#126=EDGE_CURVE('',#106,#106,#92,.T.);
#127=EDGE_CURVE('',#106,#105,#71,.T.);
#128=ORIENTED_EDGE('',*,*,#107,.T.);
#129=ORIENTED_EDGE('',*,*,#108,.T.);
#130=ORIENTED_EDGE('',*,*,#109,.T.);
#131=ORIENTED_EDGE('',*,*,#110,.T.);
#132=ORIENTED_EDGE('',*,*,#108,.F.);
#133=ORIENTED_EDGE('',*,*,#109,.F.);
#134=ORIENTED_EDGE('',*,*,#110,.F.);
#135=ORIENTED_EDGE('',*,*,#111,.T.);
#136=ORIENTED_EDGE('',*,*,#112,.T.);
#137=ORIENTED_EDGE('',*,*,#111,.F.);
#138=ORIENTED_EDGE('',*,*,#107,.F.);
#139=ORIENTED_EDGE('',*,*,#113,.F.);
#140=ORIENTED_EDGE('',*,*,#113,.T.);
#141=ORIENTED_EDGE('',*,*,#114,.T.);
#142=ORIENTED_EDGE('',*,*,#115,.F.);
#143=ORIENTED_EDGE('',*,*,#114,.F.);
#144=ORIENTED_EDGE('',*,*,#115,.T.);
#145=ORIENTED_EDGE('',*,*,#116,.F.);
#146=ORIENTED_EDGE('',*,*,#116,.T.);
#147=ORIENTED_EDGE('',*,*,#117,.T.);
#148=ORIENTED_EDGE('',*,*,#118,.F.);
#149=ORIENTED_EDGE('',*,*,#117,.F.);
#150=ORIENTED_EDGE('',*,*,#119,.F.);
#151=ORIENTED_EDGE('',*,*,#118,.T.);
#152=ORIENTED_EDGE('',*,*,#119,.T.);
#153=ORIENTED_EDGE('',*,*,#120,.T.);
#154=ORIENTED_EDGE('',*,*,#121,.F.);
#155=ORIENTED_EDGE('',*,*,#120,.F.);
#156=ORIENTED_EDGE('',*,*,#122,.F.);
#157=ORIENTED_EDGE('',*,*,#121,.T.);
#158=ORIENTED_EDGE('',*,*,#123,.F.);
#159=ORIENTED_EDGE('',*,*,#124,.T.);
#160=ORIENTED_EDGE('',*,*,#122,.T.);
#161=ORIENTED_EDGE('',*,*,#124,.F.);
#162=ORIENTED_EDGE('',*,*,#123,.T.);
#163=ORIENTED_EDGE('',*,*,#125,.F.);
#164=ORIENTED_EDGE('',*,*,#126,.F.);
#165=ORIENTED_EDGE('',*,*,#127,.T.);
#166=ORIENTED_EDGE('',*,*,#125,.T.);
#167=ORIENTED_EDGE('',*,*,#127,.F.);
#168=ORIENTED_EDGE('',*,*,#112,.F.);
#169=ORIENTED_EDGE('',*,*,#126,.T.);
#170=CONICAL_SURFACE('',#198,13.25,0.785398163397449);
#171=ADVANCED_FACE('',(#33),#170,.T.);
#172=ADVANCED_FACE('',(#34),#27,.T.);
#173=ADVANCED_FACE('',(#35,#15),#21,.T.);
#174=ADVANCED_FACE('',(#36),#28,.F.);
#175=ADVANCED_FACE('',(#37,#16),#22,.T.);
#176=ADVANCED_FACE('',(#38),#29,.F.);
#177=ADVANCED_FACE('',(#39,#17),#23,.T.);
#178=ADVANCED_FACE('',(#40),#30,.F.);
#179=ADVANCED_FACE('',(#41,#18),#24,.T.);
#180=ADVANCED_FACE('',(#42),#31,.T.);
#181=ADVANCED_FACE('',(#43,#19),#25,.T.);
#182=ADVANCED_FACE('',(#44),#32,.T.);
#183=ADVANCED_FACE('',(#45,#20),#26,.T.);
#184=CLOSED_SHELL('',(#171,#172,#173,#174,#175,#176,#177,#178,#179,#180,
#181,#182,#183));
#185=DERIVED_UNIT_ELEMENT(#187,1.);
#186=DERIVED_UNIT_ELEMENT(#342,-3.);
#187=(
MASS_UNIT()
NAMED_UNIT(*)
SI_UNIT(.KILO.,.GRAM.)
);
#188=DERIVED_UNIT((#185,#186));
#189=MEASURE_REPRESENTATION_ITEM('density measure',
POSITIVE_RATIO_MEASURE(7850.),#188);
#190=PROPERTY_DEFINITION_REPRESENTATION(#195,#192);
#191=PROPERTY_DEFINITION_REPRESENTATION(#196,#193);
#192=REPRESENTATION('material name',(#194),#339);
#193=REPRESENTATION('density',(#189),#339);
#194=DESCRIPTIVE_REPRESENTATION_ITEM('Acier','Acier');
#195=PROPERTY_DEFINITION('material property','material name',#349);
#196=PROPERTY_DEFINITION('material property','density of part',#349);
#197=AXIS2_PLACEMENT_3D('placement',#288,#225,#226);
#198=AXIS2_PLACEMENT_3D('',#289,#227,#228);
#199=AXIS2_PLACEMENT_3D('',#291,#229,#230);
#200=AXIS2_PLACEMENT_3D('',#295,#232,#233);
#201=AXIS2_PLACEMENT_3D('',#296,#234,#235);
#202=AXIS2_PLACEMENT_3D('',#297,#236,#237);
#203=AXIS2_PLACEMENT_3D('',#300,#239,#240);
#204=AXIS2_PLACEMENT_3D('',#301,#241,#242);
#205=AXIS2_PLACEMENT_3D('',#303,#243,#244);
#206=AXIS2_PLACEMENT_3D('',#304,#245,#246);
#207=AXIS2_PLACEMENT_3D('',#307,#248,#249);
#208=AXIS2_PLACEMENT_3D('',#308,#250,#251);
#209=AXIS2_PLACEMENT_3D('',#310,#252,#253);
#210=AXIS2_PLACEMENT_3D('',#311,#254,#255);
#211=AXIS2_PLACEMENT_3D('',#314,#257,#258);
#212=AXIS2_PLACEMENT_3D('',#315,#259,#260);
#213=AXIS2_PLACEMENT_3D('',#317,#261,#262);
#214=AXIS2_PLACEMENT_3D('',#318,#263,#264);
#215=AXIS2_PLACEMENT_3D('',#321,#266,#267);
#216=AXIS2_PLACEMENT_3D('',#322,#268,#269);
#217=AXIS2_PLACEMENT_3D('',#324,#270,#271);
#218=AXIS2_PLACEMENT_3D('',#325,#272,#273);
#219=AXIS2_PLACEMENT_3D('',#327,#274,#275);
#220=AXIS2_PLACEMENT_3D('',#329,#277,#278);
#221=AXIS2_PLACEMENT_3D('',#331,#279,#280);
#222=AXIS2_PLACEMENT_3D('',#332,#281,#282);
#223=AXIS2_PLACEMENT_3D('',#334,#283,#284);
#224=AXIS2_PLACEMENT_3D('',#336,#286,#287);
#225=DIRECTION('axis',(0.,0.,1.));
#226=DIRECTION('refdir',(1.,0.,0.));
#227=DIRECTION('center_axis',(1.,0.,0.));
#228=DIRECTION('ref_axis',(0.,0.,-1.));
#229=DIRECTION('center_axis',(1.,0.,0.));
#230=DIRECTION('ref_axis',(0.,0.,-1.));
#231=DIRECTION('',(0.707106781186547,8.65956056235494E-17,0.707106781186548));
#232=DIRECTION('center_axis',(-1.,0.,0.));
#233=DIRECTION('ref_axis',(0.,0.,-1.));
#234=DIRECTION('center_axis',(-1.,0.,0.));
#235=DIRECTION('ref_axis',(0.,0.,-1.));
#236=DIRECTION('center_axis',(-1.,0.,0.));
#237=DIRECTION('ref_axis',(0.,0.,1.));
#238=DIRECTION('',(1.,0.,0.));
#239=DIRECTION('center_axis',(-1.,0.,0.));
#240=DIRECTION('ref_axis',(0.,0.,1.));
#241=DIRECTION('center_axis',(-1.,0.,0.));
#242=DIRECTION('ref_axis',(0.,0.,1.));
#243=DIRECTION('center_axis',(-1.,0.,0.));
#244=DIRECTION('ref_axis',(0.,0.,1.));
#245=DIRECTION('center_axis',(-1.,0.,0.));
#246=DIRECTION('ref_axis',(0.,0.,1.));
#247=DIRECTION('',(1.,0.,0.));
#248=DIRECTION('center_axis',(-1.,0.,0.));
#249=DIRECTION('ref_axis',(0.,0.,1.));
#250=DIRECTION('center_axis',(-1.,0.,0.));
#251=DIRECTION('ref_axis',(0.,0.,1.));
#252=DIRECTION('center_axis',(-1.,0.,0.));
#253=DIRECTION('ref_axis',(0.,0.,1.));
#254=DIRECTION('center_axis',(-1.,0.,0.));
#255=DIRECTION('ref_axis',(0.,0.,1.));
#256=DIRECTION('',(1.,0.,0.));
#257=DIRECTION('center_axis',(-1.,0.,0.));
#258=DIRECTION('ref_axis',(0.,0.,1.));
#259=DIRECTION('center_axis',(1.,0.,0.));
#260=DIRECTION('ref_axis',(0.,0.,-1.));
#261=DIRECTION('center_axis',(-1.,0.,0.));
#262=DIRECTION('ref_axis',(0.,0.,1.));
#263=DIRECTION('center_axis',(-1.,0.,0.));
#264=DIRECTION('ref_axis',(0.,0.,1.));
#265=DIRECTION('',(1.,0.,0.));
#266=DIRECTION('center_axis',(-1.,0.,0.));
#267=DIRECTION('ref_axis',(0.,0.,1.));
#268=DIRECTION('center_axis',(1.,0.,0.));
#269=DIRECTION('ref_axis',(0.,0.,-1.));
#270=DIRECTION('center_axis',(-1.,0.,0.));
#271=DIRECTION('ref_axis',(0.,0.,1.));
#272=DIRECTION('center_axis',(-1.,0.,0.));
#273=DIRECTION('ref_axis',(0.,0.,1.));
#274=DIRECTION('center_axis',(-1.,0.,0.));
#275=DIRECTION('ref_axis',(0.,0.,1.));
#276=DIRECTION('',(1.,0.,0.));
#277=DIRECTION('center_axis',(-1.,0.,0.));
#278=DIRECTION('ref_axis',(0.,0.,1.));
#279=DIRECTION('center_axis',(-1.,0.,0.));
#280=DIRECTION('ref_axis',(0.,0.,1.));
#281=DIRECTION('center_axis',(-1.,0.,0.));
#282=DIRECTION('ref_axis',(0.,0.,1.));
#283=DIRECTION('center_axis',(-1.,0.,0.));
#284=DIRECTION('ref_axis',(0.,0.,1.));
#285=DIRECTION('',(1.,0.,0.));
#286=DIRECTION('center_axis',(1.,0.,0.));
#287=DIRECTION('ref_axis',(0.,0.,-1.));
#288=CARTESIAN_POINT('',(0.,0.,0.));
#289=CARTESIAN_POINT('Origin',(-10.25,0.,0.));
#290=CARTESIAN_POINT('',(-11.,-1.53080849893419E-15,12.5));
#291=CARTESIAN_POINT('Origin',(-11.,0.,0.));
#292=CARTESIAN_POINT('',(-9.5,1.71450551880629E-15,14.));
#293=CARTESIAN_POINT('',(-10.25,1.62265700887024E-15,13.25));
#294=CARTESIAN_POINT('',(-9.5,-1.71450551880629E-15,-14.));
#295=CARTESIAN_POINT('Origin',(-9.5,0.,0.));
#296=CARTESIAN_POINT('Origin',(-9.5,0.,0.));
#297=CARTESIAN_POINT('Origin',(-9.25,0.,0.));
#298=CARTESIAN_POINT('',(-7.5,-1.71450551880629E-15,-14.));
#299=CARTESIAN_POINT('',(-9.25,-1.71450551880629E-15,-14.));
#300=CARTESIAN_POINT('Origin',(-7.5,0.,0.));
#301=CARTESIAN_POINT('Origin',(-11.,0.,8.));
#302=CARTESIAN_POINT('',(-11.,-9.79717439317883E-16,-8.));
#303=CARTESIAN_POINT('Origin',(-11.,0.,0.));
#304=CARTESIAN_POINT('Origin',(-4.5,0.,0.));
#305=CARTESIAN_POINT('',(2.,-9.79717439317883E-16,-8.));
#306=CARTESIAN_POINT('',(-4.5,-9.79717439317883E-16,-8.));
#307=CARTESIAN_POINT('Origin',(2.,0.,0.));
#308=CARTESIAN_POINT('Origin',(2.,0.,3.));
#309=CARTESIAN_POINT('',(2.,-3.67394039744206E-16,-3.));
#310=CARTESIAN_POINT('Origin',(2.,0.,0.));
#311=CARTESIAN_POINT('Origin',(3.5,0.,0.));
#312=CARTESIAN_POINT('',(5.,-3.67394039744206E-16,-3.));
#313=CARTESIAN_POINT('',(3.5,-3.67394039744206E-16,-3.));
#314=CARTESIAN_POINT('Origin',(5.,0.,0.));
#315=CARTESIAN_POINT('Origin',(5.,0.,8.));
#316=CARTESIAN_POINT('',(5.,-9.79717439317883E-16,-8.));
#317=CARTESIAN_POINT('Origin',(5.,0.,0.));
#318=CARTESIAN_POINT('Origin',(8.,0.,0.));
#319=CARTESIAN_POINT('',(11.,-9.79717439317883E-16,-8.));
#320=CARTESIAN_POINT('',(8.,-9.79717439317883E-16,-8.));
#321=CARTESIAN_POINT('Origin',(11.,0.,0.));
#322=CARTESIAN_POINT('Origin',(11.,0.,14.));
#323=CARTESIAN_POINT('',(11.,-1.71450551880629E-15,-14.));
#324=CARTESIAN_POINT('Origin',(11.,0.,0.));
#325=CARTESIAN_POINT('Origin',(4.6,0.,0.));
#326=CARTESIAN_POINT('',(-1.8,-1.71450551880629E-15,-14.));
#327=CARTESIAN_POINT('Origin',(-1.8,0.,0.));
#328=CARTESIAN_POINT('',(4.6,-1.71450551880629E-15,-14.));
#329=CARTESIAN_POINT('Origin',(-1.8,0.,11.));
#330=CARTESIAN_POINT('',(-1.8,-1.34711147906209E-15,-11.));
#331=CARTESIAN_POINT('Origin',(-1.8,0.,0.));
#332=CARTESIAN_POINT('Origin',(-4.65,0.,0.));
#333=CARTESIAN_POINT('',(-7.5,-1.34711147906209E-15,-11.));
#334=CARTESIAN_POINT('Origin',(-7.5,0.,0.));
#335=CARTESIAN_POINT('',(-4.65,-1.34711147906209E-15,-11.));
#336=CARTESIAN_POINT('Origin',(-7.5,0.,14.));
#337=UNCERTAINTY_MEASURE_WITH_UNIT(LENGTH_MEASURE(0.01),#341,
'DISTANCE_ACCURACY_VALUE',
'Maximum model space distance between geometric entities at asserted c
onnectivities');
#338=UNCERTAINTY_MEASURE_WITH_UNIT(LENGTH_MEASURE(0.01),#341,
'DISTANCE_ACCURACY_VALUE',
'Maximum model space distance between geometric entities at asserted c
onnectivities');
#339=(
GEOMETRIC_REPRESENTATION_CONTEXT(3)
GLOBAL_UNCERTAINTY_ASSIGNED_CONTEXT((#337))
GLOBAL_UNIT_ASSIGNED_CONTEXT((#341,#343,#344))
REPRESENTATION_CONTEXT('','3D')
);
#340=(
GEOMETRIC_REPRESENTATION_CONTEXT(3)
GLOBAL_UNCERTAINTY_ASSIGNED_CONTEXT((#338))
GLOBAL_UNIT_ASSIGNED_CONTEXT((#341,#343,#344))
REPRESENTATION_CONTEXT('','3D')
);
#341=(
LENGTH_UNIT()
NAMED_UNIT(*)
SI_UNIT(.MILLI.,.METRE.)
);
#342=(
LENGTH_UNIT()
NAMED_UNIT(*)
SI_UNIT($,.METRE.)
);
#343=(
NAMED_UNIT(*)
PLANE_ANGLE_UNIT()
SI_UNIT($,.RADIAN.)
);
#344=(
NAMED_UNIT(*)
SI_UNIT($,.STERADIAN.)
SOLID_ANGLE_UNIT()
);
#345=SHAPE_DEFINITION_REPRESENTATION(#346,#347);
#346=PRODUCT_DEFINITION_SHAPE('',$,#349);
#347=SHAPE_REPRESENTATION('',(#197),#339);
#348=PRODUCT_DEFINITION_CONTEXT('part definition',#353,'design');
#349=PRODUCT_DEFINITION('galet de meuble','galet de meuble v1',#350,#348);
#350=PRODUCT_DEFINITION_FORMATION('',$,#355);
#351=PRODUCT_RELATED_PRODUCT_CATEGORY('galet de meuble v1',
'galet de meuble v1',(#355));
#352=APPLICATION_PROTOCOL_DEFINITION('international standard',
'automotive_design',2009,#353);
#353=APPLICATION_CONTEXT(
'Core Data for Automotive Mechanical Design Process');
#354=PRODUCT_CONTEXT('part definition',#353,'mechanical');
#355=PRODUCT('galet de meuble','galet de meuble v1',$,(#354));
#356=PRESENTATION_STYLE_ASSIGNMENT((#357));
#357=SURFACE_STYLE_USAGE(.BOTH.,#358);
#358=SURFACE_SIDE_STYLE('',(#359));
#359=SURFACE_STYLE_FILL_AREA(#360);
#360=FILL_AREA_STYLE('Acier - Satin\X\E9',(#361));
#361=FILL_AREA_STYLE_COLOUR('Acier - Satin\X\E9',#362);
#362=COLOUR_RGB('Acier - Satin\X\E9',0.627450980392157,0.627450980392157,
0.627450980392157);
ENDSEC;
END-ISO-10303-21;
