ISO-10303-21;
HEADER;
/* Generated by software containing ST-Developer
 * from STEP Tools, Inc. (www.steptools.com) 
 */

FILE_DESCRIPTION(
/* description */ (''),
/* implementation_level */ '2;1');

FILE_NAME(
/* name */ 
'C:/Users/Alex/Desktop/Projet 600x600/v2/Pour ju/piece 3.step',
/* time_stamp */ '2022-01-05T16:59:52+01:00',
/* author */ (''),
/* organization */ (''),
/* preprocessor_version */ 'ST-DEVELOPER v18.1',
/* originating_system */ 'Autodesk Translation Framework v10.10.0.1391',

/* authorisation */ '');

FILE_SCHEMA (('AUTOMOTIVE_DESIGN { 1 0 10303 214 3 1 1 }'));
ENDSEC;

DATA;
#10=MECHANICAL_DESIGN_GEOMETRIC_PRESENTATION_REPRESENTATION('',(#13),#658);
#11=SHAPE_REPRESENTATION_RELATIONSHIP('SRR','None',#665,#12);
#12=ADVANCED_BREP_SHAPE_REPRESENTATION('',(#14),#657);
#13=STYLED_ITEM('',(#674),#14);
#14=MANIFOLD_SOLID_BREP('Corps3',#390);
#15=FACE_BOUND('',#76,.T.);
#16=FACE_BOUND('',#77,.T.);
#17=FACE_BOUND('',#78,.T.);
#18=FACE_BOUND('',#79,.T.);
#19=FACE_BOUND('',#80,.T.);
#20=FACE_BOUND('',#81,.T.);
#21=FACE_BOUND('',#82,.T.);
#22=FACE_BOUND('',#84,.T.);
#23=FACE_BOUND('',#85,.T.);
#24=FACE_BOUND('',#86,.T.);
#25=FACE_BOUND('',#87,.T.);
#26=FACE_BOUND('',#88,.T.);
#27=FACE_BOUND('',#89,.T.);
#28=FACE_BOUND('',#90,.T.);
#29=PLANE('',#413);
#30=PLANE('',#417);
#31=PLANE('',#424);
#32=PLANE('',#428);
#33=PLANE('',#435);
#34=PLANE('',#436);
#35=PLANE('',#437);
#36=PLANE('',#438);
#37=PLANE('',#439);
#38=PLANE('',#440);
#39=FACE_OUTER_BOUND('',#58,.T.);
#40=FACE_OUTER_BOUND('',#59,.T.);
#41=FACE_OUTER_BOUND('',#60,.T.);
#42=FACE_OUTER_BOUND('',#61,.T.);
#43=FACE_OUTER_BOUND('',#62,.T.);
#44=FACE_OUTER_BOUND('',#63,.T.);
#45=FACE_OUTER_BOUND('',#64,.T.);
#46=FACE_OUTER_BOUND('',#65,.T.);
#47=FACE_OUTER_BOUND('',#66,.T.);
#48=FACE_OUTER_BOUND('',#67,.T.);
#49=FACE_OUTER_BOUND('',#68,.T.);
#50=FACE_OUTER_BOUND('',#69,.T.);
#51=FACE_OUTER_BOUND('',#70,.T.);
#52=FACE_OUTER_BOUND('',#71,.T.);
#53=FACE_OUTER_BOUND('',#72,.T.);
#54=FACE_OUTER_BOUND('',#73,.T.);
#55=FACE_OUTER_BOUND('',#74,.T.);
#56=FACE_OUTER_BOUND('',#75,.T.);
#57=FACE_OUTER_BOUND('',#83,.T.);
#58=EDGE_LOOP('',(#260,#261,#262,#263));
#59=EDGE_LOOP('',(#264,#265,#266,#267));
#60=EDGE_LOOP('',(#268,#269,#270,#271));
#61=EDGE_LOOP('',(#272,#273,#274,#275));
#62=EDGE_LOOP('',(#276,#277,#278,#279));
#63=EDGE_LOOP('',(#280,#281,#282,#283));
#64=EDGE_LOOP('',(#284,#285,#286,#287));
#65=EDGE_LOOP('',(#288,#289,#290,#291));
#66=EDGE_LOOP('',(#292,#293,#294,#295));
#67=EDGE_LOOP('',(#296,#297,#298,#299));
#68=EDGE_LOOP('',(#300,#301,#302,#303));
#69=EDGE_LOOP('',(#304,#305,#306,#307));
#70=EDGE_LOOP('',(#308,#309,#310,#311));
#71=EDGE_LOOP('',(#312,#313,#314,#315));
#72=EDGE_LOOP('',(#316,#317,#318,#319));
#73=EDGE_LOOP('',(#320,#321,#322,#323));
#74=EDGE_LOOP('',(#324,#325,#326,#327));
#75=EDGE_LOOP('',(#328,#329,#330,#331));
#76=EDGE_LOOP('',(#332));
#77=EDGE_LOOP('',(#333));
#78=EDGE_LOOP('',(#334));
#79=EDGE_LOOP('',(#335));
#80=EDGE_LOOP('',(#336,#337,#338,#339));
#81=EDGE_LOOP('',(#340));
#82=EDGE_LOOP('',(#341,#342,#343,#344));
#83=EDGE_LOOP('',(#345,#346,#347,#348));
#84=EDGE_LOOP('',(#349));
#85=EDGE_LOOP('',(#350));
#86=EDGE_LOOP('',(#351));
#87=EDGE_LOOP('',(#352));
#88=EDGE_LOOP('',(#353,#354,#355,#356));
#89=EDGE_LOOP('',(#357));
#90=EDGE_LOOP('',(#358,#359,#360,#361));
#91=LINE('',#555,#124);
#92=LINE('',#561,#125);
#93=LINE('',#567,#126);
#94=LINE('',#572,#127);
#95=LINE('',#574,#128);
#96=LINE('',#576,#129);
#97=LINE('',#577,#130);
#98=LINE('',#583,#131);
#99=LINE('',#586,#132);
#100=LINE('',#588,#133);
#101=LINE('',#589,#134);
#102=LINE('',#597,#135);
#103=LINE('',#602,#136);
#104=LINE('',#604,#137);
#105=LINE('',#606,#138);
#106=LINE('',#607,#139);
#107=LINE('',#613,#140);
#108=LINE('',#616,#141);
#109=LINE('',#618,#142);
#110=LINE('',#619,#143);
#111=LINE('',#627,#144);
#112=LINE('',#632,#145);
#113=LINE('',#634,#146);
#114=LINE('',#636,#147);
#115=LINE('',#637,#148);
#116=LINE('',#640,#149);
#117=LINE('',#642,#150);
#118=LINE('',#643,#151);
#119=LINE('',#646,#152);
#120=LINE('',#648,#153);
#121=LINE('',#649,#154);
#122=LINE('',#651,#155);
#123=LINE('',#652,#156);
#124=VECTOR('',#447,1.5);
#125=VECTOR('',#454,1.5);
#126=VECTOR('',#461,1.5);
#127=VECTOR('',#466,10.);
#128=VECTOR('',#467,10.);
#129=VECTOR('',#468,10.);
#130=VECTOR('',#469,10.);
#131=VECTOR('',#476,10.);
#132=VECTOR('',#479,10.);
#133=VECTOR('',#480,10.);
#134=VECTOR('',#481,10.);
#135=VECTOR('',#492,1.5);
#136=VECTOR('',#497,10.);
#137=VECTOR('',#498,10.);
#138=VECTOR('',#499,10.);
#139=VECTOR('',#500,10.);
#140=VECTOR('',#507,10.);
#141=VECTOR('',#510,10.);
#142=VECTOR('',#511,10.);
#143=VECTOR('',#512,10.);
#144=VECTOR('',#523,1.5);
#145=VECTOR('',#528,10.);
#146=VECTOR('',#529,10.);
#147=VECTOR('',#530,10.);
#148=VECTOR('',#531,10.);
#149=VECTOR('',#534,10.);
#150=VECTOR('',#535,10.);
#151=VECTOR('',#536,10.);
#152=VECTOR('',#539,10.);
#153=VECTOR('',#540,10.);
#154=VECTOR('',#541,10.);
#155=VECTOR('',#544,10.);
#156=VECTOR('',#545,10.);
#157=CIRCLE('',#405,1.5);
#158=CIRCLE('',#406,1.5);
#159=CIRCLE('',#408,1.5);
#160=CIRCLE('',#409,1.5);
#161=CIRCLE('',#411,1.5);
#162=CIRCLE('',#412,1.5);
#163=CIRCLE('',#415,0.795000000000159);
#164=CIRCLE('',#416,0.795000000000159);
#165=CIRCLE('',#419,0.795000000000403);
#166=CIRCLE('',#420,0.795000000000403);
#167=CIRCLE('',#422,1.5);
#168=CIRCLE('',#423,1.5);
#169=CIRCLE('',#426,0.794999999999999);
#170=CIRCLE('',#427,0.794999999999999);
#171=CIRCLE('',#430,0.794999999999999);
#172=CIRCLE('',#431,0.794999999999999);
#173=CIRCLE('',#433,1.5);
#174=CIRCLE('',#434,1.5);
#175=VERTEX_POINT('',#552);
#176=VERTEX_POINT('',#554);
#177=VERTEX_POINT('',#558);
#178=VERTEX_POINT('',#560);
#179=VERTEX_POINT('',#564);
#180=VERTEX_POINT('',#566);
#181=VERTEX_POINT('',#570);
#182=VERTEX_POINT('',#571);
#183=VERTEX_POINT('',#573);
#184=VERTEX_POINT('',#575);
#185=VERTEX_POINT('',#579);
#186=VERTEX_POINT('',#581);
#187=VERTEX_POINT('',#585);
#188=VERTEX_POINT('',#587);
#189=VERTEX_POINT('',#594);
#190=VERTEX_POINT('',#596);
#191=VERTEX_POINT('',#600);
#192=VERTEX_POINT('',#601);
#193=VERTEX_POINT('',#603);
#194=VERTEX_POINT('',#605);
#195=VERTEX_POINT('',#609);
#196=VERTEX_POINT('',#611);
#197=VERTEX_POINT('',#615);
#198=VERTEX_POINT('',#617);
#199=VERTEX_POINT('',#624);
#200=VERTEX_POINT('',#626);
#201=VERTEX_POINT('',#630);
#202=VERTEX_POINT('',#631);
#203=VERTEX_POINT('',#633);
#204=VERTEX_POINT('',#635);
#205=VERTEX_POINT('',#639);
#206=VERTEX_POINT('',#641);
#207=VERTEX_POINT('',#645);
#208=VERTEX_POINT('',#647);
#209=EDGE_CURVE('',#175,#175,#157,.T.);
#210=EDGE_CURVE('',#175,#176,#91,.T.);
#211=EDGE_CURVE('',#176,#176,#158,.T.);
#212=EDGE_CURVE('',#177,#177,#159,.T.);
#213=EDGE_CURVE('',#177,#178,#92,.T.);
#214=EDGE_CURVE('',#178,#178,#160,.T.);
#215=EDGE_CURVE('',#179,#179,#161,.T.);
#216=EDGE_CURVE('',#179,#180,#93,.T.);
#217=EDGE_CURVE('',#180,#180,#162,.T.);
#218=EDGE_CURVE('',#181,#182,#94,.T.);
#219=EDGE_CURVE('',#182,#183,#95,.T.);
#220=EDGE_CURVE('',#184,#183,#96,.T.);
#221=EDGE_CURVE('',#181,#184,#97,.T.);
#222=EDGE_CURVE('',#185,#181,#163,.T.);
#223=EDGE_CURVE('',#186,#184,#164,.T.);
#224=EDGE_CURVE('',#185,#186,#98,.T.);
#225=EDGE_CURVE('',#187,#185,#99,.T.);
#226=EDGE_CURVE('',#188,#186,#100,.T.);
#227=EDGE_CURVE('',#187,#188,#101,.T.);
#228=EDGE_CURVE('',#182,#187,#165,.T.);
#229=EDGE_CURVE('',#183,#188,#166,.T.);
#230=EDGE_CURVE('',#189,#189,#167,.T.);
#231=EDGE_CURVE('',#189,#190,#102,.T.);
#232=EDGE_CURVE('',#190,#190,#168,.T.);
#233=EDGE_CURVE('',#191,#192,#103,.T.);
#234=EDGE_CURVE('',#192,#193,#104,.T.);
#235=EDGE_CURVE('',#194,#193,#105,.T.);
#236=EDGE_CURVE('',#191,#194,#106,.T.);
#237=EDGE_CURVE('',#195,#191,#169,.T.);
#238=EDGE_CURVE('',#196,#194,#170,.T.);
#239=EDGE_CURVE('',#195,#196,#107,.T.);
#240=EDGE_CURVE('',#197,#195,#108,.T.);
#241=EDGE_CURVE('',#198,#196,#109,.T.);
#242=EDGE_CURVE('',#197,#198,#110,.T.);
#243=EDGE_CURVE('',#192,#197,#171,.T.);
#244=EDGE_CURVE('',#193,#198,#172,.T.);
#245=EDGE_CURVE('',#199,#199,#173,.T.);
#246=EDGE_CURVE('',#199,#200,#111,.T.);
#247=EDGE_CURVE('',#200,#200,#174,.T.);
#248=EDGE_CURVE('',#201,#202,#112,.T.);
#249=EDGE_CURVE('',#201,#203,#113,.T.);
#250=EDGE_CURVE('',#204,#203,#114,.T.);
#251=EDGE_CURVE('',#202,#204,#115,.T.);
#252=EDGE_CURVE('',#202,#205,#116,.T.);
#253=EDGE_CURVE('',#206,#204,#117,.T.);
#254=EDGE_CURVE('',#205,#206,#118,.T.);
#255=EDGE_CURVE('',#205,#207,#119,.T.);
#256=EDGE_CURVE('',#208,#206,#120,.T.);
#257=EDGE_CURVE('',#207,#208,#121,.T.);
#258=EDGE_CURVE('',#207,#201,#122,.T.);
#259=EDGE_CURVE('',#203,#208,#123,.T.);
#260=ORIENTED_EDGE('',*,*,#209,.F.);
#261=ORIENTED_EDGE('',*,*,#210,.T.);
#262=ORIENTED_EDGE('',*,*,#211,.F.);
#263=ORIENTED_EDGE('',*,*,#210,.F.);
#264=ORIENTED_EDGE('',*,*,#212,.F.);
#265=ORIENTED_EDGE('',*,*,#213,.T.);
#266=ORIENTED_EDGE('',*,*,#214,.F.);
#267=ORIENTED_EDGE('',*,*,#213,.F.);
#268=ORIENTED_EDGE('',*,*,#215,.F.);
#269=ORIENTED_EDGE('',*,*,#216,.T.);
#270=ORIENTED_EDGE('',*,*,#217,.F.);
#271=ORIENTED_EDGE('',*,*,#216,.F.);
#272=ORIENTED_EDGE('',*,*,#218,.T.);
#273=ORIENTED_EDGE('',*,*,#219,.T.);
#274=ORIENTED_EDGE('',*,*,#220,.F.);
#275=ORIENTED_EDGE('',*,*,#221,.F.);
#276=ORIENTED_EDGE('',*,*,#222,.T.);
#277=ORIENTED_EDGE('',*,*,#221,.T.);
#278=ORIENTED_EDGE('',*,*,#223,.F.);
#279=ORIENTED_EDGE('',*,*,#224,.F.);
#280=ORIENTED_EDGE('',*,*,#225,.T.);
#281=ORIENTED_EDGE('',*,*,#224,.T.);
#282=ORIENTED_EDGE('',*,*,#226,.F.);
#283=ORIENTED_EDGE('',*,*,#227,.F.);
#284=ORIENTED_EDGE('',*,*,#228,.T.);
#285=ORIENTED_EDGE('',*,*,#227,.T.);
#286=ORIENTED_EDGE('',*,*,#229,.F.);
#287=ORIENTED_EDGE('',*,*,#219,.F.);
#288=ORIENTED_EDGE('',*,*,#230,.F.);
#289=ORIENTED_EDGE('',*,*,#231,.T.);
#290=ORIENTED_EDGE('',*,*,#232,.T.);
#291=ORIENTED_EDGE('',*,*,#231,.F.);
#292=ORIENTED_EDGE('',*,*,#233,.T.);
#293=ORIENTED_EDGE('',*,*,#234,.T.);
#294=ORIENTED_EDGE('',*,*,#235,.F.);
#295=ORIENTED_EDGE('',*,*,#236,.F.);
#296=ORIENTED_EDGE('',*,*,#237,.T.);
#297=ORIENTED_EDGE('',*,*,#236,.T.);
#298=ORIENTED_EDGE('',*,*,#238,.F.);
#299=ORIENTED_EDGE('',*,*,#239,.F.);
#300=ORIENTED_EDGE('',*,*,#240,.T.);
#301=ORIENTED_EDGE('',*,*,#239,.T.);
#302=ORIENTED_EDGE('',*,*,#241,.F.);
#303=ORIENTED_EDGE('',*,*,#242,.F.);
#304=ORIENTED_EDGE('',*,*,#243,.T.);
#305=ORIENTED_EDGE('',*,*,#242,.T.);
#306=ORIENTED_EDGE('',*,*,#244,.F.);
#307=ORIENTED_EDGE('',*,*,#234,.F.);
#308=ORIENTED_EDGE('',*,*,#245,.F.);
#309=ORIENTED_EDGE('',*,*,#246,.T.);
#310=ORIENTED_EDGE('',*,*,#247,.T.);
#311=ORIENTED_EDGE('',*,*,#246,.F.);
#312=ORIENTED_EDGE('',*,*,#248,.F.);
#313=ORIENTED_EDGE('',*,*,#249,.T.);
#314=ORIENTED_EDGE('',*,*,#250,.F.);
#315=ORIENTED_EDGE('',*,*,#251,.F.);
#316=ORIENTED_EDGE('',*,*,#252,.F.);
#317=ORIENTED_EDGE('',*,*,#251,.T.);
#318=ORIENTED_EDGE('',*,*,#253,.F.);
#319=ORIENTED_EDGE('',*,*,#254,.F.);
#320=ORIENTED_EDGE('',*,*,#255,.F.);
#321=ORIENTED_EDGE('',*,*,#254,.T.);
#322=ORIENTED_EDGE('',*,*,#256,.F.);
#323=ORIENTED_EDGE('',*,*,#257,.F.);
#324=ORIENTED_EDGE('',*,*,#258,.F.);
#325=ORIENTED_EDGE('',*,*,#257,.T.);
#326=ORIENTED_EDGE('',*,*,#259,.F.);
#327=ORIENTED_EDGE('',*,*,#249,.F.);
#328=ORIENTED_EDGE('',*,*,#259,.T.);
#329=ORIENTED_EDGE('',*,*,#256,.T.);
#330=ORIENTED_EDGE('',*,*,#253,.T.);
#331=ORIENTED_EDGE('',*,*,#250,.T.);
#332=ORIENTED_EDGE('',*,*,#209,.T.);
#333=ORIENTED_EDGE('',*,*,#212,.T.);
#334=ORIENTED_EDGE('',*,*,#215,.T.);
#335=ORIENTED_EDGE('',*,*,#245,.T.);
#336=ORIENTED_EDGE('',*,*,#244,.T.);
#337=ORIENTED_EDGE('',*,*,#241,.T.);
#338=ORIENTED_EDGE('',*,*,#238,.T.);
#339=ORIENTED_EDGE('',*,*,#235,.T.);
#340=ORIENTED_EDGE('',*,*,#230,.T.);
#341=ORIENTED_EDGE('',*,*,#229,.T.);
#342=ORIENTED_EDGE('',*,*,#226,.T.);
#343=ORIENTED_EDGE('',*,*,#223,.T.);
#344=ORIENTED_EDGE('',*,*,#220,.T.);
#345=ORIENTED_EDGE('',*,*,#258,.T.);
#346=ORIENTED_EDGE('',*,*,#248,.T.);
#347=ORIENTED_EDGE('',*,*,#252,.T.);
#348=ORIENTED_EDGE('',*,*,#255,.T.);
#349=ORIENTED_EDGE('',*,*,#211,.T.);
#350=ORIENTED_EDGE('',*,*,#214,.T.);
#351=ORIENTED_EDGE('',*,*,#217,.T.);
#352=ORIENTED_EDGE('',*,*,#247,.F.);
#353=ORIENTED_EDGE('',*,*,#243,.F.);
#354=ORIENTED_EDGE('',*,*,#233,.F.);
#355=ORIENTED_EDGE('',*,*,#237,.F.);
#356=ORIENTED_EDGE('',*,*,#240,.F.);
#357=ORIENTED_EDGE('',*,*,#232,.F.);
#358=ORIENTED_EDGE('',*,*,#228,.F.);
#359=ORIENTED_EDGE('',*,*,#218,.F.);
#360=ORIENTED_EDGE('',*,*,#222,.F.);
#361=ORIENTED_EDGE('',*,*,#225,.F.);
#362=CYLINDRICAL_SURFACE('',#404,1.5);
#363=CYLINDRICAL_SURFACE('',#407,1.5);
#364=CYLINDRICAL_SURFACE('',#410,1.5);
#365=CYLINDRICAL_SURFACE('',#414,0.795000000000159);
#366=CYLINDRICAL_SURFACE('',#418,0.795000000000403);
#367=CYLINDRICAL_SURFACE('',#421,1.5);
#368=CYLINDRICAL_SURFACE('',#425,0.794999999999999);
#369=CYLINDRICAL_SURFACE('',#429,0.794999999999999);
#370=CYLINDRICAL_SURFACE('',#432,1.5);
#371=ADVANCED_FACE('',(#39),#362,.F.);
#372=ADVANCED_FACE('',(#40),#363,.F.);
#373=ADVANCED_FACE('',(#41),#364,.F.);
#374=ADVANCED_FACE('',(#42),#29,.T.);
#375=ADVANCED_FACE('',(#43),#365,.F.);
#376=ADVANCED_FACE('',(#44),#30,.T.);
#377=ADVANCED_FACE('',(#45),#366,.F.);
#378=ADVANCED_FACE('',(#46),#367,.F.);
#379=ADVANCED_FACE('',(#47),#31,.T.);
#380=ADVANCED_FACE('',(#48),#368,.F.);
#381=ADVANCED_FACE('',(#49),#32,.T.);
#382=ADVANCED_FACE('',(#50),#369,.F.);
#383=ADVANCED_FACE('',(#51),#370,.F.);
#384=ADVANCED_FACE('',(#52),#33,.T.);
#385=ADVANCED_FACE('',(#53),#34,.T.);
#386=ADVANCED_FACE('',(#54),#35,.T.);
#387=ADVANCED_FACE('',(#55),#36,.T.);
#388=ADVANCED_FACE('',(#56,#15,#16,#17,#18,#19,#20,#21),#37,.T.);
#389=ADVANCED_FACE('',(#57,#22,#23,#24,#25,#26,#27,#28),#38,.F.);
#390=CLOSED_SHELL('',(#371,#372,#373,#374,#375,#376,#377,#378,#379,#380,
#381,#382,#383,#384,#385,#386,#387,#388,#389));
#391=DERIVED_UNIT_ELEMENT(#393,1.);
#392=DERIVED_UNIT_ELEMENT(#660,-3.);
#393=(
MASS_UNIT()
NAMED_UNIT(*)
SI_UNIT(.KILO.,.GRAM.)
);
#394=DERIVED_UNIT((#391,#392));
#395=MEASURE_REPRESENTATION_ITEM('density measure',
POSITIVE_RATIO_MEASURE(7850.),#394);
#396=PROPERTY_DEFINITION_REPRESENTATION(#401,#398);
#397=PROPERTY_DEFINITION_REPRESENTATION(#402,#399);
#398=REPRESENTATION('material name',(#400),#657);
#399=REPRESENTATION('density',(#395),#657);
#400=DESCRIPTIVE_REPRESENTATION_ITEM('Acier','Acier');
#401=PROPERTY_DEFINITION('material property','material name',#667);
#402=PROPERTY_DEFINITION('material property','density of part',#667);
#403=AXIS2_PLACEMENT_3D('placement',#550,#441,#442);
#404=AXIS2_PLACEMENT_3D('',#551,#443,#444);
#405=AXIS2_PLACEMENT_3D('',#553,#445,#446);
#406=AXIS2_PLACEMENT_3D('',#556,#448,#449);
#407=AXIS2_PLACEMENT_3D('',#557,#450,#451);
#408=AXIS2_PLACEMENT_3D('',#559,#452,#453);
#409=AXIS2_PLACEMENT_3D('',#562,#455,#456);
#410=AXIS2_PLACEMENT_3D('',#563,#457,#458);
#411=AXIS2_PLACEMENT_3D('',#565,#459,#460);
#412=AXIS2_PLACEMENT_3D('',#568,#462,#463);
#413=AXIS2_PLACEMENT_3D('',#569,#464,#465);
#414=AXIS2_PLACEMENT_3D('',#578,#470,#471);
#415=AXIS2_PLACEMENT_3D('',#580,#472,#473);
#416=AXIS2_PLACEMENT_3D('',#582,#474,#475);
#417=AXIS2_PLACEMENT_3D('',#584,#477,#478);
#418=AXIS2_PLACEMENT_3D('',#590,#482,#483);
#419=AXIS2_PLACEMENT_3D('',#591,#484,#485);
#420=AXIS2_PLACEMENT_3D('',#592,#486,#487);
#421=AXIS2_PLACEMENT_3D('',#593,#488,#489);
#422=AXIS2_PLACEMENT_3D('',#595,#490,#491);
#423=AXIS2_PLACEMENT_3D('',#598,#493,#494);
#424=AXIS2_PLACEMENT_3D('',#599,#495,#496);
#425=AXIS2_PLACEMENT_3D('',#608,#501,#502);
#426=AXIS2_PLACEMENT_3D('',#610,#503,#504);
#427=AXIS2_PLACEMENT_3D('',#612,#505,#506);
#428=AXIS2_PLACEMENT_3D('',#614,#508,#509);
#429=AXIS2_PLACEMENT_3D('',#620,#513,#514);
#430=AXIS2_PLACEMENT_3D('',#621,#515,#516);
#431=AXIS2_PLACEMENT_3D('',#622,#517,#518);
#432=AXIS2_PLACEMENT_3D('',#623,#519,#520);
#433=AXIS2_PLACEMENT_3D('',#625,#521,#522);
#434=AXIS2_PLACEMENT_3D('',#628,#524,#525);
#435=AXIS2_PLACEMENT_3D('',#629,#526,#527);
#436=AXIS2_PLACEMENT_3D('',#638,#532,#533);
#437=AXIS2_PLACEMENT_3D('',#644,#537,#538);
#438=AXIS2_PLACEMENT_3D('',#650,#542,#543);
#439=AXIS2_PLACEMENT_3D('',#653,#546,#547);
#440=AXIS2_PLACEMENT_3D('',#654,#548,#549);
#441=DIRECTION('axis',(0.,0.,1.));
#442=DIRECTION('refdir',(1.,0.,0.));
#443=DIRECTION('center_axis',(0.,-1.,0.));
#444=DIRECTION('ref_axis',(0.,0.,1.));
#445=DIRECTION('center_axis',(0.,-1.,0.));
#446=DIRECTION('ref_axis',(0.,0.,1.));
#447=DIRECTION('',(0.,-1.,0.));
#448=DIRECTION('center_axis',(0.,1.,0.));
#449=DIRECTION('ref_axis',(0.,0.,1.));
#450=DIRECTION('center_axis',(0.,-1.,0.));
#451=DIRECTION('ref_axis',(0.,0.,1.));
#452=DIRECTION('center_axis',(0.,-1.,0.));
#453=DIRECTION('ref_axis',(0.,0.,1.));
#454=DIRECTION('',(0.,-1.,0.));
#455=DIRECTION('center_axis',(0.,1.,0.));
#456=DIRECTION('ref_axis',(0.,0.,1.));
#457=DIRECTION('center_axis',(0.,-1.,0.));
#458=DIRECTION('ref_axis',(0.,0.,1.));
#459=DIRECTION('center_axis',(0.,-1.,0.));
#460=DIRECTION('ref_axis',(0.,0.,1.));
#461=DIRECTION('',(0.,-1.,0.));
#462=DIRECTION('center_axis',(0.,1.,0.));
#463=DIRECTION('ref_axis',(0.,0.,1.));
#464=DIRECTION('center_axis',(-1.,0.,-2.51160526545126E-14));
#465=DIRECTION('ref_axis',(-2.51160526545126E-14,0.,1.));
#466=DIRECTION('',(-2.51160526545126E-14,0.,1.));
#467=DIRECTION('',(0.,1.,0.));
#468=DIRECTION('',(-2.51160526545126E-14,0.,1.));
#469=DIRECTION('',(0.,1.,0.));
#470=DIRECTION('center_axis',(0.,1.,0.));
#471=DIRECTION('ref_axis',(1.,0.,2.34613167467911E-13));
#472=DIRECTION('center_axis',(0.,-1.,0.));
#473=DIRECTION('ref_axis',(1.,0.,2.34613167467911E-13));
#474=DIRECTION('center_axis',(0.,-1.,0.));
#475=DIRECTION('ref_axis',(1.,0.,2.34613167467911E-13));
#476=DIRECTION('',(0.,1.,0.));
#477=DIRECTION('center_axis',(1.,0.,2.91239333972544E-14));
#478=DIRECTION('ref_axis',(2.91239333972544E-14,0.,-1.));
#479=DIRECTION('',(2.91239333972544E-14,0.,-1.));
#480=DIRECTION('',(2.91239333972544E-14,0.,-1.));
#481=DIRECTION('',(0.,1.,0.));
#482=DIRECTION('center_axis',(0.,1.,0.));
#483=DIRECTION('ref_axis',(-1.,0.,3.61415998456409E-12));
#484=DIRECTION('center_axis',(0.,-1.,0.));
#485=DIRECTION('ref_axis',(-1.,0.,3.61415998456409E-12));
#486=DIRECTION('center_axis',(0.,-1.,0.));
#487=DIRECTION('ref_axis',(-1.,0.,3.61415998456409E-12));
#488=DIRECTION('center_axis',(0.,1.,0.));
#489=DIRECTION('ref_axis',(1.,0.,0.));
#490=DIRECTION('center_axis',(0.,-1.,0.));
#491=DIRECTION('ref_axis',(1.,0.,0.));
#492=DIRECTION('',(0.,-1.,0.));
#493=DIRECTION('center_axis',(0.,-1.,0.));
#494=DIRECTION('ref_axis',(1.,0.,0.));
#495=DIRECTION('center_axis',(-1.,0.,0.));
#496=DIRECTION('ref_axis',(0.,0.,1.));
#497=DIRECTION('',(0.,0.,1.));
#498=DIRECTION('',(0.,1.,0.));
#499=DIRECTION('',(0.,0.,1.));
#500=DIRECTION('',(0.,1.,0.));
#501=DIRECTION('center_axis',(0.,1.,0.));
#502=DIRECTION('ref_axis',(1.,0.,0.));
#503=DIRECTION('center_axis',(0.,-1.,0.));
#504=DIRECTION('ref_axis',(1.,0.,0.));
#505=DIRECTION('center_axis',(0.,-1.,0.));
#506=DIRECTION('ref_axis',(1.,0.,0.));
#507=DIRECTION('',(0.,1.,0.));
#508=DIRECTION('center_axis',(1.,0.,0.));
#509=DIRECTION('ref_axis',(0.,0.,-1.));
#510=DIRECTION('',(0.,0.,-1.));
#511=DIRECTION('',(0.,0.,-1.));
#512=DIRECTION('',(0.,1.,0.));
#513=DIRECTION('center_axis',(0.,1.,0.));
#514=DIRECTION('ref_axis',(-1.,0.,0.));
#515=DIRECTION('center_axis',(0.,-1.,0.));
#516=DIRECTION('ref_axis',(-1.,0.,0.));
#517=DIRECTION('center_axis',(0.,-1.,0.));
#518=DIRECTION('ref_axis',(-1.,0.,0.));
#519=DIRECTION('center_axis',(0.,1.,0.));
#520=DIRECTION('ref_axis',(1.,0.,0.));
#521=DIRECTION('center_axis',(0.,-1.,0.));
#522=DIRECTION('ref_axis',(1.,0.,0.));
#523=DIRECTION('',(0.,-1.,0.));
#524=DIRECTION('center_axis',(0.,-1.,0.));
#525=DIRECTION('ref_axis',(1.,0.,0.));
#526=DIRECTION('center_axis',(1.,0.,0.));
#527=DIRECTION('ref_axis',(0.,0.,-1.));
#528=DIRECTION('',(0.,0.,1.));
#529=DIRECTION('',(0.,1.,0.));
#530=DIRECTION('',(0.,0.,-1.));
#531=DIRECTION('',(0.,1.,0.));
#532=DIRECTION('center_axis',(0.,0.,1.));
#533=DIRECTION('ref_axis',(1.,0.,0.));
#534=DIRECTION('',(-1.,0.,0.));
#535=DIRECTION('',(1.,0.,0.));
#536=DIRECTION('',(0.,1.,0.));
#537=DIRECTION('center_axis',(-1.,0.,0.));
#538=DIRECTION('ref_axis',(0.,0.,1.));
#539=DIRECTION('',(0.,0.,-1.));
#540=DIRECTION('',(0.,0.,1.));
#541=DIRECTION('',(0.,1.,0.));
#542=DIRECTION('center_axis',(0.,0.,-1.));
#543=DIRECTION('ref_axis',(-1.,0.,0.));
#544=DIRECTION('',(1.,0.,0.));
#545=DIRECTION('',(-1.,0.,0.));
#546=DIRECTION('center_axis',(0.,1.,0.));
#547=DIRECTION('ref_axis',(1.,0.,0.));
#548=DIRECTION('center_axis',(0.,1.,0.));
#549=DIRECTION('ref_axis',(1.,0.,0.));
#550=CARTESIAN_POINT('',(0.,0.,0.));
#551=CARTESIAN_POINT('Origin',(23.7126638009342,-1044.87993052766,29.55));
#552=CARTESIAN_POINT('',(23.7126638009342,55.1200694723411,28.05));
#553=CARTESIAN_POINT('Origin',(23.7126638009342,55.1200694723412,29.55));
#554=CARTESIAN_POINT('',(23.7126638009342,51.1200694723413,28.05));
#555=CARTESIAN_POINT('',(23.7126638009342,-1044.87993052766,28.05));
#556=CARTESIAN_POINT('Origin',(23.7126638009342,51.1200694723413,29.55));
#557=CARTESIAN_POINT('Origin',(8.,32.0700694723412,29.55));
#558=CARTESIAN_POINT('',(8.,55.1200694723412,28.05));
#559=CARTESIAN_POINT('Origin',(8.,55.1200694723412,29.55));
#560=CARTESIAN_POINT('',(8.,51.1200694723412,28.05));
#561=CARTESIAN_POINT('',(8.,32.0700694723412,28.05));
#562=CARTESIAN_POINT('Origin',(8.,51.1200694723412,29.55));
#563=CARTESIAN_POINT('Origin',(39.5,33.2575694723412,29.55));
#564=CARTESIAN_POINT('',(39.5,55.1200694723412,28.05));
#565=CARTESIAN_POINT('Origin',(39.5,55.1200694723412,29.55));
#566=CARTESIAN_POINT('',(39.5,51.1200694723412,28.05));
#567=CARTESIAN_POINT('',(39.5,33.2575694723412,28.05));
#568=CARTESIAN_POINT('Origin',(39.5,51.1200694723412,29.55));
#569=CARTESIAN_POINT('Origin',(45.1150000000002,51.1200694723412,3.18000000000019));
#570=CARTESIAN_POINT('',(45.1150000000002,51.1200694723412,3.18000000000019));
#571=CARTESIAN_POINT('',(45.1150000000004,51.1200694723412,11.4902998508755));
#572=CARTESIAN_POINT('',(45.1149999999999,51.1200694723412,11.4902998508817));
#573=CARTESIAN_POINT('',(45.1150000000004,55.1200694723412,11.4902998508755));
#574=CARTESIAN_POINT('',(45.1150000000004,51.1200694723412,11.4902998508755));
#575=CARTESIAN_POINT('',(45.1150000000002,55.1200694723412,3.18000000000019));
#576=CARTESIAN_POINT('',(45.1149999999999,55.1200694723412,11.4902998508817));
#577=CARTESIAN_POINT('',(45.1150000000002,51.1200694723412,3.18000000000019));
#578=CARTESIAN_POINT('Origin',(44.32,51.1200694723412,3.18));
#579=CARTESIAN_POINT('',(43.5249999999998,51.1200694723412,3.17999999999981));
#580=CARTESIAN_POINT('Origin',(44.32,51.1200694723412,3.18));
#581=CARTESIAN_POINT('',(43.5249999999998,55.1200694723412,3.17999999999981));
#582=CARTESIAN_POINT('Origin',(44.32,55.1200694723412,3.18));
#583=CARTESIAN_POINT('',(43.5249999999998,51.1200694723412,3.17999999999981));
#584=CARTESIAN_POINT('Origin',(43.5249999999996,51.1200694723412,11.4902998508813));
#585=CARTESIAN_POINT('',(43.5249999999996,51.1200694723412,11.4902998508813));
#586=CARTESIAN_POINT('',(43.5249999999998,51.1200694723412,3.17999999999981));
#587=CARTESIAN_POINT('',(43.5249999999996,55.1200694723412,11.4902998508813));
#588=CARTESIAN_POINT('',(43.5249999999998,55.1200694723412,3.17999999999981));
#589=CARTESIAN_POINT('',(43.5249999999996,51.1200694723412,11.4902998508813));
#590=CARTESIAN_POINT('Origin',(44.32,51.1200694723412,11.4902998508784));
#591=CARTESIAN_POINT('Origin',(44.32,51.1200694723412,11.4902998508784));
#592=CARTESIAN_POINT('Origin',(44.32,55.1200694723412,11.4902998508784));
#593=CARTESIAN_POINT('Origin',(17.4,51.1200694723412,11.));
#594=CARTESIAN_POINT('',(15.9,55.1200694723412,11.));
#595=CARTESIAN_POINT('Origin',(17.4,55.1200694723412,11.));
#596=CARTESIAN_POINT('',(15.9,51.1200694723412,11.));
#597=CARTESIAN_POINT('',(15.9,51.1200694723412,11.));
#598=CARTESIAN_POINT('Origin',(17.4,51.1200694723412,11.));
#599=CARTESIAN_POINT('Origin',(3.975,51.1200694723412,14.61));
#600=CARTESIAN_POINT('',(3.975,51.1200694723412,14.61));
#601=CARTESIAN_POINT('',(3.975,51.1200694723412,20.96));
#602=CARTESIAN_POINT('',(3.975,51.1200694723412,20.96));
#603=CARTESIAN_POINT('',(3.975,55.1200694723412,20.96));
#604=CARTESIAN_POINT('',(3.975,51.1200694723412,20.96));
#605=CARTESIAN_POINT('',(3.975,55.1200694723412,14.61));
#606=CARTESIAN_POINT('',(3.975,55.1200694723412,20.96));
#607=CARTESIAN_POINT('',(3.975,51.1200694723412,14.61));
#608=CARTESIAN_POINT('Origin',(3.18,51.1200694723412,14.61));
#609=CARTESIAN_POINT('',(2.385,51.1200694723412,14.61));
#610=CARTESIAN_POINT('Origin',(3.18,51.1200694723412,14.61));
#611=CARTESIAN_POINT('',(2.385,55.1200694723412,14.61));
#612=CARTESIAN_POINT('Origin',(3.18,55.1200694723412,14.61));
#613=CARTESIAN_POINT('',(2.385,51.1200694723412,14.61));
#614=CARTESIAN_POINT('Origin',(2.385,51.1200694723412,20.96));
#615=CARTESIAN_POINT('',(2.385,51.1200694723412,20.96));
#616=CARTESIAN_POINT('',(2.385,51.1200694723412,14.61));
#617=CARTESIAN_POINT('',(2.385,55.1200694723412,20.96));
#618=CARTESIAN_POINT('',(2.385,55.1200694723412,14.61));
#619=CARTESIAN_POINT('',(2.385,51.1200694723412,20.96));
#620=CARTESIAN_POINT('Origin',(3.18,51.1200694723412,20.96));
#621=CARTESIAN_POINT('Origin',(3.18,51.1200694723412,20.96));
#622=CARTESIAN_POINT('Origin',(3.18,55.1200694723412,20.96));
#623=CARTESIAN_POINT('Origin',(30.1,51.1200694723412,11.));
#624=CARTESIAN_POINT('',(28.6,55.1200694723412,11.));
#625=CARTESIAN_POINT('Origin',(30.1,55.1200694723412,11.));
#626=CARTESIAN_POINT('',(28.6,51.1200694723412,11.));
#627=CARTESIAN_POINT('',(28.6,51.1200694723412,11.));
#628=CARTESIAN_POINT('Origin',(30.1,51.1200694723412,11.));
#629=CARTESIAN_POINT('Origin',(47.5,51.1200694723412,31.75));
#630=CARTESIAN_POINT('',(47.5,51.1200694723412,0.));
#631=CARTESIAN_POINT('',(47.5,51.1200694723412,31.75));
#632=CARTESIAN_POINT('',(47.5,51.1200694723412,0.));
#633=CARTESIAN_POINT('',(47.5,55.1200694723412,0.));
#634=CARTESIAN_POINT('',(47.5,51.1200694723412,0.));
#635=CARTESIAN_POINT('',(47.5,55.1200694723412,31.75));
#636=CARTESIAN_POINT('',(47.5,55.1200694723412,0.));
#637=CARTESIAN_POINT('',(47.5,51.1200694723412,31.75));
#638=CARTESIAN_POINT('Origin',(0.,51.1200694723412,31.75));
#639=CARTESIAN_POINT('',(0.,51.1200694723412,31.75));
#640=CARTESIAN_POINT('',(47.5,51.1200694723412,31.75));
#641=CARTESIAN_POINT('',(0.,55.1200694723412,31.75));
#642=CARTESIAN_POINT('',(47.5,55.1200694723412,31.75));
#643=CARTESIAN_POINT('',(0.,51.1200694723412,31.75));
#644=CARTESIAN_POINT('Origin',(0.,51.1200694723412,0.));
#645=CARTESIAN_POINT('',(0.,51.1200694723412,0.));
#646=CARTESIAN_POINT('',(0.,51.1200694723412,31.75));
#647=CARTESIAN_POINT('',(0.,55.1200694723412,0.));
#648=CARTESIAN_POINT('',(0.,55.1200694723412,31.75));
#649=CARTESIAN_POINT('',(0.,51.1200694723412,0.));
#650=CARTESIAN_POINT('Origin',(47.5,51.1200694723412,0.));
#651=CARTESIAN_POINT('',(0.,51.1200694723412,0.));
#652=CARTESIAN_POINT('',(0.,55.1200694723412,0.));
#653=CARTESIAN_POINT('Origin',(23.75,55.1200694723412,15.875));
#654=CARTESIAN_POINT('Origin',(23.75,51.1200694723412,15.875));
#655=UNCERTAINTY_MEASURE_WITH_UNIT(LENGTH_MEASURE(0.01),#659,
'DISTANCE_ACCURACY_VALUE',
'Maximum model space distance between geometric entities at asserted c
onnectivities');
#656=UNCERTAINTY_MEASURE_WITH_UNIT(LENGTH_MEASURE(0.01),#659,
'DISTANCE_ACCURACY_VALUE',
'Maximum model space distance between geometric entities at asserted c
onnectivities');
#657=(
GEOMETRIC_REPRESENTATION_CONTEXT(3)
GLOBAL_UNCERTAINTY_ASSIGNED_CONTEXT((#655))
GLOBAL_UNIT_ASSIGNED_CONTEXT((#659,#661,#662))
REPRESENTATION_CONTEXT('','3D')
);
#658=(
GEOMETRIC_REPRESENTATION_CONTEXT(3)
GLOBAL_UNCERTAINTY_ASSIGNED_CONTEXT((#656))
GLOBAL_UNIT_ASSIGNED_CONTEXT((#659,#661,#662))
REPRESENTATION_CONTEXT('','3D')
);
#659=(
LENGTH_UNIT()
NAMED_UNIT(*)
SI_UNIT(.MILLI.,.METRE.)
);
#660=(
LENGTH_UNIT()
NAMED_UNIT(*)
SI_UNIT($,.METRE.)
);
#661=(
NAMED_UNIT(*)
PLANE_ANGLE_UNIT()
SI_UNIT($,.RADIAN.)
);
#662=(
NAMED_UNIT(*)
SI_UNIT($,.STERADIAN.)
SOLID_ANGLE_UNIT()
);
#663=SHAPE_DEFINITION_REPRESENTATION(#664,#665);
#664=PRODUCT_DEFINITION_SHAPE('',$,#667);
#665=SHAPE_REPRESENTATION('',(#403),#657);
#666=PRODUCT_DEFINITION_CONTEXT('part definition',#671,'design');
#667=PRODUCT_DEFINITION('(Non enregistr\X\E9)','(Non enregistr\X\E9)',#668,
#666);
#668=PRODUCT_DEFINITION_FORMATION('',$,#673);
#669=PRODUCT_RELATED_PRODUCT_CATEGORY('(Non enregistr\X\E9)',
'(Non enregistr\X\E9)',(#673));
#670=APPLICATION_PROTOCOL_DEFINITION('international standard',
'automotive_design',2009,#671);
#671=APPLICATION_CONTEXT(
'Core Data for Automotive Mechanical Design Process');
#672=PRODUCT_CONTEXT('part definition',#671,'mechanical');
#673=PRODUCT('(Non enregistr\X\E9)','(Non enregistr\X\E9)',$,(#672));
#674=PRESENTATION_STYLE_ASSIGNMENT((#675));
#675=SURFACE_STYLE_USAGE(.BOTH.,#676);
#676=SURFACE_SIDE_STYLE('',(#677));
#677=SURFACE_STYLE_FILL_AREA(#678);
#678=FILL_AREA_STYLE('Acier - Satin\X\E9',(#679));
#679=FILL_AREA_STYLE_COLOUR('Acier - Satin\X\E9',#680);
#680=COLOUR_RGB('Acier - Satin\X\E9',0.627450980392157,0.627450980392157,
0.627450980392157);
ENDSEC;
END-ISO-10303-21;
