ISO-10303-21;
HEADER;
/* Generated by software containing ST-Developer
 * from STEP Tools, Inc. (www.steptools.com) 
 */

FILE_DESCRIPTION(
/* description */ (''),
/* implementation_level */ '2;1');

FILE_NAME(
/* name */ 
'C:/Users/Alex/Desktop/Projet 600x600/v2/Pour ju/Pieces 1.step',
/* time_stamp */ '2022-01-05T16:59:31+01:00',
/* author */ (''),
/* organization */ (''),
/* preprocessor_version */ 'ST-DEVELOPER v18.1',
/* originating_system */ 'Autodesk Translation Framework v10.10.0.1391',

/* authorisation */ '');

FILE_SCHEMA (('AUTOMOTIVE_DESIGN { 1 0 10303 214 3 1 1 }'));
ENDSEC;

DATA;
#10=MECHANICAL_DESIGN_GEOMETRIC_PRESENTATION_REPRESENTATION('',(#13),#658);
#11=SHAPE_REPRESENTATION_RELATIONSHIP('SRR','None',#665,#12);
#12=ADVANCED_BREP_SHAPE_REPRESENTATION('',(#14),#657);
#13=STYLED_ITEM('',(#674),#14);
#14=MANIFOLD_SOLID_BREP('Corps1',#390);
#15=FACE_BOUND('',#76,.T.);
#16=FACE_BOUND('',#77,.T.);
#17=FACE_BOUND('',#78,.T.);
#18=FACE_BOUND('',#79,.T.);
#19=FACE_BOUND('',#80,.T.);
#20=FACE_BOUND('',#81,.T.);
#21=FACE_BOUND('',#82,.T.);
#22=FACE_BOUND('',#84,.T.);
#23=FACE_BOUND('',#85,.T.);
#24=FACE_BOUND('',#86,.T.);
#25=FACE_BOUND('',#87,.T.);
#26=FACE_BOUND('',#88,.T.);
#27=FACE_BOUND('',#89,.T.);
#28=FACE_BOUND('',#90,.T.);
#29=PLANE('',#416);
#30=PLANE('',#420);
#31=PLANE('',#427);
#32=PLANE('',#431);
#33=PLANE('',#435);
#34=PLANE('',#436);
#35=PLANE('',#437);
#36=PLANE('',#438);
#37=PLANE('',#439);
#38=PLANE('',#440);
#39=FACE_OUTER_BOUND('',#58,.T.);
#40=FACE_OUTER_BOUND('',#59,.T.);
#41=FACE_OUTER_BOUND('',#60,.T.);
#42=FACE_OUTER_BOUND('',#61,.T.);
#43=FACE_OUTER_BOUND('',#62,.T.);
#44=FACE_OUTER_BOUND('',#63,.T.);
#45=FACE_OUTER_BOUND('',#64,.T.);
#46=FACE_OUTER_BOUND('',#65,.T.);
#47=FACE_OUTER_BOUND('',#66,.T.);
#48=FACE_OUTER_BOUND('',#67,.T.);
#49=FACE_OUTER_BOUND('',#68,.T.);
#50=FACE_OUTER_BOUND('',#69,.T.);
#51=FACE_OUTER_BOUND('',#70,.T.);
#52=FACE_OUTER_BOUND('',#71,.T.);
#53=FACE_OUTER_BOUND('',#72,.T.);
#54=FACE_OUTER_BOUND('',#73,.T.);
#55=FACE_OUTER_BOUND('',#74,.T.);
#56=FACE_OUTER_BOUND('',#75,.T.);
#57=FACE_OUTER_BOUND('',#83,.T.);
#58=EDGE_LOOP('',(#260,#261,#262,#263));
#59=EDGE_LOOP('',(#264,#265,#266,#267));
#60=EDGE_LOOP('',(#268,#269,#270,#271));
#61=EDGE_LOOP('',(#272,#273,#274,#275));
#62=EDGE_LOOP('',(#276,#277,#278,#279));
#63=EDGE_LOOP('',(#280,#281,#282,#283));
#64=EDGE_LOOP('',(#284,#285,#286,#287));
#65=EDGE_LOOP('',(#288,#289,#290,#291));
#66=EDGE_LOOP('',(#292,#293,#294,#295));
#67=EDGE_LOOP('',(#296,#297,#298,#299));
#68=EDGE_LOOP('',(#300,#301,#302,#303));
#69=EDGE_LOOP('',(#304,#305,#306,#307));
#70=EDGE_LOOP('',(#308,#309,#310,#311));
#71=EDGE_LOOP('',(#312,#313,#314,#315));
#72=EDGE_LOOP('',(#316,#317,#318,#319));
#73=EDGE_LOOP('',(#320,#321,#322,#323));
#74=EDGE_LOOP('',(#324,#325,#326,#327));
#75=EDGE_LOOP('',(#328,#329,#330,#331));
#76=EDGE_LOOP('',(#332));
#77=EDGE_LOOP('',(#333));
#78=EDGE_LOOP('',(#334));
#79=EDGE_LOOP('',(#335,#336,#337,#338));
#80=EDGE_LOOP('',(#339));
#81=EDGE_LOOP('',(#340,#341,#342,#343));
#82=EDGE_LOOP('',(#344));
#83=EDGE_LOOP('',(#345,#346,#347,#348));
#84=EDGE_LOOP('',(#349));
#85=EDGE_LOOP('',(#350));
#86=EDGE_LOOP('',(#351));
#87=EDGE_LOOP('',(#352,#353,#354,#355));
#88=EDGE_LOOP('',(#356));
#89=EDGE_LOOP('',(#357,#358,#359,#360));
#90=EDGE_LOOP('',(#361));
#91=LINE('',#555,#124);
#92=LINE('',#561,#125);
#93=LINE('',#567,#126);
#94=LINE('',#573,#127);
#95=LINE('',#578,#128);
#96=LINE('',#580,#129);
#97=LINE('',#582,#130);
#98=LINE('',#583,#131);
#99=LINE('',#589,#132);
#100=LINE('',#592,#133);
#101=LINE('',#594,#134);
#102=LINE('',#595,#135);
#103=LINE('',#603,#136);
#104=LINE('',#608,#137);
#105=LINE('',#610,#138);
#106=LINE('',#612,#139);
#107=LINE('',#613,#140);
#108=LINE('',#619,#141);
#109=LINE('',#622,#142);
#110=LINE('',#624,#143);
#111=LINE('',#625,#144);
#112=LINE('',#632,#145);
#113=LINE('',#634,#146);
#114=LINE('',#636,#147);
#115=LINE('',#637,#148);
#116=LINE('',#640,#149);
#117=LINE('',#642,#150);
#118=LINE('',#643,#151);
#119=LINE('',#646,#152);
#120=LINE('',#648,#153);
#121=LINE('',#649,#154);
#122=LINE('',#651,#155);
#123=LINE('',#652,#156);
#124=VECTOR('',#447,1.5);
#125=VECTOR('',#454,1.5);
#126=VECTOR('',#461,1.5);
#127=VECTOR('',#468,1.6);
#128=VECTOR('',#473,10.);
#129=VECTOR('',#474,10.);
#130=VECTOR('',#475,10.);
#131=VECTOR('',#476,10.);
#132=VECTOR('',#483,10.);
#133=VECTOR('',#486,10.);
#134=VECTOR('',#487,10.);
#135=VECTOR('',#488,10.);
#136=VECTOR('',#499,1.6);
#137=VECTOR('',#504,10.);
#138=VECTOR('',#505,10.);
#139=VECTOR('',#506,10.);
#140=VECTOR('',#507,10.);
#141=VECTOR('',#514,10.);
#142=VECTOR('',#517,10.);
#143=VECTOR('',#518,10.);
#144=VECTOR('',#519,10.);
#145=VECTOR('',#528,10.);
#146=VECTOR('',#529,10.);
#147=VECTOR('',#530,10.);
#148=VECTOR('',#531,10.);
#149=VECTOR('',#534,10.);
#150=VECTOR('',#535,10.);
#151=VECTOR('',#536,10.);
#152=VECTOR('',#539,10.);
#153=VECTOR('',#540,10.);
#154=VECTOR('',#541,10.);
#155=VECTOR('',#544,10.);
#156=VECTOR('',#545,10.);
#157=CIRCLE('',#405,1.5);
#158=CIRCLE('',#406,1.5);
#159=CIRCLE('',#408,1.5);
#160=CIRCLE('',#409,1.5);
#161=CIRCLE('',#411,1.5);
#162=CIRCLE('',#412,1.5);
#163=CIRCLE('',#414,1.6);
#164=CIRCLE('',#415,1.6);
#165=CIRCLE('',#418,0.794999999999996);
#166=CIRCLE('',#419,0.794999999999996);
#167=CIRCLE('',#422,0.795000000000003);
#168=CIRCLE('',#423,0.795000000000003);
#169=CIRCLE('',#425,1.6);
#170=CIRCLE('',#426,1.6);
#171=CIRCLE('',#429,0.795000000000003);
#172=CIRCLE('',#430,0.795000000000003);
#173=CIRCLE('',#433,0.795000000000003);
#174=CIRCLE('',#434,0.795000000000003);
#175=VERTEX_POINT('',#552);
#176=VERTEX_POINT('',#554);
#177=VERTEX_POINT('',#558);
#178=VERTEX_POINT('',#560);
#179=VERTEX_POINT('',#564);
#180=VERTEX_POINT('',#566);
#181=VERTEX_POINT('',#570);
#182=VERTEX_POINT('',#572);
#183=VERTEX_POINT('',#576);
#184=VERTEX_POINT('',#577);
#185=VERTEX_POINT('',#579);
#186=VERTEX_POINT('',#581);
#187=VERTEX_POINT('',#585);
#188=VERTEX_POINT('',#587);
#189=VERTEX_POINT('',#591);
#190=VERTEX_POINT('',#593);
#191=VERTEX_POINT('',#600);
#192=VERTEX_POINT('',#602);
#193=VERTEX_POINT('',#606);
#194=VERTEX_POINT('',#607);
#195=VERTEX_POINT('',#609);
#196=VERTEX_POINT('',#611);
#197=VERTEX_POINT('',#615);
#198=VERTEX_POINT('',#617);
#199=VERTEX_POINT('',#621);
#200=VERTEX_POINT('',#623);
#201=VERTEX_POINT('',#630);
#202=VERTEX_POINT('',#631);
#203=VERTEX_POINT('',#633);
#204=VERTEX_POINT('',#635);
#205=VERTEX_POINT('',#639);
#206=VERTEX_POINT('',#641);
#207=VERTEX_POINT('',#645);
#208=VERTEX_POINT('',#647);
#209=EDGE_CURVE('',#175,#175,#157,.T.);
#210=EDGE_CURVE('',#175,#176,#91,.T.);
#211=EDGE_CURVE('',#176,#176,#158,.T.);
#212=EDGE_CURVE('',#177,#177,#159,.T.);
#213=EDGE_CURVE('',#177,#178,#92,.T.);
#214=EDGE_CURVE('',#178,#178,#160,.T.);
#215=EDGE_CURVE('',#179,#179,#161,.T.);
#216=EDGE_CURVE('',#179,#180,#93,.T.);
#217=EDGE_CURVE('',#180,#180,#162,.T.);
#218=EDGE_CURVE('',#181,#181,#163,.T.);
#219=EDGE_CURVE('',#181,#182,#94,.T.);
#220=EDGE_CURVE('',#182,#182,#164,.T.);
#221=EDGE_CURVE('',#183,#184,#95,.T.);
#222=EDGE_CURVE('',#184,#185,#96,.T.);
#223=EDGE_CURVE('',#186,#185,#97,.T.);
#224=EDGE_CURVE('',#183,#186,#98,.T.);
#225=EDGE_CURVE('',#187,#183,#165,.T.);
#226=EDGE_CURVE('',#188,#186,#166,.T.);
#227=EDGE_CURVE('',#187,#188,#99,.T.);
#228=EDGE_CURVE('',#189,#187,#100,.T.);
#229=EDGE_CURVE('',#190,#188,#101,.T.);
#230=EDGE_CURVE('',#189,#190,#102,.T.);
#231=EDGE_CURVE('',#184,#189,#167,.T.);
#232=EDGE_CURVE('',#185,#190,#168,.T.);
#233=EDGE_CURVE('',#191,#191,#169,.T.);
#234=EDGE_CURVE('',#191,#192,#103,.T.);
#235=EDGE_CURVE('',#192,#192,#170,.T.);
#236=EDGE_CURVE('',#193,#194,#104,.T.);
#237=EDGE_CURVE('',#194,#195,#105,.T.);
#238=EDGE_CURVE('',#196,#195,#106,.T.);
#239=EDGE_CURVE('',#193,#196,#107,.T.);
#240=EDGE_CURVE('',#197,#193,#171,.T.);
#241=EDGE_CURVE('',#198,#196,#172,.T.);
#242=EDGE_CURVE('',#197,#198,#108,.T.);
#243=EDGE_CURVE('',#199,#197,#109,.T.);
#244=EDGE_CURVE('',#200,#198,#110,.T.);
#245=EDGE_CURVE('',#199,#200,#111,.T.);
#246=EDGE_CURVE('',#194,#199,#173,.T.);
#247=EDGE_CURVE('',#195,#200,#174,.T.);
#248=EDGE_CURVE('',#201,#202,#112,.T.);
#249=EDGE_CURVE('',#201,#203,#113,.T.);
#250=EDGE_CURVE('',#204,#203,#114,.T.);
#251=EDGE_CURVE('',#202,#204,#115,.T.);
#252=EDGE_CURVE('',#202,#205,#116,.T.);
#253=EDGE_CURVE('',#206,#204,#117,.T.);
#254=EDGE_CURVE('',#205,#206,#118,.T.);
#255=EDGE_CURVE('',#205,#207,#119,.T.);
#256=EDGE_CURVE('',#208,#206,#120,.T.);
#257=EDGE_CURVE('',#207,#208,#121,.T.);
#258=EDGE_CURVE('',#207,#201,#122,.T.);
#259=EDGE_CURVE('',#203,#208,#123,.T.);
#260=ORIENTED_EDGE('',*,*,#209,.F.);
#261=ORIENTED_EDGE('',*,*,#210,.T.);
#262=ORIENTED_EDGE('',*,*,#211,.F.);
#263=ORIENTED_EDGE('',*,*,#210,.F.);
#264=ORIENTED_EDGE('',*,*,#212,.F.);
#265=ORIENTED_EDGE('',*,*,#213,.T.);
#266=ORIENTED_EDGE('',*,*,#214,.F.);
#267=ORIENTED_EDGE('',*,*,#213,.F.);
#268=ORIENTED_EDGE('',*,*,#215,.F.);
#269=ORIENTED_EDGE('',*,*,#216,.T.);
#270=ORIENTED_EDGE('',*,*,#217,.F.);
#271=ORIENTED_EDGE('',*,*,#216,.F.);
#272=ORIENTED_EDGE('',*,*,#218,.F.);
#273=ORIENTED_EDGE('',*,*,#219,.T.);
#274=ORIENTED_EDGE('',*,*,#220,.T.);
#275=ORIENTED_EDGE('',*,*,#219,.F.);
#276=ORIENTED_EDGE('',*,*,#221,.T.);
#277=ORIENTED_EDGE('',*,*,#222,.T.);
#278=ORIENTED_EDGE('',*,*,#223,.F.);
#279=ORIENTED_EDGE('',*,*,#224,.F.);
#280=ORIENTED_EDGE('',*,*,#225,.T.);
#281=ORIENTED_EDGE('',*,*,#224,.T.);
#282=ORIENTED_EDGE('',*,*,#226,.F.);
#283=ORIENTED_EDGE('',*,*,#227,.F.);
#284=ORIENTED_EDGE('',*,*,#228,.T.);
#285=ORIENTED_EDGE('',*,*,#227,.T.);
#286=ORIENTED_EDGE('',*,*,#229,.F.);
#287=ORIENTED_EDGE('',*,*,#230,.F.);
#288=ORIENTED_EDGE('',*,*,#231,.T.);
#289=ORIENTED_EDGE('',*,*,#230,.T.);
#290=ORIENTED_EDGE('',*,*,#232,.F.);
#291=ORIENTED_EDGE('',*,*,#222,.F.);
#292=ORIENTED_EDGE('',*,*,#233,.F.);
#293=ORIENTED_EDGE('',*,*,#234,.T.);
#294=ORIENTED_EDGE('',*,*,#235,.T.);
#295=ORIENTED_EDGE('',*,*,#234,.F.);
#296=ORIENTED_EDGE('',*,*,#236,.T.);
#297=ORIENTED_EDGE('',*,*,#237,.T.);
#298=ORIENTED_EDGE('',*,*,#238,.F.);
#299=ORIENTED_EDGE('',*,*,#239,.F.);
#300=ORIENTED_EDGE('',*,*,#240,.T.);
#301=ORIENTED_EDGE('',*,*,#239,.T.);
#302=ORIENTED_EDGE('',*,*,#241,.F.);
#303=ORIENTED_EDGE('',*,*,#242,.F.);
#304=ORIENTED_EDGE('',*,*,#243,.T.);
#305=ORIENTED_EDGE('',*,*,#242,.T.);
#306=ORIENTED_EDGE('',*,*,#244,.F.);
#307=ORIENTED_EDGE('',*,*,#245,.F.);
#308=ORIENTED_EDGE('',*,*,#246,.T.);
#309=ORIENTED_EDGE('',*,*,#245,.T.);
#310=ORIENTED_EDGE('',*,*,#247,.F.);
#311=ORIENTED_EDGE('',*,*,#237,.F.);
#312=ORIENTED_EDGE('',*,*,#248,.F.);
#313=ORIENTED_EDGE('',*,*,#249,.T.);
#314=ORIENTED_EDGE('',*,*,#250,.F.);
#315=ORIENTED_EDGE('',*,*,#251,.F.);
#316=ORIENTED_EDGE('',*,*,#252,.F.);
#317=ORIENTED_EDGE('',*,*,#251,.T.);
#318=ORIENTED_EDGE('',*,*,#253,.F.);
#319=ORIENTED_EDGE('',*,*,#254,.F.);
#320=ORIENTED_EDGE('',*,*,#255,.F.);
#321=ORIENTED_EDGE('',*,*,#254,.T.);
#322=ORIENTED_EDGE('',*,*,#256,.F.);
#323=ORIENTED_EDGE('',*,*,#257,.F.);
#324=ORIENTED_EDGE('',*,*,#258,.F.);
#325=ORIENTED_EDGE('',*,*,#257,.T.);
#326=ORIENTED_EDGE('',*,*,#259,.F.);
#327=ORIENTED_EDGE('',*,*,#249,.F.);
#328=ORIENTED_EDGE('',*,*,#259,.T.);
#329=ORIENTED_EDGE('',*,*,#256,.T.);
#330=ORIENTED_EDGE('',*,*,#253,.T.);
#331=ORIENTED_EDGE('',*,*,#250,.T.);
#332=ORIENTED_EDGE('',*,*,#209,.T.);
#333=ORIENTED_EDGE('',*,*,#212,.T.);
#334=ORIENTED_EDGE('',*,*,#215,.T.);
#335=ORIENTED_EDGE('',*,*,#247,.T.);
#336=ORIENTED_EDGE('',*,*,#244,.T.);
#337=ORIENTED_EDGE('',*,*,#241,.T.);
#338=ORIENTED_EDGE('',*,*,#238,.T.);
#339=ORIENTED_EDGE('',*,*,#233,.T.);
#340=ORIENTED_EDGE('',*,*,#232,.T.);
#341=ORIENTED_EDGE('',*,*,#229,.T.);
#342=ORIENTED_EDGE('',*,*,#226,.T.);
#343=ORIENTED_EDGE('',*,*,#223,.T.);
#344=ORIENTED_EDGE('',*,*,#218,.T.);
#345=ORIENTED_EDGE('',*,*,#258,.T.);
#346=ORIENTED_EDGE('',*,*,#248,.T.);
#347=ORIENTED_EDGE('',*,*,#252,.T.);
#348=ORIENTED_EDGE('',*,*,#255,.T.);
#349=ORIENTED_EDGE('',*,*,#211,.T.);
#350=ORIENTED_EDGE('',*,*,#214,.T.);
#351=ORIENTED_EDGE('',*,*,#217,.T.);
#352=ORIENTED_EDGE('',*,*,#246,.F.);
#353=ORIENTED_EDGE('',*,*,#236,.F.);
#354=ORIENTED_EDGE('',*,*,#240,.F.);
#355=ORIENTED_EDGE('',*,*,#243,.F.);
#356=ORIENTED_EDGE('',*,*,#235,.F.);
#357=ORIENTED_EDGE('',*,*,#231,.F.);
#358=ORIENTED_EDGE('',*,*,#221,.F.);
#359=ORIENTED_EDGE('',*,*,#225,.F.);
#360=ORIENTED_EDGE('',*,*,#228,.F.);
#361=ORIENTED_EDGE('',*,*,#220,.F.);
#362=CYLINDRICAL_SURFACE('',#404,1.5);
#363=CYLINDRICAL_SURFACE('',#407,1.5);
#364=CYLINDRICAL_SURFACE('',#410,1.5);
#365=CYLINDRICAL_SURFACE('',#413,1.6);
#366=CYLINDRICAL_SURFACE('',#417,0.794999999999996);
#367=CYLINDRICAL_SURFACE('',#421,0.795000000000003);
#368=CYLINDRICAL_SURFACE('',#424,1.6);
#369=CYLINDRICAL_SURFACE('',#428,0.795000000000003);
#370=CYLINDRICAL_SURFACE('',#432,0.795000000000003);
#371=ADVANCED_FACE('',(#39),#362,.F.);
#372=ADVANCED_FACE('',(#40),#363,.F.);
#373=ADVANCED_FACE('',(#41),#364,.F.);
#374=ADVANCED_FACE('',(#42),#365,.F.);
#375=ADVANCED_FACE('',(#43),#29,.T.);
#376=ADVANCED_FACE('',(#44),#366,.F.);
#377=ADVANCED_FACE('',(#45),#30,.T.);
#378=ADVANCED_FACE('',(#46),#367,.F.);
#379=ADVANCED_FACE('',(#47),#368,.F.);
#380=ADVANCED_FACE('',(#48),#31,.T.);
#381=ADVANCED_FACE('',(#49),#369,.F.);
#382=ADVANCED_FACE('',(#50),#32,.T.);
#383=ADVANCED_FACE('',(#51),#370,.F.);
#384=ADVANCED_FACE('',(#52),#33,.T.);
#385=ADVANCED_FACE('',(#53),#34,.T.);
#386=ADVANCED_FACE('',(#54),#35,.T.);
#387=ADVANCED_FACE('',(#55),#36,.T.);
#388=ADVANCED_FACE('',(#56,#15,#16,#17,#18,#19,#20,#21),#37,.T.);
#389=ADVANCED_FACE('',(#57,#22,#23,#24,#25,#26,#27,#28),#38,.F.);
#390=CLOSED_SHELL('',(#371,#372,#373,#374,#375,#376,#377,#378,#379,#380,
#381,#382,#383,#384,#385,#386,#387,#388,#389));
#391=DERIVED_UNIT_ELEMENT(#393,1.);
#392=DERIVED_UNIT_ELEMENT(#660,-3.);
#393=(
MASS_UNIT()
NAMED_UNIT(*)
SI_UNIT(.KILO.,.GRAM.)
);
#394=DERIVED_UNIT((#391,#392));
#395=MEASURE_REPRESENTATION_ITEM('density measure',
POSITIVE_RATIO_MEASURE(7850.),#394);
#396=PROPERTY_DEFINITION_REPRESENTATION(#401,#398);
#397=PROPERTY_DEFINITION_REPRESENTATION(#402,#399);
#398=REPRESENTATION('material name',(#400),#657);
#399=REPRESENTATION('density',(#395),#657);
#400=DESCRIPTIVE_REPRESENTATION_ITEM('Acier','Acier');
#401=PROPERTY_DEFINITION('material property','material name',#667);
#402=PROPERTY_DEFINITION('material property','density of part',#667);
#403=AXIS2_PLACEMENT_3D('placement',#550,#441,#442);
#404=AXIS2_PLACEMENT_3D('',#551,#443,#444);
#405=AXIS2_PLACEMENT_3D('',#553,#445,#446);
#406=AXIS2_PLACEMENT_3D('',#556,#448,#449);
#407=AXIS2_PLACEMENT_3D('',#557,#450,#451);
#408=AXIS2_PLACEMENT_3D('',#559,#452,#453);
#409=AXIS2_PLACEMENT_3D('',#562,#455,#456);
#410=AXIS2_PLACEMENT_3D('',#563,#457,#458);
#411=AXIS2_PLACEMENT_3D('',#565,#459,#460);
#412=AXIS2_PLACEMENT_3D('',#568,#462,#463);
#413=AXIS2_PLACEMENT_3D('',#569,#464,#465);
#414=AXIS2_PLACEMENT_3D('',#571,#466,#467);
#415=AXIS2_PLACEMENT_3D('',#574,#469,#470);
#416=AXIS2_PLACEMENT_3D('',#575,#471,#472);
#417=AXIS2_PLACEMENT_3D('',#584,#477,#478);
#418=AXIS2_PLACEMENT_3D('',#586,#479,#480);
#419=AXIS2_PLACEMENT_3D('',#588,#481,#482);
#420=AXIS2_PLACEMENT_3D('',#590,#484,#485);
#421=AXIS2_PLACEMENT_3D('',#596,#489,#490);
#422=AXIS2_PLACEMENT_3D('',#597,#491,#492);
#423=AXIS2_PLACEMENT_3D('',#598,#493,#494);
#424=AXIS2_PLACEMENT_3D('',#599,#495,#496);
#425=AXIS2_PLACEMENT_3D('',#601,#497,#498);
#426=AXIS2_PLACEMENT_3D('',#604,#500,#501);
#427=AXIS2_PLACEMENT_3D('',#605,#502,#503);
#428=AXIS2_PLACEMENT_3D('',#614,#508,#509);
#429=AXIS2_PLACEMENT_3D('',#616,#510,#511);
#430=AXIS2_PLACEMENT_3D('',#618,#512,#513);
#431=AXIS2_PLACEMENT_3D('',#620,#515,#516);
#432=AXIS2_PLACEMENT_3D('',#626,#520,#521);
#433=AXIS2_PLACEMENT_3D('',#627,#522,#523);
#434=AXIS2_PLACEMENT_3D('',#628,#524,#525);
#435=AXIS2_PLACEMENT_3D('',#629,#526,#527);
#436=AXIS2_PLACEMENT_3D('',#638,#532,#533);
#437=AXIS2_PLACEMENT_3D('',#644,#537,#538);
#438=AXIS2_PLACEMENT_3D('',#650,#542,#543);
#439=AXIS2_PLACEMENT_3D('',#653,#546,#547);
#440=AXIS2_PLACEMENT_3D('',#654,#548,#549);
#441=DIRECTION('axis',(0.,0.,1.));
#442=DIRECTION('refdir',(1.,0.,0.));
#443=DIRECTION('center_axis',(0.,-1.,0.));
#444=DIRECTION('ref_axis',(0.,0.,1.));
#445=DIRECTION('center_axis',(0.,-1.,0.));
#446=DIRECTION('ref_axis',(0.,0.,1.));
#447=DIRECTION('',(0.,-1.,0.));
#448=DIRECTION('center_axis',(0.,1.,0.));
#449=DIRECTION('ref_axis',(0.,0.,1.));
#450=DIRECTION('center_axis',(0.,-1.,0.));
#451=DIRECTION('ref_axis',(0.,0.,1.));
#452=DIRECTION('center_axis',(0.,-1.,0.));
#453=DIRECTION('ref_axis',(0.,0.,1.));
#454=DIRECTION('',(0.,-1.,0.));
#455=DIRECTION('center_axis',(0.,1.,0.));
#456=DIRECTION('ref_axis',(0.,0.,1.));
#457=DIRECTION('center_axis',(0.,-1.,0.));
#458=DIRECTION('ref_axis',(0.,0.,1.));
#459=DIRECTION('center_axis',(0.,-1.,0.));
#460=DIRECTION('ref_axis',(0.,0.,1.));
#461=DIRECTION('',(0.,-1.,0.));
#462=DIRECTION('center_axis',(0.,1.,0.));
#463=DIRECTION('ref_axis',(0.,0.,1.));
#464=DIRECTION('center_axis',(0.,1.,0.));
#465=DIRECTION('ref_axis',(1.,0.,0.));
#466=DIRECTION('center_axis',(0.,-1.,0.));
#467=DIRECTION('ref_axis',(1.,0.,0.));
#468=DIRECTION('',(0.,-1.,0.));
#469=DIRECTION('center_axis',(0.,-1.,0.));
#470=DIRECTION('ref_axis',(1.,0.,0.));
#471=DIRECTION('center_axis',(1.,0.,-1.31128703695885E-15));
#472=DIRECTION('ref_axis',(-1.31128703695885E-15,0.,-1.));
#473=DIRECTION('',(-1.31128703695885E-15,0.,-1.));
#474=DIRECTION('',(0.,1.,0.));
#475=DIRECTION('',(-1.31128703695885E-15,0.,-1.));
#476=DIRECTION('',(0.,1.,0.));
#477=DIRECTION('center_axis',(0.,1.,0.));
#478=DIRECTION('ref_axis',(-1.,0.,1.39650694921404E-15));
#479=DIRECTION('center_axis',(0.,-1.,0.));
#480=DIRECTION('ref_axis',(-1.,0.,1.39650694921404E-15));
#481=DIRECTION('center_axis',(0.,-1.,0.));
#482=DIRECTION('ref_axis',(-1.,0.,1.39650694921404E-15));
#483=DIRECTION('',(0.,1.,0.));
#484=DIRECTION('center_axis',(-1.,0.,-8.74191357972564E-17));
#485=DIRECTION('ref_axis',(-8.74191357972564E-17,0.,1.));
#486=DIRECTION('',(-8.74191357972564E-17,0.,1.));
#487=DIRECTION('',(-8.74191357972564E-17,0.,1.));
#488=DIRECTION('',(0.,1.,0.));
#489=DIRECTION('center_axis',(0.,1.,0.));
#490=DIRECTION('ref_axis',(1.,0.,0.));
#491=DIRECTION('center_axis',(0.,-1.,0.));
#492=DIRECTION('ref_axis',(1.,0.,0.));
#493=DIRECTION('center_axis',(0.,-1.,0.));
#494=DIRECTION('ref_axis',(1.,0.,0.));
#495=DIRECTION('center_axis',(0.,1.,0.));
#496=DIRECTION('ref_axis',(1.,0.,0.));
#497=DIRECTION('center_axis',(0.,-1.,0.));
#498=DIRECTION('ref_axis',(1.,0.,0.));
#499=DIRECTION('',(0.,-1.,0.));
#500=DIRECTION('center_axis',(0.,-1.,0.));
#501=DIRECTION('ref_axis',(1.,0.,0.));
#502=DIRECTION('center_axis',(-1.,0.,0.));
#503=DIRECTION('ref_axis',(0.,0.,1.));
#504=DIRECTION('',(0.,0.,1.));
#505=DIRECTION('',(0.,1.,0.));
#506=DIRECTION('',(0.,0.,1.));
#507=DIRECTION('',(0.,1.,0.));
#508=DIRECTION('center_axis',(0.,1.,0.));
#509=DIRECTION('ref_axis',(1.,0.,0.));
#510=DIRECTION('center_axis',(0.,-1.,0.));
#511=DIRECTION('ref_axis',(1.,0.,0.));
#512=DIRECTION('center_axis',(0.,-1.,0.));
#513=DIRECTION('ref_axis',(1.,0.,0.));
#514=DIRECTION('',(0.,1.,0.));
#515=DIRECTION('center_axis',(1.,0.,0.));
#516=DIRECTION('ref_axis',(0.,0.,-1.));
#517=DIRECTION('',(0.,0.,-1.));
#518=DIRECTION('',(0.,0.,-1.));
#519=DIRECTION('',(0.,1.,0.));
#520=DIRECTION('center_axis',(0.,1.,0.));
#521=DIRECTION('ref_axis',(-1.,0.,0.));
#522=DIRECTION('center_axis',(0.,-1.,0.));
#523=DIRECTION('ref_axis',(-1.,0.,0.));
#524=DIRECTION('center_axis',(0.,-1.,0.));
#525=DIRECTION('ref_axis',(-1.,0.,0.));
#526=DIRECTION('center_axis',(-1.,0.,6.12323399573676E-17));
#527=DIRECTION('ref_axis',(6.12323399573676E-17,0.,1.));
#528=DIRECTION('',(-6.12323399573676E-17,0.,-1.));
#529=DIRECTION('',(0.,1.,0.));
#530=DIRECTION('',(6.12323399573676E-17,0.,1.));
#531=DIRECTION('',(0.,1.,0.));
#532=DIRECTION('center_axis',(0.,0.,-1.));
#533=DIRECTION('ref_axis',(-1.,0.,0.));
#534=DIRECTION('',(1.,0.,0.));
#535=DIRECTION('',(-1.,0.,0.));
#536=DIRECTION('',(0.,1.,0.));
#537=DIRECTION('center_axis',(1.,0.,0.));
#538=DIRECTION('ref_axis',(0.,0.,-1.));
#539=DIRECTION('',(0.,0.,1.));
#540=DIRECTION('',(0.,0.,-1.));
#541=DIRECTION('',(0.,1.,0.));
#542=DIRECTION('center_axis',(0.,0.,1.));
#543=DIRECTION('ref_axis',(1.,0.,0.));
#544=DIRECTION('',(-1.,0.,0.));
#545=DIRECTION('',(1.,0.,0.));
#546=DIRECTION('center_axis',(0.,1.,0.));
#547=DIRECTION('ref_axis',(1.,0.,0.));
#548=DIRECTION('center_axis',(0.,1.,0.));
#549=DIRECTION('ref_axis',(1.,0.,0.));
#550=CARTESIAN_POINT('',(0.,0.,0.));
#551=CARTESIAN_POINT('Origin',(23.7126638009342,-1082.67659769821,29.55));
#552=CARTESIAN_POINT('',(23.7126638009342,-18.4265976982145,28.05));
#553=CARTESIAN_POINT('Origin',(23.7126638009342,-18.4265976982145,29.55));
#554=CARTESIAN_POINT('',(23.7126638009342,-22.4265976982145,28.05));
#555=CARTESIAN_POINT('',(23.7126638009342,-1082.67659769821,28.05));
#556=CARTESIAN_POINT('Origin',(23.7126638009342,-22.4265976982145,29.55));
#557=CARTESIAN_POINT('Origin',(8.,-5.72659769821453,29.55));
#558=CARTESIAN_POINT('',(8.,-18.4265976982145,28.05));
#559=CARTESIAN_POINT('Origin',(8.,-18.4265976982145,29.55));
#560=CARTESIAN_POINT('',(8.,-22.4265976982145,28.05));
#561=CARTESIAN_POINT('',(8.,-5.72659769821453,28.05));
#562=CARTESIAN_POINT('Origin',(8.,-22.4265976982145,29.55));
#563=CARTESIAN_POINT('Origin',(39.5,-4.53909769821453,29.55));
#564=CARTESIAN_POINT('',(39.5,-18.4265976982145,28.05));
#565=CARTESIAN_POINT('Origin',(39.5,-18.4265976982145,29.55));
#566=CARTESIAN_POINT('',(39.5,-22.4265976982145,28.05));
#567=CARTESIAN_POINT('',(39.5,-4.53909769821453,28.05));
#568=CARTESIAN_POINT('Origin',(39.5,-22.4265976982145,29.55));
#569=CARTESIAN_POINT('Origin',(16.75,-22.4265976982145,21.68));
#570=CARTESIAN_POINT('',(15.15,-18.4265976982145,21.68));
#571=CARTESIAN_POINT('Origin',(16.75,-18.4265976982145,21.68));
#572=CARTESIAN_POINT('',(15.15,-22.4265976982145,21.68));
#573=CARTESIAN_POINT('',(15.15,-22.4265976982145,21.68));
#574=CARTESIAN_POINT('Origin',(16.75,-22.4265976982145,21.68));
#575=CARTESIAN_POINT('Origin',(2.38500000000001,-22.4265976982145,9.53));
#576=CARTESIAN_POINT('',(2.38500000000001,-22.4265976982145,9.53));
#577=CARTESIAN_POINT('',(2.385,-22.4265976982145,3.18));
#578=CARTESIAN_POINT('',(2.385,-22.4265976982145,3.18));
#579=CARTESIAN_POINT('',(2.385,-18.4265976982145,3.18));
#580=CARTESIAN_POINT('',(2.385,-22.4265976982145,3.18));
#581=CARTESIAN_POINT('',(2.38500000000001,-18.4265976982145,9.53));
#582=CARTESIAN_POINT('',(2.385,-18.4265976982145,3.18));
#583=CARTESIAN_POINT('',(2.38500000000001,-22.4265976982145,9.53));
#584=CARTESIAN_POINT('Origin',(3.18,-22.4265976982145,9.53));
#585=CARTESIAN_POINT('',(3.97500000000001,-22.4265976982145,9.53));
#586=CARTESIAN_POINT('Origin',(3.18,-22.4265976982145,9.53));
#587=CARTESIAN_POINT('',(3.97500000000001,-18.4265976982145,9.53));
#588=CARTESIAN_POINT('Origin',(3.18,-18.4265976982145,9.53));
#589=CARTESIAN_POINT('',(3.97500000000001,-22.4265976982145,9.53));
#590=CARTESIAN_POINT('Origin',(3.97500000000001,-22.4265976982145,3.18));
#591=CARTESIAN_POINT('',(3.97500000000001,-22.4265976982145,3.18));
#592=CARTESIAN_POINT('',(3.97500000000001,-22.4265976982145,9.53));
#593=CARTESIAN_POINT('',(3.97500000000001,-18.4265976982145,3.18));
#594=CARTESIAN_POINT('',(3.97500000000001,-18.4265976982145,9.53));
#595=CARTESIAN_POINT('',(3.97500000000001,-22.4265976982145,3.18));
#596=CARTESIAN_POINT('Origin',(3.18,-22.4265976982145,3.18));
#597=CARTESIAN_POINT('Origin',(3.18,-22.4265976982145,3.18));
#598=CARTESIAN_POINT('Origin',(3.18,-18.4265976982145,3.18));
#599=CARTESIAN_POINT('Origin',(30.75,-22.4265976982145,21.68));
#600=CARTESIAN_POINT('',(29.15,-18.4265976982145,21.68));
#601=CARTESIAN_POINT('Origin',(30.75,-18.4265976982145,21.68));
#602=CARTESIAN_POINT('',(29.15,-22.4265976982145,21.68));
#603=CARTESIAN_POINT('',(29.15,-22.4265976982145,21.68));
#604=CARTESIAN_POINT('Origin',(30.75,-22.4265976982145,21.68));
#605=CARTESIAN_POINT('Origin',(45.115,-22.4265976982145,14.61));
#606=CARTESIAN_POINT('',(45.115,-22.4265976982145,14.61));
#607=CARTESIAN_POINT('',(45.115,-22.4265976982145,20.96));
#608=CARTESIAN_POINT('',(45.115,-22.4265976982145,20.96));
#609=CARTESIAN_POINT('',(45.115,-18.4265976982145,20.96));
#610=CARTESIAN_POINT('',(45.115,-22.4265976982145,20.96));
#611=CARTESIAN_POINT('',(45.115,-18.4265976982145,14.61));
#612=CARTESIAN_POINT('',(45.115,-18.4265976982145,20.96));
#613=CARTESIAN_POINT('',(45.115,-22.4265976982145,14.61));
#614=CARTESIAN_POINT('Origin',(44.32,-22.4265976982145,14.61));
#615=CARTESIAN_POINT('',(43.525,-22.4265976982145,14.61));
#616=CARTESIAN_POINT('Origin',(44.32,-22.4265976982145,14.61));
#617=CARTESIAN_POINT('',(43.525,-18.4265976982145,14.61));
#618=CARTESIAN_POINT('Origin',(44.32,-18.4265976982145,14.61));
#619=CARTESIAN_POINT('',(43.525,-22.4265976982145,14.61));
#620=CARTESIAN_POINT('Origin',(43.525,-22.4265976982145,20.96));
#621=CARTESIAN_POINT('',(43.525,-22.4265976982145,20.96));
#622=CARTESIAN_POINT('',(43.525,-22.4265976982145,14.61));
#623=CARTESIAN_POINT('',(43.525,-18.4265976982145,20.96));
#624=CARTESIAN_POINT('',(43.525,-18.4265976982145,14.61));
#625=CARTESIAN_POINT('',(43.525,-22.4265976982145,20.96));
#626=CARTESIAN_POINT('Origin',(44.32,-22.4265976982145,20.96));
#627=CARTESIAN_POINT('Origin',(44.32,-22.4265976982145,20.96));
#628=CARTESIAN_POINT('Origin',(44.32,-18.4265976982145,20.96));
#629=CARTESIAN_POINT('Origin',(2.46519032881566E-31,-22.4265976982145,0.));
#630=CARTESIAN_POINT('',(1.94412679364642E-15,-22.4265976982145,31.75));
#631=CARTESIAN_POINT('',(2.46519032881566E-31,-22.4265976982145,0.));
#632=CARTESIAN_POINT('',(1.94412679364642E-15,-22.4265976982145,31.75));
#633=CARTESIAN_POINT('',(0.,-18.4265976982145,31.75));
#634=CARTESIAN_POINT('',(1.94412679364642E-15,-22.4265976982145,31.75));
#635=CARTESIAN_POINT('',(0.,-18.4265976982145,0.));
#636=CARTESIAN_POINT('',(1.94412679364642E-15,-18.4265976982145,31.75));
#637=CARTESIAN_POINT('',(2.46519032881566E-31,-22.4265976982145,0.));
#638=CARTESIAN_POINT('Origin',(47.5,-22.4265976982145,0.));
#639=CARTESIAN_POINT('',(47.5,-22.4265976982145,0.));
#640=CARTESIAN_POINT('',(0.,-22.4265976982145,0.));
#641=CARTESIAN_POINT('',(47.5,-18.4265976982145,0.));
#642=CARTESIAN_POINT('',(0.,-18.4265976982145,0.));
#643=CARTESIAN_POINT('',(47.5,-22.4265976982145,0.));
#644=CARTESIAN_POINT('Origin',(47.5,-22.4265976982145,31.75));
#645=CARTESIAN_POINT('',(47.5,-22.4265976982145,31.75));
#646=CARTESIAN_POINT('',(47.5,-22.4265976982145,0.));
#647=CARTESIAN_POINT('',(47.5,-18.4265976982145,31.75));
#648=CARTESIAN_POINT('',(47.5,-18.4265976982145,0.));
#649=CARTESIAN_POINT('',(47.5,-22.4265976982145,31.75));
#650=CARTESIAN_POINT('Origin',(0.,-22.4265976982145,31.75));
#651=CARTESIAN_POINT('',(47.5,-22.4265976982145,31.75));
#652=CARTESIAN_POINT('',(47.5,-18.4265976982145,31.75));
#653=CARTESIAN_POINT('Origin',(23.75,-18.4265976982145,15.875));
#654=CARTESIAN_POINT('Origin',(23.75,-22.4265976982145,15.875));
#655=UNCERTAINTY_MEASURE_WITH_UNIT(LENGTH_MEASURE(0.01),#659,
'DISTANCE_ACCURACY_VALUE',
'Maximum model space distance between geometric entities at asserted c
onnectivities');
#656=UNCERTAINTY_MEASURE_WITH_UNIT(LENGTH_MEASURE(0.01),#659,
'DISTANCE_ACCURACY_VALUE',
'Maximum model space distance between geometric entities at asserted c
onnectivities');
#657=(
GEOMETRIC_REPRESENTATION_CONTEXT(3)
GLOBAL_UNCERTAINTY_ASSIGNED_CONTEXT((#655))
GLOBAL_UNIT_ASSIGNED_CONTEXT((#659,#661,#662))
REPRESENTATION_CONTEXT('','3D')
);
#658=(
GEOMETRIC_REPRESENTATION_CONTEXT(3)
GLOBAL_UNCERTAINTY_ASSIGNED_CONTEXT((#656))
GLOBAL_UNIT_ASSIGNED_CONTEXT((#659,#661,#662))
REPRESENTATION_CONTEXT('','3D')
);
#659=(
LENGTH_UNIT()
NAMED_UNIT(*)
SI_UNIT(.MILLI.,.METRE.)
);
#660=(
LENGTH_UNIT()
NAMED_UNIT(*)
SI_UNIT($,.METRE.)
);
#661=(
NAMED_UNIT(*)
PLANE_ANGLE_UNIT()
SI_UNIT($,.RADIAN.)
);
#662=(
NAMED_UNIT(*)
SI_UNIT($,.STERADIAN.)
SOLID_ANGLE_UNIT()
);
#663=SHAPE_DEFINITION_REPRESENTATION(#664,#665);
#664=PRODUCT_DEFINITION_SHAPE('',$,#667);
#665=SHAPE_REPRESENTATION('',(#403),#657);
#666=PRODUCT_DEFINITION_CONTEXT('part definition',#671,'design');
#667=PRODUCT_DEFINITION('(Non enregistr\X\E9)','(Non enregistr\X\E9)',#668,
#666);
#668=PRODUCT_DEFINITION_FORMATION('',$,#673);
#669=PRODUCT_RELATED_PRODUCT_CATEGORY('(Non enregistr\X\E9)',
'(Non enregistr\X\E9)',(#673));
#670=APPLICATION_PROTOCOL_DEFINITION('international standard',
'automotive_design',2009,#671);
#671=APPLICATION_CONTEXT(
'Core Data for Automotive Mechanical Design Process');
#672=PRODUCT_CONTEXT('part definition',#671,'mechanical');
#673=PRODUCT('(Non enregistr\X\E9)','(Non enregistr\X\E9)',$,(#672));
#674=PRESENTATION_STYLE_ASSIGNMENT((#675));
#675=SURFACE_STYLE_USAGE(.BOTH.,#676);
#676=SURFACE_SIDE_STYLE('',(#677));
#677=SURFACE_STYLE_FILL_AREA(#678);
#678=FILL_AREA_STYLE('Acier - Satin\X\E9',(#679));
#679=FILL_AREA_STYLE_COLOUR('Acier - Satin\X\E9',#680);
#680=COLOUR_RGB('Acier - Satin\X\E9',0.627450980392157,0.627450980392157,
0.627450980392157);
ENDSEC;
END-ISO-10303-21;
