ISO-10303-21;
HEADER;
FILE_DESCRIPTION(('CATIA V5 STEP Exchange'),'2;1');

FILE_NAME('U:\\RV.stp','2022-01-05T10:49:05+00:00',('none'),('none'),'CATIA Version 5 Release 21 GA (IN-10)','CATIA V5 STEP AP203','none');

FILE_SCHEMA(('CONFIG_CONTROL_DESIGN'));

ENDSEC;
/* file written by CATIA V5R21 */
DATA;
#5=PRODUCT('rv','','',(#2)) ;
#1=APPLICATION_CONTEXT('configuration controlled 3D design of mechanical parts and assemblies') ;
#14=PRODUCT_DEFINITION('',' ',#6,#3) ;
#16=SECURITY_CLASSIFICATION(' ',' ',#15) ;
#15=SECURITY_CLASSIFICATION_LEVEL('unclassified') ;
#47=CARTESIAN_POINT(' ',(0.,0.,0.)) ;
#52=CARTESIAN_POINT('Axis2P3D Location',(0.,0.,84.9)) ;
#57=CARTESIAN_POINT('Line Origine',(-4.38791280945,2.39712769302,80.1550000004)) ;
#61=CARTESIAN_POINT('Vertex',(-4.38791280945,2.39712769302,81.)) ;
#63=CARTESIAN_POINT('Vertex',(-4.38791280945,2.39712769302,85.)) ;
#66=CARTESIAN_POINT('Axis2P3D Location',(0.,0.,81.)) ;
#70=CARTESIAN_POINT('Vertex',(4.38791280945,-2.39712769302,81.)) ;
#73=CARTESIAN_POINT('Line Origine',(4.38791280945,-2.39712769302,80.1550000004)) ;
#77=CARTESIAN_POINT('Vertex',(4.38791280945,-2.39712769302,85.)) ;
#80=CARTESIAN_POINT('Axis2P3D Location',(0.,0.,85.)) ;
#92=CARTESIAN_POINT('Axis2P3D Location',(0.,0.,81.)) ;
#97=CARTESIAN_POINT('Axis2P3D Location',(0.,0.,85.)) ;
#109=CARTESIAN_POINT('Axis2P3D Location',(0.,72.5,4.)) ;
#114=CARTESIAN_POINT('Axis2P3D Location',(0.,0.,4.)) ;
#118=CARTESIAN_POINT('Vertex',(34.7583515488,-63.6247357371,4.)) ;
#120=CARTESIAN_POINT('Vertex',(-34.7583515488,63.6247357371,4.)) ;
#123=CARTESIAN_POINT('Axis2P3D Location',(0.,0.,4.)) ;
#132=CARTESIAN_POINT('Axis2P3D Location',(0.,0.,4.)) ;
#136=CARTESIAN_POINT('Vertex',(-33.5597877023,61.4307793323,4.)) ;
#138=CARTESIAN_POINT('Vertex',(33.5597877023,-61.4307793323,4.)) ;
#141=CARTESIAN_POINT('Axis2P3D Location',(0.,0.,4.)) ;
#151=CARTESIAN_POINT('Axis2P3D Location',(0.,0.,42.5)) ;
#156=CARTESIAN_POINT('Line Origine',(-34.7583515488,63.6247357371,2.)) ;
#160=CARTESIAN_POINT('Vertex',(-34.7583515488,63.6247357371,-7.1054273576E-015)) ;
#163=CARTESIAN_POINT('Line Origine',(34.7583515488,-63.6247357371,2.)) ;
#167=CARTESIAN_POINT('Vertex',(34.7583515488,-63.6247357371,-7.1054273576E-015)) ;
#170=CARTESIAN_POINT('Axis2P3D Location',(0.,0.,0.)) ;
#182=CARTESIAN_POINT('Axis2P3D Location',(0.,0.,0.)) ;
#194=CARTESIAN_POINT('Axis2P3D Location',(0.,30.,85.)) ;
#199=CARTESIAN_POINT('Axis2P3D Location',(4.4408920985E-015,-7.1054273576E-015,85.)) ;
#203=CARTESIAN_POINT('Vertex',(-12.8930473818,23.6005649279,85.)) ;
#205=CARTESIAN_POINT('Vertex',(12.893048898,-23.6005640996,85.)) ;
#208=CARTESIAN_POINT('Axis2P3D Location',(4.88498130835E-015,-3.5527136788E-015,85.)) ;
#222=CARTESIAN_POINT('Axis2P3D Location',(0.,0.,85.)) ;
#227=CARTESIAN_POINT('Line Origine',(23.9712769302,-43.8791280945,44.5)) ;
#231=CARTESIAN_POINT('Vertex',(15.0423843034,-27.5348997726,82.2139015623)) ;
#234=CARTESIAN_POINT('Line Origine',(-23.9712769302,43.8791280945,44.5)) ;
#238=CARTESIAN_POINT('Vertex',(-15.0423843034,27.5348997726,82.2139015623)) ;
#241=CARTESIAN_POINT('Axis2P3D Location',(0.,0.,82.2139015623)) ;
#253=CARTESIAN_POINT('Axis2P3D Location',(0.,0.,82.2139015623)) ;
#265=CARTESIAN_POINT('Axis2P3D Location',(-1.42108547152E-014,-5.3290705182E-015,80.)) ;
#270=CARTESIAN_POINT('Axis2P3D Location',(-12.8930473818,23.6005649279,80.)) ;
#275=CARTESIAN_POINT('Axis2P3D Location',(12.8930473818,-23.6005649279,80.)) ;
#287=CARTESIAN_POINT('Axis2P3D Location',(5.3290705182E-015,-3.5527136788E-015,80.)) ;
#299=CARTESIAN_POINT('Axis2P3D Location',(0.,67.5141603334,1.7763568394E-015)) ;
#308=CARTESIAN_POINT('Axis2P3D Location',(-2.77555756156E-015,0.,1.7763568394E-015)) ;
#312=CARTESIAN_POINT('Vertex',(33.8577313798,-61.9761617606,1.7763568394E-015)) ;
#314=CARTESIAN_POINT('Vertex',(-33.8577314576,61.9761617181,1.7763568394E-015)) ;
#317=CARTESIAN_POINT('Axis2P3D Location',(1.39888101103E-014,-1.42108547152E-014,1.7763568394E-015)) ;
#327=CARTESIAN_POINT('Axis2P3D Location',(-1.42108547152E-014,7.1054273576E-015,5.)) ;
#332=CARTESIAN_POINT('Axis2P3D Location',(33.8577314576,-61.9761617181,5.)) ;
#336=CARTESIAN_POINT('Vertex',(31.708394536,-58.0418268734,2.78609843773)) ;
#339=CARTESIAN_POINT('Axis2P3D Location',(-1.42108547152E-014,7.1054273576E-015,2.78609843773)) ;
#343=CARTESIAN_POINT('Vertex',(-31.708394536,58.0418268734,2.78609843773)) ;
#346=CARTESIAN_POINT('Axis2P3D Location',(-33.8577314576,61.9761617181,5.)) ;
#358=CARTESIAN_POINT('Axis2P3D Location',(-7.1054273576E-015,-1.7763568394E-015,5.)) ;
#363=CARTESIAN_POINT('Axis2P3D Location',(-7.1054273576E-015,-1.7763568394E-015,2.78609843773)) ;
#375=CARTESIAN_POINT('Axis2P3D Location',(0.,-1.00349505121E-014,81.)) ;
#380=CARTESIAN_POINT('Axis2P3D Location',(1.33226762955E-015,-3.70667927176E-015,81.)) ;
#384=CARTESIAN_POINT('Vertex',(11.701271256,-21.4190359884,81.)) ;
#386=CARTESIAN_POINT('Vertex',(-11.7012723608,21.4190353848,81.)) ;
#389=CARTESIAN_POINT('Axis2P3D Location',(-2.22044604925E-015,5.84123874002E-015,81.)) ;
#403=CARTESIAN_POINT('Axis2P3D Location',(0.,0.,81.)) ;
#408=CARTESIAN_POINT('Axis2P3D Location',(0.,0.,78.2139015623)) ;
#412=CARTESIAN_POINT('Vertex',(13.8506092823,-25.3533702295,78.2139015623)) ;
#414=CARTESIAN_POINT('Vertex',(-13.8506092823,25.3533702295,78.2139015623)) ;
#417=CARTESIAN_POINT('Line Origine',(22.7795019092,-41.6975985515,40.5)) ;
#422=CARTESIAN_POINT('Line Origine',(-22.7795019092,41.6975985515,40.5)) ;
#434=CARTESIAN_POINT('Axis2P3D Location',(0.,0.,78.2139015623)) ;
#446=CARTESIAN_POINT('Axis2P3D Location',(-1.06581410364E-014,-8.881784197E-016,76.)) ;
#451=CARTESIAN_POINT('Axis2P3D Location',(11.701271256,-21.4190359884,76.)) ;
#456=CARTESIAN_POINT('Axis2P3D Location',(-11.7012723608,21.4190353848,76.)) ;
#468=CARTESIAN_POINT('Axis2P3D Location',(0.,-7.1054273576E-015,76.)) ;
#483=CARTESIAN_POINT('Axis2P3D Location',(0.,0.,0.)) ;
#53=DIRECTION('Axis2P3D Direction',(0.,-0.,-1.)) ;
#54=DIRECTION('Axis2P3D XDirection',(0.87758256189,-0.479425538604,0.)) ;
#58=DIRECTION('Vector Direction',(0.,0.,-1.)) ;
#67=DIRECTION('Axis2P3D Direction',(0.,-0.,-1.)) ;
#74=DIRECTION('Vector Direction',(0.,0.,-1.)) ;
#81=DIRECTION('Axis2P3D Direction',(0.,-0.,-1.)) ;
#93=DIRECTION('Axis2P3D Direction',(0.,-0.,-1.)) ;
#98=DIRECTION('Axis2P3D Direction',(0.,-0.,-1.)) ;
#110=DIRECTION('Axis2P3D Direction',(0.,0.,1.)) ;
#111=DIRECTION('Axis2P3D XDirection',(1.,0.,0.)) ;
#115=DIRECTION('Axis2P3D Direction',(0.,0.,1.)) ;
#124=DIRECTION('Axis2P3D Direction',(0.,0.,1.)) ;
#133=DIRECTION('Axis2P3D Direction',(0.,0.,1.)) ;
#142=DIRECTION('Axis2P3D Direction',(0.,0.,1.)) ;
#152=DIRECTION('Axis2P3D Direction',(0.,0.,1.)) ;
#153=DIRECTION('Axis2P3D XDirection',(-0.479425538604,0.87758256189,0.)) ;
#157=DIRECTION('Vector Direction',(0.,0.,1.)) ;
#164=DIRECTION('Vector Direction',(0.,0.,1.)) ;
#171=DIRECTION('Axis2P3D Direction',(0.,0.,1.)) ;
#183=DIRECTION('Axis2P3D Direction',(0.,0.,1.)) ;
#195=DIRECTION('Axis2P3D Direction',(0.,0.,1.)) ;
#196=DIRECTION('Axis2P3D XDirection',(1.,0.,0.)) ;
#200=DIRECTION('Axis2P3D Direction',(0.,0.,1.)) ;
#209=DIRECTION('Axis2P3D Direction',(0.,0.,1.)) ;
#223=DIRECTION('Axis2P3D Direction',(-0.,-0.,-1.)) ;
#224=DIRECTION('Axis2P3D XDirection',(-0.479425538604,0.87758256189,0.)) ;
#228=DIRECTION('Vector Direction',(0.212280189782,-0.388576280959,-0.896630132721)) ;
#235=DIRECTION('Vector Direction',(-0.212280189782,0.388576280959,-0.896630132721)) ;
#242=DIRECTION('Axis2P3D Direction',(0.,0.,-1.)) ;
#254=DIRECTION('Axis2P3D Direction',(0.,0.,-1.)) ;
#266=DIRECTION('Axis2P3D Direction',(0.,-0.,1.)) ;
#267=DIRECTION('Axis2P3D XDirection',(-0.479425538604,0.87758256189,0.)) ;
#271=DIRECTION('Axis2P3D Direction',(0.87758256189,0.479425538604,0.)) ;
#276=DIRECTION('Axis2P3D Direction',(-0.87758256189,-0.479425538604,0.)) ;
#288=DIRECTION('Axis2P3D Direction',(0.,0.,1.)) ;
#289=DIRECTION('Axis2P3D XDirection',(0.0542476721714,-0.99852751092,0.)) ;
#300=DIRECTION('Axis2P3D Direction',(0.,0.,1.)) ;
#301=DIRECTION('Axis2P3D XDirection',(1.,0.,0.)) ;
#309=DIRECTION('Axis2P3D Direction',(0.,0.,1.)) ;
#318=DIRECTION('Axis2P3D Direction',(0.,0.,1.)) ;
#328=DIRECTION('Axis2P3D Direction',(0.,0.,1.)) ;
#329=DIRECTION('Axis2P3D XDirection',(0.144706269133,-0.989474656408,0.)) ;
#333=DIRECTION('Axis2P3D Direction',(-0.87758256189,-0.479425538604,0.)) ;
#340=DIRECTION('Axis2P3D Direction',(0.,0.,1.)) ;
#347=DIRECTION('Axis2P3D Direction',(0.87758256189,0.479425538604,-0.)) ;
#359=DIRECTION('Axis2P3D Direction',(0.,-0.,1.)) ;
#360=DIRECTION('Axis2P3D XDirection',(-0.479425538604,0.87758256189,0.)) ;
#364=DIRECTION('Axis2P3D Direction',(0.,-0.,1.)) ;
#376=DIRECTION('Axis2P3D Direction',(0.,0.,1.)) ;
#377=DIRECTION('Axis2P3D XDirection',(1.,0.,0.)) ;
#381=DIRECTION('Axis2P3D Direction',(0.,0.,1.)) ;
#390=DIRECTION('Axis2P3D Direction',(0.,0.,1.)) ;
#404=DIRECTION('Axis2P3D Direction',(-0.,-0.,-1.)) ;
#405=DIRECTION('Axis2P3D XDirection',(-0.479425538604,0.87758256189,0.)) ;
#409=DIRECTION('Axis2P3D Direction',(0.,0.,-1.)) ;
#418=DIRECTION('Vector Direction',(0.212280189782,-0.388576280959,-0.896630132721)) ;
#423=DIRECTION('Vector Direction',(-0.212280189782,0.388576280959,-0.896630132721)) ;
#435=DIRECTION('Axis2P3D Direction',(0.,0.,-1.)) ;
#447=DIRECTION('Axis2P3D Direction',(0.,0.,1.)) ;
#448=DIRECTION('Axis2P3D XDirection',(0.376750473074,-0.92631478507,0.)) ;
#452=DIRECTION('Axis2P3D Direction',(-0.87758258662,-0.479425493337,0.)) ;
#457=DIRECTION('Axis2P3D Direction',(0.87758256189,0.479425538604,-0.)) ;
#469=DIRECTION('Axis2P3D Direction',(0.,-0.,1.)) ;
#470=DIRECTION('Axis2P3D XDirection',(-0.479425538604,0.87758256189,0.)) ;
#484=DIRECTION('Axis2P3D Direction',(0.,0.,1.)) ;
#485=DIRECTION('Axis2P3D XDirection',(1.,0.,0.)) ;
#48=AXIS2_PLACEMENT_3D(' ',#47,$,$) ;
#55=AXIS2_PLACEMENT_3D('Cylinder Axis2P3D',#52,#53,#54) ;
#68=AXIS2_PLACEMENT_3D('Circle Axis2P3D',#66,#67,$) ;
#82=AXIS2_PLACEMENT_3D('Circle Axis2P3D',#80,#81,$) ;
#94=AXIS2_PLACEMENT_3D('Circle Axis2P3D',#92,#93,$) ;
#99=AXIS2_PLACEMENT_3D('Circle Axis2P3D',#97,#98,$) ;
#112=AXIS2_PLACEMENT_3D('Plane Axis2P3D',#109,#110,#111) ;
#116=AXIS2_PLACEMENT_3D('Circle Axis2P3D',#114,#115,$) ;
#125=AXIS2_PLACEMENT_3D('Circle Axis2P3D',#123,#124,$) ;
#134=AXIS2_PLACEMENT_3D('Circle Axis2P3D',#132,#133,$) ;
#143=AXIS2_PLACEMENT_3D('Circle Axis2P3D',#141,#142,$) ;
#154=AXIS2_PLACEMENT_3D('Cylinder Axis2P3D',#151,#152,#153) ;
#172=AXIS2_PLACEMENT_3D('Circle Axis2P3D',#170,#171,$) ;
#184=AXIS2_PLACEMENT_3D('Circle Axis2P3D',#182,#183,$) ;
#197=AXIS2_PLACEMENT_3D('Plane Axis2P3D',#194,#195,#196) ;
#201=AXIS2_PLACEMENT_3D('Circle Axis2P3D',#199,#200,$) ;
#210=AXIS2_PLACEMENT_3D('Circle Axis2P3D',#208,#209,$) ;
#225=AXIS2_PLACEMENT_3D('Cone Axis2P3D',#222,#223,#224) ;
#243=AXIS2_PLACEMENT_3D('Circle Axis2P3D',#241,#242,$) ;
#255=AXIS2_PLACEMENT_3D('Circle Axis2P3D',#253,#254,$) ;
#268=AXIS2_PLACEMENT_3D('Torus Axis2P3D',#265,#266,#267) ;
#272=AXIS2_PLACEMENT_3D('Circle Axis2P3D',#270,#271,$) ;
#277=AXIS2_PLACEMENT_3D('Circle Axis2P3D',#275,#276,$) ;
#290=AXIS2_PLACEMENT_3D('Torus Axis2P3D',#287,#288,#289) ;
#302=AXIS2_PLACEMENT_3D('Plane Axis2P3D',#299,#300,#301) ;
#310=AXIS2_PLACEMENT_3D('Circle Axis2P3D',#308,#309,$) ;
#319=AXIS2_PLACEMENT_3D('Circle Axis2P3D',#317,#318,$) ;
#330=AXIS2_PLACEMENT_3D('Torus Axis2P3D',#327,#328,#329) ;
#334=AXIS2_PLACEMENT_3D('Circle Axis2P3D',#332,#333,$) ;
#341=AXIS2_PLACEMENT_3D('Circle Axis2P3D',#339,#340,$) ;
#348=AXIS2_PLACEMENT_3D('Circle Axis2P3D',#346,#347,$) ;
#361=AXIS2_PLACEMENT_3D('Torus Axis2P3D',#358,#359,#360) ;
#365=AXIS2_PLACEMENT_3D('Circle Axis2P3D',#363,#364,$) ;
#378=AXIS2_PLACEMENT_3D('Plane Axis2P3D',#375,#376,#377) ;
#382=AXIS2_PLACEMENT_3D('Circle Axis2P3D',#380,#381,$) ;
#391=AXIS2_PLACEMENT_3D('Circle Axis2P3D',#389,#390,$) ;
#406=AXIS2_PLACEMENT_3D('Cone Axis2P3D',#403,#404,#405) ;
#410=AXIS2_PLACEMENT_3D('Circle Axis2P3D',#408,#409,$) ;
#436=AXIS2_PLACEMENT_3D('Circle Axis2P3D',#434,#435,$) ;
#449=AXIS2_PLACEMENT_3D('Torus Axis2P3D',#446,#447,#448) ;
#453=AXIS2_PLACEMENT_3D('Circle Axis2P3D',#451,#452,$) ;
#458=AXIS2_PLACEMENT_3D('Circle Axis2P3D',#456,#457,$) ;
#471=AXIS2_PLACEMENT_3D('Torus Axis2P3D',#468,#469,#470) ;
#486=AXIS2_PLACEMENT_3D('Rep\X2\00E8\X0\re absolu',#483,#484,#485) ;
#40=PRODUCT_DEFINITION_SHAPE(' ',' ',#14) ;
#31=APPROVAL_PERSON_ORGANIZATION(#25,#21,#19) ;
#25=PERSON_AND_ORGANIZATION(#22,#23) ;
#22=PERSON(' ',' ',' ',$,$,$) ;
#23=ORGANIZATION(' ',' ',' ') ;
#21=APPROVAL(#20,' ') ;
#20=APPROVAL_STATUS('not_yet_approved') ;
#19=APPROVAL_ROLE('APPROVER') ;
#13=DATE_AND_TIME(#11,#12) ;
#12=LOCAL_TIME(11,49,5.,#10) ;
#10=COORDINATED_UNIVERSAL_TIME_OFFSET(0,0,.AHEAD.) ;
#86=ORIENTED_EDGE('',*,*,#65,.F.) ;
#87=ORIENTED_EDGE('',*,*,#72,.F.) ;
#88=ORIENTED_EDGE('',*,*,#79,.T.) ;
#89=ORIENTED_EDGE('',*,*,#84,.T.) ;
#103=ORIENTED_EDGE('',*,*,#79,.F.) ;
#104=ORIENTED_EDGE('',*,*,#96,.F.) ;
#105=ORIENTED_EDGE('',*,*,#65,.T.) ;
#106=ORIENTED_EDGE('',*,*,#101,.T.) ;
#129=ORIENTED_EDGE('',*,*,#122,.T.) ;
#130=ORIENTED_EDGE('',*,*,#127,.T.) ;
#147=ORIENTED_EDGE('',*,*,#140,.F.) ;
#148=ORIENTED_EDGE('',*,*,#145,.F.) ;
#176=ORIENTED_EDGE('',*,*,#162,.T.) ;
#177=ORIENTED_EDGE('',*,*,#122,.F.) ;
#178=ORIENTED_EDGE('',*,*,#169,.F.) ;
#179=ORIENTED_EDGE('',*,*,#174,.T.) ;
#188=ORIENTED_EDGE('',*,*,#169,.T.) ;
#189=ORIENTED_EDGE('',*,*,#127,.F.) ;
#190=ORIENTED_EDGE('',*,*,#162,.F.) ;
#191=ORIENTED_EDGE('',*,*,#186,.T.) ;
#214=ORIENTED_EDGE('',*,*,#207,.T.) ;
#215=ORIENTED_EDGE('',*,*,#212,.T.) ;
#218=ORIENTED_EDGE('',*,*,#101,.F.) ;
#219=ORIENTED_EDGE('',*,*,#84,.F.) ;
#247=ORIENTED_EDGE('',*,*,#233,.F.) ;
#248=ORIENTED_EDGE('',*,*,#145,.T.) ;
#249=ORIENTED_EDGE('',*,*,#240,.T.) ;
#250=ORIENTED_EDGE('',*,*,#245,.F.) ;
#259=ORIENTED_EDGE('',*,*,#240,.F.) ;
#260=ORIENTED_EDGE('',*,*,#140,.T.) ;
#261=ORIENTED_EDGE('',*,*,#233,.T.) ;
#262=ORIENTED_EDGE('',*,*,#257,.F.) ;
#281=ORIENTED_EDGE('',*,*,#274,.T.) ;
#282=ORIENTED_EDGE('',*,*,#257,.T.) ;
#283=ORIENTED_EDGE('',*,*,#279,.F.) ;
#284=ORIENTED_EDGE('',*,*,#207,.F.) ;
#293=ORIENTED_EDGE('',*,*,#279,.T.) ;
#294=ORIENTED_EDGE('',*,*,#245,.T.) ;
#295=ORIENTED_EDGE('',*,*,#274,.F.) ;
#296=ORIENTED_EDGE('',*,*,#212,.F.) ;
#305=ORIENTED_EDGE('',*,*,#186,.F.) ;
#306=ORIENTED_EDGE('',*,*,#174,.F.) ;
#323=ORIENTED_EDGE('',*,*,#316,.T.) ;
#324=ORIENTED_EDGE('',*,*,#321,.T.) ;
#352=ORIENTED_EDGE('',*,*,#338,.T.) ;
#353=ORIENTED_EDGE('',*,*,#345,.T.) ;
#354=ORIENTED_EDGE('',*,*,#350,.F.) ;
#355=ORIENTED_EDGE('',*,*,#316,.F.) ;
#369=ORIENTED_EDGE('',*,*,#350,.T.) ;
#370=ORIENTED_EDGE('',*,*,#367,.T.) ;
#371=ORIENTED_EDGE('',*,*,#338,.F.) ;
#372=ORIENTED_EDGE('',*,*,#321,.F.) ;
#395=ORIENTED_EDGE('',*,*,#388,.T.) ;
#396=ORIENTED_EDGE('',*,*,#393,.T.) ;
#399=ORIENTED_EDGE('',*,*,#72,.T.) ;
#400=ORIENTED_EDGE('',*,*,#96,.T.) ;
#428=ORIENTED_EDGE('',*,*,#416,.F.) ;
#429=ORIENTED_EDGE('',*,*,#421,.T.) ;
#430=ORIENTED_EDGE('',*,*,#367,.F.) ;
#431=ORIENTED_EDGE('',*,*,#426,.F.) ;
#440=ORIENTED_EDGE('',*,*,#438,.F.) ;
#441=ORIENTED_EDGE('',*,*,#426,.T.) ;
#442=ORIENTED_EDGE('',*,*,#345,.F.) ;
#443=ORIENTED_EDGE('',*,*,#421,.F.) ;
#462=ORIENTED_EDGE('',*,*,#438,.T.) ;
#463=ORIENTED_EDGE('',*,*,#455,.T.) ;
#464=ORIENTED_EDGE('',*,*,#393,.F.) ;
#465=ORIENTED_EDGE('',*,*,#460,.F.) ;
#474=ORIENTED_EDGE('',*,*,#416,.T.) ;
#475=ORIENTED_EDGE('',*,*,#460,.T.) ;
#476=ORIENTED_EDGE('',*,*,#388,.F.) ;
#477=ORIENTED_EDGE('',*,*,#455,.F.) ;
#149=FACE_BOUND('',#146,.T.) ;
#220=FACE_BOUND('',#217,.T.) ;
#325=FACE_BOUND('',#322,.T.) ;
#401=FACE_BOUND('',#398,.T.) ;
#51=CLOSED_SHELL('Closed Shell',(#91,#108,#150,#181,#193,#221,#252,#264,#286,#298,#326,#357,#374,#402,#433,#445,#467,#479)) ;
#59=VECTOR('Line Direction',#58,1.) ;
#75=VECTOR('Line Direction',#74,1.) ;
#158=VECTOR('Line Direction',#157,1.) ;
#165=VECTOR('Line Direction',#164,1.) ;
#229=VECTOR('Line Direction',#228,1.) ;
#236=VECTOR('Line Direction',#235,1.) ;
#419=VECTOR('Line Direction',#418,1.) ;
#424=VECTOR('Line Direction',#423,1.) ;
#481=ADVANCED_BREP_SHAPE_REPRESENTATION('NONE',(#480),#46) ;
#49=SHAPE_REPRESENTATION(' ',(#48),#46) ;
#91=ADVANCED_FACE('Corps principal',(#90),#56,.F.) ;
#108=ADVANCED_FACE('Corps principal',(#107),#56,.F.) ;
#150=ADVANCED_FACE('Corps principal',(#131,#149),#113,.T.) ;
#181=ADVANCED_FACE('Corps principal',(#180),#155,.T.) ;
#193=ADVANCED_FACE('Corps principal',(#192),#155,.T.) ;
#221=ADVANCED_FACE('Corps principal',(#216,#220),#198,.T.) ;
#252=ADVANCED_FACE('Corps principal',(#251),#226,.T.) ;
#264=ADVANCED_FACE('Corps principal',(#263),#226,.T.) ;
#286=ADVANCED_FACE('Corps principal',(#285),#269,.T.) ;
#298=ADVANCED_FACE('Corps principal',(#297),#291,.T.) ;
#326=ADVANCED_FACE('Corps principal',(#307,#325),#303,.F.) ;
#357=ADVANCED_FACE('Corps principal',(#356),#331,.T.) ;
#374=ADVANCED_FACE('Corps principal',(#373),#362,.T.) ;
#402=ADVANCED_FACE('Corps principal',(#397,#401),#379,.F.) ;
#433=ADVANCED_FACE('Corps principal',(#432),#407,.F.) ;
#445=ADVANCED_FACE('Corps principal',(#444),#407,.F.) ;
#467=ADVANCED_FACE('Corps principal',(#466),#450,.F.) ;
#479=ADVANCED_FACE('Corps principal',(#478),#472,.F.) ;
#4=APPLICATION_PROTOCOL_DEFINITION('international standard','config_control_design',1994,#1) ;
#32=APPROVAL_DATE_TIME(#13,#21) ;
#480=MANIFOLD_SOLID_BREP('Corps principal',#51) ;
#11=CALENDAR_DATE(2022,5,1) ;
#30=CC_DESIGN_APPROVAL(#21,(#16,#6,#14)) ;
#18=CC_DESIGN_DATE_AND_TIME_ASSIGNMENT(#13,#17,(#16)) ;
#29=CC_DESIGN_DATE_AND_TIME_ASSIGNMENT(#13,#28,(#14)) ;
#17=DATE_TIME_ROLE('classification_date') ;
#28=DATE_TIME_ROLE('creation_date') ;
#27=CC_DESIGN_PERSON_AND_ORGANIZATION_ASSIGNMENT(#25,#26,(#16)) ;
#33=CC_DESIGN_PERSON_AND_ORGANIZATION_ASSIGNMENT(#25,#34,(#6)) ;
#35=CC_DESIGN_PERSON_AND_ORGANIZATION_ASSIGNMENT(#25,#36,(#6,#14)) ;
#37=CC_DESIGN_PERSON_AND_ORGANIZATION_ASSIGNMENT(#25,#38,(#5)) ;
#26=PERSON_AND_ORGANIZATION_ROLE('classification_officer') ;
#34=PERSON_AND_ORGANIZATION_ROLE('design_supplier') ;
#36=PERSON_AND_ORGANIZATION_ROLE('creator') ;
#38=PERSON_AND_ORGANIZATION_ROLE('design_owner') ;
#39=CC_DESIGN_SECURITY_CLASSIFICATION(#16,(#6)) ;
#69=CIRCLE('generated circle',#68,5.) ;
#83=CIRCLE('generated circle',#82,5.) ;
#95=CIRCLE('generated circle',#94,5.) ;
#100=CIRCLE('generated circle',#99,5.) ;
#117=CIRCLE('generated circle',#116,72.5) ;
#126=CIRCLE('generated circle',#125,72.5) ;
#135=CIRCLE('generated circle',#134,70.) ;
#144=CIRCLE('generated circle',#143,70.) ;
#173=CIRCLE('generated circle',#172,72.5) ;
#185=CIRCLE('generated circle',#184,72.5) ;
#202=CIRCLE('generated circle',#201,26.8927004168) ;
#211=CIRCLE('generated circle',#210,26.8927004168) ;
#244=CIRCLE('generated circle',#243,31.3758510804) ;
#256=CIRCLE('generated circle',#255,31.3758510804) ;
#273=CIRCLE('generated circle',#272,5.) ;
#278=CIRCLE('generated circle',#277,5.) ;
#311=CIRCLE('generated circle',#310,70.6214599166) ;
#320=CIRCLE('generated circle',#319,70.6214599166) ;
#335=CIRCLE('generated circle',#334,5.) ;
#342=CIRCLE('generated circle',#341,66.138309253) ;
#349=CIRCLE('generated circle',#348,5.) ;
#366=CIRCLE('generated circle',#365,66.138309253) ;
#383=CIRCLE('generated circle',#382,24.4068607502) ;
#392=CIRCLE('generated circle',#391,24.4068607502) ;
#411=CIRCLE('generated circle',#410,28.8900114138) ;
#437=CIRCLE('generated circle',#436,28.8900114138) ;
#454=CIRCLE('generated circle',#453,5.) ;
#459=CIRCLE('generated circle',#458,5.) ;
#226=CONICAL_SURFACE('Cone',#225,30.,0.458697154392) ;
#407=CONICAL_SURFACE('Cone',#406,27.5141603334,0.458697154392) ;
#482=SHAPE_REPRESENTATION_RELATIONSHIP(' ',' ',#49,#481) ;
#56=CYLINDRICAL_SURFACE('generated cylinder',#55,5.) ;
#155=CYLINDRICAL_SURFACE('generated cylinder',#154,72.5) ;
#269=TOROIDAL_SURFACE('homeo Torus',#268,26.8927004168,5.) ;
#291=TOROIDAL_SURFACE('homeo Torus',#290,26.8927004168,5.) ;
#331=TOROIDAL_SURFACE('homeo Torus',#330,70.6214599166,5.) ;
#362=TOROIDAL_SURFACE('homeo Torus',#361,70.6214599166,5.) ;
#450=TOROIDAL_SURFACE('homeo Torus',#449,24.4068607502,5.) ;
#472=TOROIDAL_SURFACE('homeo Torus',#471,24.4068607502,5.) ;
#3=DESIGN_CONTEXT(' ',#1,'design') ;
#65=EDGE_CURVE('',#62,#64,#60,.F.) ;
#72=EDGE_CURVE('',#71,#62,#69,.F.) ;
#79=EDGE_CURVE('',#71,#78,#76,.F.) ;
#84=EDGE_CURVE('',#78,#64,#83,.F.) ;
#96=EDGE_CURVE('',#62,#71,#95,.F.) ;
#101=EDGE_CURVE('',#64,#78,#100,.F.) ;
#122=EDGE_CURVE('',#119,#121,#117,.T.) ;
#127=EDGE_CURVE('',#121,#119,#126,.T.) ;
#140=EDGE_CURVE('',#137,#139,#135,.T.) ;
#145=EDGE_CURVE('',#139,#137,#144,.T.) ;
#162=EDGE_CURVE('',#161,#121,#159,.T.) ;
#169=EDGE_CURVE('',#168,#119,#166,.T.) ;
#174=EDGE_CURVE('',#168,#161,#173,.T.) ;
#186=EDGE_CURVE('',#161,#168,#185,.T.) ;
#207=EDGE_CURVE('',#204,#206,#202,.T.) ;
#212=EDGE_CURVE('',#206,#204,#211,.T.) ;
#233=EDGE_CURVE('',#139,#232,#230,.F.) ;
#240=EDGE_CURVE('',#137,#239,#237,.F.) ;
#245=EDGE_CURVE('',#232,#239,#244,.F.) ;
#257=EDGE_CURVE('',#239,#232,#256,.F.) ;
#274=EDGE_CURVE('',#204,#239,#273,.F.) ;
#279=EDGE_CURVE('',#206,#232,#278,.F.) ;
#316=EDGE_CURVE('',#313,#315,#311,.T.) ;
#321=EDGE_CURVE('',#315,#313,#320,.T.) ;
#338=EDGE_CURVE('',#313,#337,#335,.F.) ;
#345=EDGE_CURVE('',#337,#344,#342,.T.) ;
#350=EDGE_CURVE('',#315,#344,#349,.F.) ;
#367=EDGE_CURVE('',#344,#337,#366,.T.) ;
#388=EDGE_CURVE('',#385,#387,#383,.F.) ;
#393=EDGE_CURVE('',#387,#385,#392,.F.) ;
#416=EDGE_CURVE('',#413,#415,#411,.T.) ;
#421=EDGE_CURVE('',#413,#337,#420,.T.) ;
#426=EDGE_CURVE('',#415,#344,#425,.T.) ;
#438=EDGE_CURVE('',#415,#413,#437,.T.) ;
#455=EDGE_CURVE('',#413,#385,#454,.T.) ;
#460=EDGE_CURVE('',#415,#387,#459,.T.) ;
#85=EDGE_LOOP('',(#86,#87,#88,#89)) ;
#102=EDGE_LOOP('',(#103,#104,#105,#106)) ;
#128=EDGE_LOOP('',(#129,#130)) ;
#146=EDGE_LOOP('',(#147,#148)) ;
#175=EDGE_LOOP('',(#176,#177,#178,#179)) ;
#187=EDGE_LOOP('',(#188,#189,#190,#191)) ;
#213=EDGE_LOOP('',(#214,#215)) ;
#217=EDGE_LOOP('',(#218,#219)) ;
#246=EDGE_LOOP('',(#247,#248,#249,#250)) ;
#258=EDGE_LOOP('',(#259,#260,#261,#262)) ;
#280=EDGE_LOOP('',(#281,#282,#283,#284)) ;
#292=EDGE_LOOP('',(#293,#294,#295,#296)) ;
#304=EDGE_LOOP('',(#305,#306)) ;
#322=EDGE_LOOP('',(#323,#324)) ;
#351=EDGE_LOOP('',(#352,#353,#354,#355)) ;
#368=EDGE_LOOP('',(#369,#370,#371,#372)) ;
#394=EDGE_LOOP('',(#395,#396)) ;
#398=EDGE_LOOP('',(#399,#400)) ;
#427=EDGE_LOOP('',(#428,#429,#430,#431)) ;
#439=EDGE_LOOP('',(#440,#441,#442,#443)) ;
#461=EDGE_LOOP('',(#462,#463,#464,#465)) ;
#473=EDGE_LOOP('',(#474,#475,#476,#477)) ;
#90=FACE_OUTER_BOUND('',#85,.T.) ;
#107=FACE_OUTER_BOUND('',#102,.T.) ;
#131=FACE_OUTER_BOUND('',#128,.T.) ;
#180=FACE_OUTER_BOUND('',#175,.T.) ;
#192=FACE_OUTER_BOUND('',#187,.T.) ;
#216=FACE_OUTER_BOUND('',#213,.T.) ;
#251=FACE_OUTER_BOUND('',#246,.T.) ;
#263=FACE_OUTER_BOUND('',#258,.T.) ;
#285=FACE_OUTER_BOUND('',#280,.T.) ;
#297=FACE_OUTER_BOUND('',#292,.T.) ;
#307=FACE_OUTER_BOUND('',#304,.T.) ;
#356=FACE_OUTER_BOUND('',#351,.T.) ;
#373=FACE_OUTER_BOUND('',#368,.T.) ;
#397=FACE_OUTER_BOUND('',#394,.T.) ;
#432=FACE_OUTER_BOUND('',#427,.T.) ;
#444=FACE_OUTER_BOUND('',#439,.T.) ;
#466=FACE_OUTER_BOUND('',#461,.T.) ;
#478=FACE_OUTER_BOUND('',#473,.T.) ;
#45=UNCERTAINTY_MEASURE_WITH_UNIT(LENGTH_MEASURE(0.005),#41,'distance_accuracy_value','CONFUSED CURVE UNCERTAINTY') ;
#60=LINE('Line',#57,#59) ;
#76=LINE('Line',#73,#75) ;
#159=LINE('Line',#156,#158) ;
#166=LINE('Line',#163,#165) ;
#230=LINE('Line',#227,#229) ;
#237=LINE('Line',#234,#236) ;
#420=LINE('Line',#417,#419) ;
#425=LINE('Line',#422,#424) ;
#2=MECHANICAL_CONTEXT(' ',#1,'mechanical') ;
#24=PERSONAL_ADDRESS(' ',' ',' ',' ',' ',' ',' ',' ',' ',' ',' ',' ',(#22),' ') ;
#113=PLANE('',#112) ;
#198=PLANE('',#197) ;
#303=PLANE('',#302) ;
#379=PLANE('',#378) ;
#43=PLANE_ANGLE_MEASURE_WITH_UNIT(PLANE_ANGLE_MEASURE(0.0174532925199),#42) ;
#7=PRODUCT_CATEGORY('part',$) ;
#9=PRODUCT_CATEGORY_RELATIONSHIP(' ',' ',#7,#8) ;
#6=PRODUCT_DEFINITION_FORMATION_WITH_SPECIFIED_SOURCE('',' ',#5,.NOT_KNOWN.) ;
#8=PRODUCT_RELATED_PRODUCT_CATEGORY('detail',$,(#5)) ;
#50=SHAPE_DEFINITION_REPRESENTATION(#40,#49) ;
#62=VERTEX_POINT('',#61) ;
#64=VERTEX_POINT('',#63) ;
#71=VERTEX_POINT('',#70) ;
#78=VERTEX_POINT('',#77) ;
#119=VERTEX_POINT('',#118) ;
#121=VERTEX_POINT('',#120) ;
#137=VERTEX_POINT('',#136) ;
#139=VERTEX_POINT('',#138) ;
#161=VERTEX_POINT('',#160) ;
#168=VERTEX_POINT('',#167) ;
#204=VERTEX_POINT('',#203) ;
#206=VERTEX_POINT('',#205) ;
#232=VERTEX_POINT('',#231) ;
#239=VERTEX_POINT('',#238) ;
#313=VERTEX_POINT('',#312) ;
#315=VERTEX_POINT('',#314) ;
#337=VERTEX_POINT('',#336) ;
#344=VERTEX_POINT('',#343) ;
#385=VERTEX_POINT('',#384) ;
#387=VERTEX_POINT('',#386) ;
#413=VERTEX_POINT('',#412) ;
#415=VERTEX_POINT('',#414) ;
#41=(LENGTH_UNIT()NAMED_UNIT(*)SI_UNIT(.MILLI.,.METRE.)) ;
#42=(NAMED_UNIT(*)PLANE_ANGLE_UNIT()SI_UNIT($,.RADIAN.)) ;
#44=(NAMED_UNIT(*)SI_UNIT($,.STERADIAN.)SOLID_ANGLE_UNIT()) ;
#46=(GEOMETRIC_REPRESENTATION_CONTEXT(3)GLOBAL_UNCERTAINTY_ASSIGNED_CONTEXT((#45))GLOBAL_UNIT_ASSIGNED_CONTEXT((#41,#42,#44))REPRESENTATION_CONTEXT(' ',' ')) ;
ENDSEC;
END-ISO-10303-21;
