ISO-10303-21;
HEADER;
/* Generated by software containing ST-Developer
 * from STEP Tools, Inc. (www.steptools.com) 
 */

FILE_DESCRIPTION(
/* description */ (''),
/* implementation_level */ '2;1');

FILE_NAME(
/* name */ 'D:\\perso\\CNC\\AXE Y\\pi\X\E8ce en aluminium\\Entretoise.
stp',
/* time_stamp */ '2022-01-19T12:59:27+01:00',
/* author */ ('boby'),
/* organization */ (''),
/* preprocessor_version */ 'ST-DEVELOPER v16.5',
/* originating_system */ 'Autodesk Inventor 2017',
/* authorisation */ '');

FILE_SCHEMA (('AUTOMOTIVE_DESIGN { 1 0 10303 214 3 1 1 }'));
ENDSEC;

DATA;
#10=MECHANICAL_DESIGN_GEOMETRIC_PRESENTATION_REPRESENTATION('',(#13),#449);
#11=SHAPE_REPRESENTATION_RELATIONSHIP('SRR','None',#458,#12);
#12=ADVANCED_BREP_SHAPE_REPRESENTATION('',(#14),#448);
#13=STYLED_ITEM('',(#467),#14);
#14=MANIFOLD_SOLID_BREP('Solide1',#267);
#15=LINE('',#423,#27);
#16=LINE('',#425,#28);
#17=LINE('',#427,#29);
#18=LINE('',#428,#30);
#19=LINE('',#431,#31);
#20=LINE('',#433,#32);
#21=LINE('',#434,#33);
#22=LINE('',#437,#34);
#23=LINE('',#439,#35);
#24=LINE('',#440,#36);
#25=LINE('',#442,#37);
#26=LINE('',#443,#38);
#27=VECTOR('',#357,10.);
#28=VECTOR('',#358,10.);
#29=VECTOR('',#359,10.);
#30=VECTOR('',#360,10.);
#31=VECTOR('',#363,10.);
#32=VECTOR('',#364,10.);
#33=VECTOR('',#365,10.);
#34=VECTOR('',#368,10.);
#35=VECTOR('',#369,10.);
#36=VECTOR('',#370,10.);
#37=VECTOR('',#373,10.);
#38=VECTOR('',#374,10.);
#39=PLANE('',#299);
#40=PLANE('',#300);
#41=PLANE('',#301);
#42=PLANE('',#302);
#43=PLANE('',#303);
#44=PLANE('',#304);
#45=FACE_BOUND('',#84,.T.);
#46=FACE_BOUND('',#86,.T.);
#47=FACE_BOUND('',#88,.T.);
#48=FACE_BOUND('',#90,.T.);
#49=FACE_BOUND('',#92,.T.);
#50=FACE_BOUND('',#94,.T.);
#51=FACE_BOUND('',#96,.T.);
#52=FACE_BOUND('',#98,.T.);
#53=FACE_BOUND('',#104,.T.);
#54=FACE_BOUND('',#105,.T.);
#55=FACE_BOUND('',#106,.T.);
#56=FACE_BOUND('',#107,.T.);
#57=FACE_BOUND('',#108,.T.);
#58=FACE_BOUND('',#109,.T.);
#59=FACE_BOUND('',#110,.T.);
#60=FACE_BOUND('',#111,.T.);
#61=FACE_BOUND('',#113,.T.);
#62=FACE_BOUND('',#114,.T.);
#63=FACE_BOUND('',#115,.T.);
#64=FACE_BOUND('',#116,.T.);
#65=FACE_BOUND('',#117,.T.);
#66=FACE_BOUND('',#118,.T.);
#67=FACE_BOUND('',#119,.T.);
#68=FACE_BOUND('',#120,.T.);
#69=FACE_OUTER_BOUND('',#83,.T.);
#70=FACE_OUTER_BOUND('',#85,.T.);
#71=FACE_OUTER_BOUND('',#87,.T.);
#72=FACE_OUTER_BOUND('',#89,.T.);
#73=FACE_OUTER_BOUND('',#91,.T.);
#74=FACE_OUTER_BOUND('',#93,.T.);
#75=FACE_OUTER_BOUND('',#95,.T.);
#76=FACE_OUTER_BOUND('',#97,.T.);
#77=FACE_OUTER_BOUND('',#99,.T.);
#78=FACE_OUTER_BOUND('',#100,.T.);
#79=FACE_OUTER_BOUND('',#101,.T.);
#80=FACE_OUTER_BOUND('',#102,.T.);
#81=FACE_OUTER_BOUND('',#103,.T.);
#82=FACE_OUTER_BOUND('',#112,.T.);
#83=EDGE_LOOP('',(#189));
#84=EDGE_LOOP('',(#190));
#85=EDGE_LOOP('',(#191));
#86=EDGE_LOOP('',(#192));
#87=EDGE_LOOP('',(#193));
#88=EDGE_LOOP('',(#194));
#89=EDGE_LOOP('',(#195));
#90=EDGE_LOOP('',(#196));
#91=EDGE_LOOP('',(#197));
#92=EDGE_LOOP('',(#198));
#93=EDGE_LOOP('',(#199));
#94=EDGE_LOOP('',(#200));
#95=EDGE_LOOP('',(#201));
#96=EDGE_LOOP('',(#202));
#97=EDGE_LOOP('',(#203));
#98=EDGE_LOOP('',(#204));
#99=EDGE_LOOP('',(#205,#206,#207,#208));
#100=EDGE_LOOP('',(#209,#210,#211,#212));
#101=EDGE_LOOP('',(#213,#214,#215,#216));
#102=EDGE_LOOP('',(#217,#218,#219,#220));
#103=EDGE_LOOP('',(#221,#222,#223,#224));
#104=EDGE_LOOP('',(#225));
#105=EDGE_LOOP('',(#226));
#106=EDGE_LOOP('',(#227));
#107=EDGE_LOOP('',(#228));
#108=EDGE_LOOP('',(#229));
#109=EDGE_LOOP('',(#230));
#110=EDGE_LOOP('',(#231));
#111=EDGE_LOOP('',(#232));
#112=EDGE_LOOP('',(#233,#234,#235,#236));
#113=EDGE_LOOP('',(#237));
#114=EDGE_LOOP('',(#238));
#115=EDGE_LOOP('',(#239));
#116=EDGE_LOOP('',(#240));
#117=EDGE_LOOP('',(#241));
#118=EDGE_LOOP('',(#242));
#119=EDGE_LOOP('',(#243));
#120=EDGE_LOOP('',(#244));
#121=CIRCLE('',#276,2.5);
#122=CIRCLE('',#277,2.5);
#123=CIRCLE('',#279,2.5);
#124=CIRCLE('',#280,2.5);
#125=CIRCLE('',#282,2.5);
#126=CIRCLE('',#283,2.5);
#127=CIRCLE('',#285,2.5);
#128=CIRCLE('',#286,2.5);
#129=CIRCLE('',#288,2.5);
#130=CIRCLE('',#289,2.5);
#131=CIRCLE('',#291,2.5);
#132=CIRCLE('',#292,2.5);
#133=CIRCLE('',#294,2.5);
#134=CIRCLE('',#295,2.5);
#135=CIRCLE('',#297,2.5);
#136=CIRCLE('',#298,2.5);
#137=VERTEX_POINT('',#381);
#138=VERTEX_POINT('',#383);
#139=VERTEX_POINT('',#386);
#140=VERTEX_POINT('',#388);
#141=VERTEX_POINT('',#391);
#142=VERTEX_POINT('',#393);
#143=VERTEX_POINT('',#396);
#144=VERTEX_POINT('',#398);
#145=VERTEX_POINT('',#401);
#146=VERTEX_POINT('',#403);
#147=VERTEX_POINT('',#406);
#148=VERTEX_POINT('',#408);
#149=VERTEX_POINT('',#411);
#150=VERTEX_POINT('',#413);
#151=VERTEX_POINT('',#416);
#152=VERTEX_POINT('',#418);
#153=VERTEX_POINT('',#421);
#154=VERTEX_POINT('',#422);
#155=VERTEX_POINT('',#424);
#156=VERTEX_POINT('',#426);
#157=VERTEX_POINT('',#430);
#158=VERTEX_POINT('',#432);
#159=VERTEX_POINT('',#436);
#160=VERTEX_POINT('',#438);
#161=EDGE_CURVE('',#137,#137,#121,.T.);
#162=EDGE_CURVE('',#138,#138,#122,.T.);
#163=EDGE_CURVE('',#139,#139,#123,.T.);
#164=EDGE_CURVE('',#140,#140,#124,.T.);
#165=EDGE_CURVE('',#141,#141,#125,.T.);
#166=EDGE_CURVE('',#142,#142,#126,.T.);
#167=EDGE_CURVE('',#143,#143,#127,.T.);
#168=EDGE_CURVE('',#144,#144,#128,.T.);
#169=EDGE_CURVE('',#145,#145,#129,.T.);
#170=EDGE_CURVE('',#146,#146,#130,.T.);
#171=EDGE_CURVE('',#147,#147,#131,.T.);
#172=EDGE_CURVE('',#148,#148,#132,.T.);
#173=EDGE_CURVE('',#149,#149,#133,.T.);
#174=EDGE_CURVE('',#150,#150,#134,.T.);
#175=EDGE_CURVE('',#151,#151,#135,.T.);
#176=EDGE_CURVE('',#152,#152,#136,.T.);
#177=EDGE_CURVE('',#153,#154,#15,.T.);
#178=EDGE_CURVE('',#154,#155,#16,.T.);
#179=EDGE_CURVE('',#156,#155,#17,.T.);
#180=EDGE_CURVE('',#153,#156,#18,.T.);
#181=EDGE_CURVE('',#157,#153,#19,.T.);
#182=EDGE_CURVE('',#158,#156,#20,.T.);
#183=EDGE_CURVE('',#157,#158,#21,.T.);
#184=EDGE_CURVE('',#159,#157,#22,.T.);
#185=EDGE_CURVE('',#160,#158,#23,.T.);
#186=EDGE_CURVE('',#159,#160,#24,.T.);
#187=EDGE_CURVE('',#154,#159,#25,.T.);
#188=EDGE_CURVE('',#155,#160,#26,.T.);
#189=ORIENTED_EDGE('',*,*,#161,.F.);
#190=ORIENTED_EDGE('',*,*,#162,.F.);
#191=ORIENTED_EDGE('',*,*,#163,.F.);
#192=ORIENTED_EDGE('',*,*,#164,.F.);
#193=ORIENTED_EDGE('',*,*,#165,.F.);
#194=ORIENTED_EDGE('',*,*,#166,.F.);
#195=ORIENTED_EDGE('',*,*,#167,.F.);
#196=ORIENTED_EDGE('',*,*,#168,.F.);
#197=ORIENTED_EDGE('',*,*,#169,.F.);
#198=ORIENTED_EDGE('',*,*,#170,.F.);
#199=ORIENTED_EDGE('',*,*,#171,.F.);
#200=ORIENTED_EDGE('',*,*,#172,.F.);
#201=ORIENTED_EDGE('',*,*,#173,.F.);
#202=ORIENTED_EDGE('',*,*,#174,.F.);
#203=ORIENTED_EDGE('',*,*,#175,.F.);
#204=ORIENTED_EDGE('',*,*,#176,.F.);
#205=ORIENTED_EDGE('',*,*,#177,.T.);
#206=ORIENTED_EDGE('',*,*,#178,.T.);
#207=ORIENTED_EDGE('',*,*,#179,.F.);
#208=ORIENTED_EDGE('',*,*,#180,.F.);
#209=ORIENTED_EDGE('',*,*,#181,.T.);
#210=ORIENTED_EDGE('',*,*,#180,.T.);
#211=ORIENTED_EDGE('',*,*,#182,.F.);
#212=ORIENTED_EDGE('',*,*,#183,.F.);
#213=ORIENTED_EDGE('',*,*,#184,.T.);
#214=ORIENTED_EDGE('',*,*,#183,.T.);
#215=ORIENTED_EDGE('',*,*,#185,.F.);
#216=ORIENTED_EDGE('',*,*,#186,.F.);
#217=ORIENTED_EDGE('',*,*,#187,.T.);
#218=ORIENTED_EDGE('',*,*,#186,.T.);
#219=ORIENTED_EDGE('',*,*,#188,.F.);
#220=ORIENTED_EDGE('',*,*,#178,.F.);
#221=ORIENTED_EDGE('',*,*,#188,.T.);
#222=ORIENTED_EDGE('',*,*,#185,.T.);
#223=ORIENTED_EDGE('',*,*,#182,.T.);
#224=ORIENTED_EDGE('',*,*,#179,.T.);
#225=ORIENTED_EDGE('',*,*,#162,.T.);
#226=ORIENTED_EDGE('',*,*,#164,.T.);
#227=ORIENTED_EDGE('',*,*,#166,.T.);
#228=ORIENTED_EDGE('',*,*,#168,.T.);
#229=ORIENTED_EDGE('',*,*,#170,.T.);
#230=ORIENTED_EDGE('',*,*,#172,.T.);
#231=ORIENTED_EDGE('',*,*,#174,.T.);
#232=ORIENTED_EDGE('',*,*,#176,.T.);
#233=ORIENTED_EDGE('',*,*,#187,.F.);
#234=ORIENTED_EDGE('',*,*,#177,.F.);
#235=ORIENTED_EDGE('',*,*,#181,.F.);
#236=ORIENTED_EDGE('',*,*,#184,.F.);
#237=ORIENTED_EDGE('',*,*,#161,.T.);
#238=ORIENTED_EDGE('',*,*,#163,.T.);
#239=ORIENTED_EDGE('',*,*,#165,.T.);
#240=ORIENTED_EDGE('',*,*,#167,.T.);
#241=ORIENTED_EDGE('',*,*,#169,.T.);
#242=ORIENTED_EDGE('',*,*,#171,.T.);
#243=ORIENTED_EDGE('',*,*,#173,.T.);
#244=ORIENTED_EDGE('',*,*,#175,.T.);
#245=CYLINDRICAL_SURFACE('',#275,2.5);
#246=CYLINDRICAL_SURFACE('',#278,2.5);
#247=CYLINDRICAL_SURFACE('',#281,2.5);
#248=CYLINDRICAL_SURFACE('',#284,2.5);
#249=CYLINDRICAL_SURFACE('',#287,2.5);
#250=CYLINDRICAL_SURFACE('',#290,2.5);
#251=CYLINDRICAL_SURFACE('',#293,2.5);
#252=CYLINDRICAL_SURFACE('',#296,2.5);
#253=ADVANCED_FACE('',(#69,#45),#245,.F.);
#254=ADVANCED_FACE('',(#70,#46),#246,.F.);
#255=ADVANCED_FACE('',(#71,#47),#247,.F.);
#256=ADVANCED_FACE('',(#72,#48),#248,.F.);
#257=ADVANCED_FACE('',(#73,#49),#249,.F.);
#258=ADVANCED_FACE('',(#74,#50),#250,.F.);
#259=ADVANCED_FACE('',(#75,#51),#251,.F.);
#260=ADVANCED_FACE('',(#76,#52),#252,.F.);
#261=ADVANCED_FACE('',(#77),#39,.T.);
#262=ADVANCED_FACE('',(#78),#40,.T.);
#263=ADVANCED_FACE('',(#79),#41,.T.);
#264=ADVANCED_FACE('',(#80),#42,.T.);
#265=ADVANCED_FACE('',(#81,#53,#54,#55,#56,#57,#58,#59,#60),#43,.T.);
#266=ADVANCED_FACE('',(#82,#61,#62,#63,#64,#65,#66,#67,#68),#44,.F.);
#267=CLOSED_SHELL('',(#253,#254,#255,#256,#257,#258,#259,#260,#261,#262,
#263,#264,#265,#266));
#268=DATE_TIME_ROLE('creation_date');
#269=APPLIED_DATE_AND_TIME_ASSIGNMENT(#270,#268,(#460));
#270=DATE_AND_TIME(#271,#272);
#271=CALENDAR_DATE(2022,16,1);
#272=LOCAL_TIME(14,55,30.,#273);
#273=COORDINATED_UNIVERSAL_TIME_OFFSET(0,0,.BEHIND.);
#274=AXIS2_PLACEMENT_3D('placement',#379,#305,#306);
#275=AXIS2_PLACEMENT_3D('',#380,#307,#308);
#276=AXIS2_PLACEMENT_3D('',#382,#309,#310);
#277=AXIS2_PLACEMENT_3D('',#384,#311,#312);
#278=AXIS2_PLACEMENT_3D('',#385,#313,#314);
#279=AXIS2_PLACEMENT_3D('',#387,#315,#316);
#280=AXIS2_PLACEMENT_3D('',#389,#317,#318);
#281=AXIS2_PLACEMENT_3D('',#390,#319,#320);
#282=AXIS2_PLACEMENT_3D('',#392,#321,#322);
#283=AXIS2_PLACEMENT_3D('',#394,#323,#324);
#284=AXIS2_PLACEMENT_3D('',#395,#325,#326);
#285=AXIS2_PLACEMENT_3D('',#397,#327,#328);
#286=AXIS2_PLACEMENT_3D('',#399,#329,#330);
#287=AXIS2_PLACEMENT_3D('',#400,#331,#332);
#288=AXIS2_PLACEMENT_3D('',#402,#333,#334);
#289=AXIS2_PLACEMENT_3D('',#404,#335,#336);
#290=AXIS2_PLACEMENT_3D('',#405,#337,#338);
#291=AXIS2_PLACEMENT_3D('',#407,#339,#340);
#292=AXIS2_PLACEMENT_3D('',#409,#341,#342);
#293=AXIS2_PLACEMENT_3D('',#410,#343,#344);
#294=AXIS2_PLACEMENT_3D('',#412,#345,#346);
#295=AXIS2_PLACEMENT_3D('',#414,#347,#348);
#296=AXIS2_PLACEMENT_3D('',#415,#349,#350);
#297=AXIS2_PLACEMENT_3D('',#417,#351,#352);
#298=AXIS2_PLACEMENT_3D('',#419,#353,#354);
#299=AXIS2_PLACEMENT_3D('',#420,#355,#356);
#300=AXIS2_PLACEMENT_3D('',#429,#361,#362);
#301=AXIS2_PLACEMENT_3D('',#435,#366,#367);
#302=AXIS2_PLACEMENT_3D('',#441,#371,#372);
#303=AXIS2_PLACEMENT_3D('',#444,#375,#376);
#304=AXIS2_PLACEMENT_3D('',#445,#377,#378);
#305=DIRECTION('axis',(0.,0.,1.));
#306=DIRECTION('refdir',(1.,0.,0.));
#307=DIRECTION('center_axis',(0.,0.,1.));
#308=DIRECTION('ref_axis',(1.,0.,0.));
#309=DIRECTION('center_axis',(0.,0.,1.));
#310=DIRECTION('ref_axis',(1.,0.,0.));
#311=DIRECTION('center_axis',(0.,0.,-1.));
#312=DIRECTION('ref_axis',(1.,0.,0.));
#313=DIRECTION('center_axis',(0.,0.,1.));
#314=DIRECTION('ref_axis',(1.,0.,0.));
#315=DIRECTION('center_axis',(0.,0.,1.));
#316=DIRECTION('ref_axis',(1.,0.,0.));
#317=DIRECTION('center_axis',(0.,0.,-1.));
#318=DIRECTION('ref_axis',(1.,0.,0.));
#319=DIRECTION('center_axis',(0.,0.,1.));
#320=DIRECTION('ref_axis',(1.,0.,0.));
#321=DIRECTION('center_axis',(0.,0.,1.));
#322=DIRECTION('ref_axis',(1.,0.,0.));
#323=DIRECTION('center_axis',(0.,0.,-1.));
#324=DIRECTION('ref_axis',(1.,0.,0.));
#325=DIRECTION('center_axis',(0.,0.,1.));
#326=DIRECTION('ref_axis',(1.,0.,0.));
#327=DIRECTION('center_axis',(0.,0.,1.));
#328=DIRECTION('ref_axis',(1.,0.,0.));
#329=DIRECTION('center_axis',(0.,0.,-1.));
#330=DIRECTION('ref_axis',(1.,0.,0.));
#331=DIRECTION('center_axis',(0.,0.,1.));
#332=DIRECTION('ref_axis',(1.,0.,0.));
#333=DIRECTION('center_axis',(0.,0.,1.));
#334=DIRECTION('ref_axis',(1.,0.,0.));
#335=DIRECTION('center_axis',(0.,0.,-1.));
#336=DIRECTION('ref_axis',(1.,0.,0.));
#337=DIRECTION('center_axis',(0.,0.,1.));
#338=DIRECTION('ref_axis',(1.,0.,0.));
#339=DIRECTION('center_axis',(0.,0.,1.));
#340=DIRECTION('ref_axis',(1.,0.,0.));
#341=DIRECTION('center_axis',(0.,0.,-1.));
#342=DIRECTION('ref_axis',(1.,0.,0.));
#343=DIRECTION('center_axis',(0.,0.,1.));
#344=DIRECTION('ref_axis',(1.,0.,0.));
#345=DIRECTION('center_axis',(0.,0.,1.));
#346=DIRECTION('ref_axis',(1.,0.,0.));
#347=DIRECTION('center_axis',(0.,0.,-1.));
#348=DIRECTION('ref_axis',(1.,0.,0.));
#349=DIRECTION('center_axis',(0.,0.,1.));
#350=DIRECTION('ref_axis',(1.,0.,0.));
#351=DIRECTION('center_axis',(0.,0.,1.));
#352=DIRECTION('ref_axis',(1.,0.,0.));
#353=DIRECTION('center_axis',(0.,0.,-1.));
#354=DIRECTION('ref_axis',(1.,0.,0.));
#355=DIRECTION('center_axis',(-1.,0.,0.));
#356=DIRECTION('ref_axis',(0.,-1.,0.));
#357=DIRECTION('',(0.,-1.,0.));
#358=DIRECTION('',(0.,0.,1.));
#359=DIRECTION('',(0.,-1.,0.));
#360=DIRECTION('',(0.,0.,1.));
#361=DIRECTION('center_axis',(0.,1.,0.));
#362=DIRECTION('ref_axis',(-1.,0.,0.));
#363=DIRECTION('',(-1.,0.,0.));
#364=DIRECTION('',(-1.,0.,0.));
#365=DIRECTION('',(0.,0.,1.));
#366=DIRECTION('center_axis',(1.,0.,0.));
#367=DIRECTION('ref_axis',(0.,1.,0.));
#368=DIRECTION('',(0.,1.,0.));
#369=DIRECTION('',(0.,1.,0.));
#370=DIRECTION('',(0.,0.,1.));
#371=DIRECTION('center_axis',(0.,-1.,0.));
#372=DIRECTION('ref_axis',(1.,0.,0.));
#373=DIRECTION('',(1.,0.,0.));
#374=DIRECTION('',(1.,0.,0.));
#375=DIRECTION('center_axis',(0.,0.,1.));
#376=DIRECTION('ref_axis',(1.,0.,0.));
#377=DIRECTION('center_axis',(0.,0.,1.));
#378=DIRECTION('ref_axis',(1.,0.,0.));
#379=CARTESIAN_POINT('',(0.,0.,0.));
#380=CARTESIAN_POINT('Origin',(136.,38.,-136.31754690055));
#381=CARTESIAN_POINT('',(133.5,38.,0.));
#382=CARTESIAN_POINT('Origin',(136.,38.,0.));
#383=CARTESIAN_POINT('',(138.5,38.,15.));
#384=CARTESIAN_POINT('Origin',(136.,38.,15.));
#385=CARTESIAN_POINT('Origin',(100.,6.,-136.31754690055));
#386=CARTESIAN_POINT('',(97.5,6.,0.));
#387=CARTESIAN_POINT('Origin',(100.,6.,0.));
#388=CARTESIAN_POINT('',(102.5,6.,15.));
#389=CARTESIAN_POINT('Origin',(100.,6.,15.));
#390=CARTESIAN_POINT('Origin',(44.,6.,-136.31754690055));
#391=CARTESIAN_POINT('',(41.5,6.,0.));
#392=CARTESIAN_POINT('Origin',(44.,6.,0.));
#393=CARTESIAN_POINT('',(46.5,6.,15.));
#394=CARTESIAN_POINT('Origin',(44.,6.,15.));
#395=CARTESIAN_POINT('Origin',(8.00000000000001,38.,-136.31754690055));
#396=CARTESIAN_POINT('',(5.50000000000001,38.,0.));
#397=CARTESIAN_POINT('Origin',(8.00000000000001,38.,0.));
#398=CARTESIAN_POINT('',(10.5,38.,15.));
#399=CARTESIAN_POINT('Origin',(8.00000000000001,38.,15.));
#400=CARTESIAN_POINT('Origin',(44.,38.,-136.31754690055));
#401=CARTESIAN_POINT('',(41.5,38.,0.));
#402=CARTESIAN_POINT('Origin',(44.,38.,0.));
#403=CARTESIAN_POINT('',(46.5,38.,15.));
#404=CARTESIAN_POINT('Origin',(44.,38.,15.));
#405=CARTESIAN_POINT('Origin',(8.,6.,-136.31754690055));
#406=CARTESIAN_POINT('',(5.5,6.,0.));
#407=CARTESIAN_POINT('Origin',(8.,6.,0.));
#408=CARTESIAN_POINT('',(10.5,6.,15.));
#409=CARTESIAN_POINT('Origin',(8.,6.,15.));
#410=CARTESIAN_POINT('Origin',(100.,38.,-136.31754690055));
#411=CARTESIAN_POINT('',(97.5,38.,0.));
#412=CARTESIAN_POINT('Origin',(100.,38.,0.));
#413=CARTESIAN_POINT('',(102.5,38.,15.));
#414=CARTESIAN_POINT('Origin',(100.,38.,15.));
#415=CARTESIAN_POINT('Origin',(136.,6.,-136.31754690055));
#416=CARTESIAN_POINT('',(133.5,6.,0.));
#417=CARTESIAN_POINT('Origin',(136.,6.,0.));
#418=CARTESIAN_POINT('',(138.5,6.,15.));
#419=CARTESIAN_POINT('Origin',(136.,6.,15.));
#420=CARTESIAN_POINT('Origin',(0.,44.,0.));
#421=CARTESIAN_POINT('',(0.,44.,0.));
#422=CARTESIAN_POINT('',(0.,0.,0.));
#423=CARTESIAN_POINT('',(0.,44.,0.));
#424=CARTESIAN_POINT('',(0.,0.,15.));
#425=CARTESIAN_POINT('',(0.,0.,0.));
#426=CARTESIAN_POINT('',(0.,44.,15.));
#427=CARTESIAN_POINT('',(0.,44.,15.));
#428=CARTESIAN_POINT('',(0.,44.,0.));
#429=CARTESIAN_POINT('Origin',(144.,44.,0.));
#430=CARTESIAN_POINT('',(144.,44.,0.));
#431=CARTESIAN_POINT('',(144.,44.,0.));
#432=CARTESIAN_POINT('',(144.,44.,15.));
#433=CARTESIAN_POINT('',(144.,44.,15.));
#434=CARTESIAN_POINT('',(144.,44.,0.));
#435=CARTESIAN_POINT('Origin',(144.,0.,0.));
#436=CARTESIAN_POINT('',(144.,0.,0.));
#437=CARTESIAN_POINT('',(144.,0.,0.));
#438=CARTESIAN_POINT('',(144.,0.,15.));
#439=CARTESIAN_POINT('',(144.,0.,15.));
#440=CARTESIAN_POINT('',(144.,0.,0.));
#441=CARTESIAN_POINT('Origin',(0.,0.,0.));
#442=CARTESIAN_POINT('',(0.,0.,0.));
#443=CARTESIAN_POINT('',(0.,0.,15.));
#444=CARTESIAN_POINT('Origin',(72.,22.,15.));
#445=CARTESIAN_POINT('Origin',(72.,22.,0.));
#446=UNCERTAINTY_MEASURE_WITH_UNIT(LENGTH_MEASURE(0.01),#450,
'DISTANCE_ACCURACY_VALUE',
'Maximum model space distance between geometric entities at asserted c
onnectivities');
#447=UNCERTAINTY_MEASURE_WITH_UNIT(LENGTH_MEASURE(1.E-6),#450,
'DISTANCE_ACCURACY_VALUE',
'Maximum model space distance between geometric entities at asserted c
onnectivities');
#448=(
GEOMETRIC_REPRESENTATION_CONTEXT(3)
GLOBAL_UNCERTAINTY_ASSIGNED_CONTEXT((#446))
GLOBAL_UNIT_ASSIGNED_CONTEXT((#450,#453,#451))
REPRESENTATION_CONTEXT('','3D')
);
#449=(
GEOMETRIC_REPRESENTATION_CONTEXT(3)
GLOBAL_UNCERTAINTY_ASSIGNED_CONTEXT((#447))
GLOBAL_UNIT_ASSIGNED_CONTEXT((#450,#453,#451))
REPRESENTATION_CONTEXT('','3D')
);
#450=(
LENGTH_UNIT()
NAMED_UNIT(*)
SI_UNIT(.MILLI.,.METRE.)
);
#451=(
NAMED_UNIT(*)
SI_UNIT($,.STERADIAN.)
SOLID_ANGLE_UNIT()
);
#452=DIMENSIONAL_EXPONENTS(0.,0.,0.,0.,0.,0.,0.);
#453=(
CONVERSION_BASED_UNIT('degree',#455)
NAMED_UNIT(#452)
PLANE_ANGLE_UNIT()
);
#454=(
NAMED_UNIT(*)
PLANE_ANGLE_UNIT()
SI_UNIT($,.RADIAN.)
);
#455=PLANE_ANGLE_MEASURE_WITH_UNIT(PLANE_ANGLE_MEASURE(0.01745329252),#454);
#456=SHAPE_DEFINITION_REPRESENTATION(#457,#458);
#457=PRODUCT_DEFINITION_SHAPE('',$,#460);
#458=SHAPE_REPRESENTATION('',(#274),#448);
#459=PRODUCT_DEFINITION_CONTEXT('part definition',#464,'design');
#460=PRODUCT_DEFINITION('Entretoise','Entretoise',#461,#459);
#461=PRODUCT_DEFINITION_FORMATION('',$,#466);
#462=PRODUCT_RELATED_PRODUCT_CATEGORY('Entretoise','Entretoise',(#466));
#463=APPLICATION_PROTOCOL_DEFINITION('international standard',
'automotive_design',2009,#464);
#464=APPLICATION_CONTEXT(
'Core Data for Automotive Mechanical Design Process');
#465=PRODUCT_CONTEXT('part definition',#464,'mechanical');
#466=PRODUCT('Entretoise','Entretoise',$,(#465));
#467=PRESENTATION_STYLE_ASSIGNMENT((#468));
#468=SURFACE_STYLE_USAGE(.BOTH.,#469);
#469=SURFACE_SIDE_STYLE('',(#470));
#470=SURFACE_STYLE_FILL_AREA(#471);
#471=FILL_AREA_STYLE('',(#472));
#472=FILL_AREA_STYLE_COLOUR('',#473);
#473=COLOUR_RGB('',0.996078431372549,0.996078431372549,1.);
ENDSEC;
END-ISO-10303-21;
