ISO-10303-21;
HEADER;
FILE_DESCRIPTION (( 'STEP AP214' ),
    '1' );
FILE_NAME ('Axe 2 régulateur.STEP',
    '2022-01-07T13:42:44',
    ( '' ),
    ( '' ),
    'SwSTEP 2.0',
    'SolidWorks 2020',
    '' );
FILE_SCHEMA (( 'AUTOMOTIVE_DESIGN' ));
ENDSEC;

DATA;
#1 = CIRCLE ( 'NONE', #159, 1.500000000000000222 ) ;
#2 = VERTEX_POINT ( 'NONE', #195 ) ;
#3 = DIRECTION ( 'NONE',  ( 1.000000000000000000, 0.0000000000000000000, -0.0000000000000000000 ) ) ;
#4 = FILL_AREA_STYLE_COLOUR ( '', #72 ) ;
#5 =( GEOMETRIC_REPRESENTATION_CONTEXT ( 3 ) GLOBAL_UNCERTAINTY_ASSIGNED_CONTEXT ( ( #137 ) ) GLOBAL_UNIT_ASSIGNED_CONTEXT ( ( #71, #55, #32 ) ) REPRESENTATION_CONTEXT ( 'NONE', 'WORKASPACE' ) );
#6 = LINE ( 'NONE', #7, #247 ) ;
#7 = CARTESIAN_POINT ( 'NONE',  ( 43.50000000000000000, 1.197953265070938356, 0.9027225347280739554 ) ) ;
#8 = AXIS2_PLACEMENT_3D ( 'NONE', #199, #9, #91 ) ;
#9 = DIRECTION ( 'NONE',  ( 1.000000000000000000, 0.0000000000000000000, 0.0000000000000000000 ) ) ;
#10 = EDGE_CURVE ( 'NONE', #35, #50, #248, .T. ) ;
#11 = SHAPE_DEFINITION_REPRESENTATION ( #266, #16 ) ;
#12 = AXIS2_PLACEMENT_3D ( 'NONE', #135, #219, #30 ) ;
#13 = EDGE_LOOP ( 'NONE', ( #204, #228, #264, #270 ) ) ;
#14 = EDGE_LOOP ( 'NONE', ( #161, #34 ) ) ;
#15 = ORIENTED_EDGE ( 'NONE', *, *, #157, .T. ) ;
#16 = ADVANCED_BREP_SHAPE_REPRESENTATION ( 'Axe 2 rÚgulateur', ( #259, #44 ), #5 ) ;
#17 = EDGE_CURVE ( 'NONE', #76, #203, #70, .T. ) ;
#18 = VERTEX_POINT ( 'NONE', #54 ) ;
#19 = ORIENTED_EDGE ( 'NONE', *, *, #205, .F. ) ;
#20 = DIRECTION ( 'NONE',  ( 0.0000000000000000000, 0.0000000000000000000, -1.000000000000000000 ) ) ;
#21 = CARTESIAN_POINT ( 'NONE',  ( 6.000000000000000000, 1.197953265070938134, 0.9027225347280741774 ) ) ;
#22 = DIRECTION ( 'NONE',  ( 1.000000000000000000, 0.0000000000000000000, 0.0000000000000000000 ) ) ;
#23 = LINE ( 'NONE', #105, #116 ) ;
#24 = ORIENTED_EDGE ( 'NONE', *, *, #189, .T. ) ;
#25 = DIRECTION ( 'NONE',  ( -1.000000000000000000, -0.0000000000000000000, -0.0000000000000000000 ) ) ;
#26 = DIRECTION ( 'NONE',  ( -1.000000000000000000, 0.0000000000000000000, 0.0000000000000000000 ) ) ;
#27 = ORIENTED_EDGE ( 'NONE', *, *, #136, .F. ) ;
#28 = LINE ( 'NONE', #111, #92 ) ;
#29 = EDGE_CURVE ( 'NONE', #18, #35, #126, .T. ) ;
#30 = DIRECTION ( 'NONE',  ( 0.0000000000000000000, 0.0000000000000000000, -1.000000000000000000 ) ) ;
#31 = DIRECTION ( 'NONE',  ( 1.000000000000000000, 0.0000000000000000000, 0.0000000000000000000 ) ) ;
#32 =( NAMED_UNIT ( * ) SI_UNIT ( $, .STERADIAN. ) SOLID_ANGLE_UNIT ( ) );
#33 = AXIS2_PLACEMENT_3D ( 'NONE', #85, #169, #254 ) ;
#34 = ORIENTED_EDGE ( 'NONE', *, *, #268, .T. ) ;
#35 = VERTEX_POINT ( 'NONE', #112 ) ;
#36 = EDGE_CURVE ( 'NONE', #226, #106, #100, .T. ) ;
#37 = VECTOR ( 'NONE', #83, 1000.000000000000000 ) ;
#38 = ORIENTED_EDGE ( 'NONE', *, *, #179, .F. ) ;
#39 = DIRECTION ( 'NONE',  ( -0.0000000000000000000, 0.0000000000000000000, -1.000000000000000000 ) ) ;
#40 = CARTESIAN_POINT ( 'NONE',  ( 43.50000000000000000, 0.0000000000000000000, 0.0000000000000000000 ) ) ;
#41 = COLOUR_RGB ( '',0.7764705882352941346, 0.7568627450980391913, 0.7372549019607843590 ) ;
#42 = CARTESIAN_POINT ( 'NONE',  ( 29.50000000000000000, 1.197953265070938356, 0.9027225347280739554 ) ) ;
#43 = DIRECTION ( 'NONE',  ( -1.000000000000000000, -0.0000000000000000000, -0.0000000000000000000 ) ) ;
#44 = AXIS2_PLACEMENT_3D ( 'NONE', #113, #220, #31 ) ;
#45 = AXIS2_PLACEMENT_3D ( 'NONE', #40, #122, #209 ) ;
#46 = CARTESIAN_POINT ( 'NONE',  ( 0.0000000000000000000, 1.197953265070938134, 0.9027225347280741774 ) ) ;
#47 = ADVANCED_FACE ( 'NONE', ( #176 ), #260, .F. ) ;
#48 = EDGE_LOOP ( 'NONE', ( #180, #98, #27, #139 ) ) ;
#49 = DIRECTION ( 'NONE',  ( 0.0000000000000000000, 0.0000000000000000000, -1.000000000000000000 ) ) ;
#50 = VERTEX_POINT ( 'NONE', #56 ) ;
#51 = SURFACE_SIDE_STYLE ('',( #239 ) ) ;
#52 = CARTESIAN_POINT ( 'NONE',  ( 0.0000000000000000000, 0.0000000000000000000, 0.0000000000000000000 ) ) ;
#53 = ADVANCED_FACE ( 'NONE', ( #146 ), #230, .T. ) ;
#54 = CARTESIAN_POINT ( 'NONE',  ( 0.0000000000000000000, 0.0000000000000000000, 1.500000000000000222 ) ) ;
#55 =( NAMED_UNIT ( * ) PLANE_ANGLE_UNIT ( ) SI_UNIT ( $, .RADIAN. ) );
#56 = CARTESIAN_POINT ( 'NONE',  ( 0.0000000000000000000, 1.197953265070938134, -0.9027225347280743994 ) ) ;
#57 = ORIENTED_EDGE ( 'NONE', *, *, #84, .F. ) ;
#58 = ORIENTED_EDGE ( 'NONE', *, *, #221, .F. ) ;
#59 =( GEOMETRIC_REPRESENTATION_CONTEXT ( 3 ) GLOBAL_UNCERTAINTY_ASSIGNED_CONTEXT ( ( #244 ) ) GLOBAL_UNIT_ASSIGNED_CONTEXT ( ( #134, #192, #171 ) ) REPRESENTATION_CONTEXT ( 'NONE', 'WORKASPACE' ) );
#60 = CLOSED_SHELL ( 'NONE', ( #53, #96, #193, #261, #235, #47, #145, #124 ) ) ;
#61 = CARTESIAN_POINT ( 'NONE',  ( 0.0000000000000000000, 1.197953265070938134, -0.9027225347280741774 ) ) ;
#62 = FACE_OUTER_BOUND ( 'NONE', #238, .T. ) ;
#63 = CARTESIAN_POINT ( 'NONE',  ( 43.50000000000000000, 0.0000000000000000000, 0.0000000000000000000 ) ) ;
#64 = CARTESIAN_POINT ( 'NONE',  ( 43.50000000000000000, 0.0000000000000000000, 1.500000000000000222 ) ) ;
#65 = PRODUCT_RELATED_PRODUCT_CATEGORY ( 'part', '', ( #223 ) ) ;
#66 = VECTOR ( 'NONE', #20, 1000.000000000000000 ) ;
#67 = PLANE ( 'NONE',  #262 ) ;
#68 = FILL_AREA_STYLE_COLOUR ( '', #41 ) ;
#69 = SURFACE_STYLE_USAGE ( .BOTH. , #256 ) ;
#70 = LINE ( 'NONE', #155, #213 ) ;
#71 =( LENGTH_UNIT ( ) NAMED_UNIT ( * ) SI_UNIT ( .MILLI., .METRE. ) );
#72 = COLOUR_RGB ( '',0.7764705882352941346, 0.7568627450980391913, 0.7372549019607843590 ) ;
#73 = CARTESIAN_POINT ( 'NONE',  ( 29.50000000000000000, 0.0000000000000000000, 0.0000000000000000000 ) ) ;
#74 = VECTOR ( 'NONE', #25, 1000.000000000000000 ) ;
#75 = UNCERTAINTY_MEASURE_WITH_UNIT (LENGTH_MEASURE( 1.000000000000000082E-05 ), #197, 'distance_accuracy_value', 'NONE');
#76 = VERTEX_POINT ( 'NONE', #21 ) ;
#77 = PRESENTATION_LAYER_ASSIGNMENT (  '', '', ( #196 ) ) ;
#78 = ORIENTED_EDGE ( 'NONE', *, *, #157, .F. ) ;
#79 = AXIS2_PLACEMENT_3D ( 'NONE', #82, #167, #252 ) ;
#80 = ORIENTED_EDGE ( 'NONE', *, *, #205, .T. ) ;
#81 = DIRECTION ( 'NONE',  ( 0.0000000000000000000, -1.000000000000000000, 0.0000000000000000000 ) ) ;
#82 = CARTESIAN_POINT ( 'NONE',  ( 0.0000000000000000000, 0.0000000000000000000, 0.0000000000000000000 ) ) ;
#83 = DIRECTION ( 'NONE',  ( -1.000000000000000000, -0.0000000000000000000, -0.0000000000000000000 ) ) ;
#84 = EDGE_CURVE ( 'NONE', #2, #50, #101, .T. ) ;
#85 = CARTESIAN_POINT ( 'NONE',  ( 43.50000000000000000, 0.0000000000000000000, 0.0000000000000000000 ) ) ;
#86 = AXIS2_PLACEMENT_3D ( 'NONE', #271, #81, #166 ) ;
#87 = DIRECTION ( 'NONE',  ( 0.0000000000000000000, 0.0000000000000000000, 1.000000000000000000 ) ) ;
#88 = FILL_AREA_STYLE ('',( #4 ) ) ;
#89 = CARTESIAN_POINT ( 'NONE',  ( 0.0000000000000000000, 0.0000000000000000000, 0.0000000000000000000 ) ) ;
#90 = DIRECTION ( 'NONE',  ( 0.0000000000000000000, 0.0000000000000000000, -1.000000000000000000 ) ) ;
#91 = DIRECTION ( 'NONE',  ( 0.0000000000000000000, 0.0000000000000000000, -1.000000000000000000 ) ) ;
#92 = VECTOR ( 'NONE', #198, 1000.000000000000000 ) ;
#93 = AXIS2_PLACEMENT_3D ( 'NONE', #89, #173, #257 ) ;
#94 = EDGE_CURVE ( 'NONE', #203, #18, #202, .T. ) ;
#95 = ORIENTED_EDGE ( 'NONE', *, *, #103, .T. ) ;
#96 = ADVANCED_FACE ( 'NONE', ( #62 ), #148, .T. ) ;
#97 = VERTEX_POINT ( 'NONE', #211 ) ;
#98 = ORIENTED_EDGE ( 'NONE', *, *, #103, .F. ) ;
#99 = FACE_OUTER_BOUND ( 'NONE', #160, .T. ) ;
#100 = CIRCLE ( 'NONE', #8, 1.500000000000000222 ) ;
#101 = LINE ( 'NONE', #183, #165 ) ;
#102 = DIRECTION ( 'NONE',  ( 0.0000000000000000000, 0.0000000000000000000, -1.000000000000000000 ) ) ;
#103 = EDGE_CURVE ( 'NONE', #207, #106, #23, .T. ) ;
#104 = PRESENTATION_LAYER_ASSIGNMENT (  '', '', ( #224 ) ) ;
#105 = CARTESIAN_POINT ( 'NONE',  ( 29.50000000000000000, 1.197953265070938356, -0.9027225347280739554 ) ) ;
#106 = VERTEX_POINT ( 'NONE', #275 ) ;
#107 = AXIS2_PLACEMENT_3D ( 'NONE', #190, #3, #87 ) ;
#108 = CARTESIAN_POINT ( 'NONE',  ( 29.50000000000000000, 1.197953265070938356, -0.9027225347280739554 ) ) ;
#109 = DIRECTION ( 'NONE',  ( 0.0000000000000000000, 0.0000000000000000000, -1.000000000000000000 ) ) ;
#110 = EDGE_LOOP ( 'NONE', ( #164, #24, #222, #57, #131, #265, #178, #19, #269, #206, #58, #95 ) ) ;
#111 = CARTESIAN_POINT ( 'NONE',  ( 6.000000000000000000, 1.197953265070938134, -0.9027225347280741774 ) ) ;
#112 = CARTESIAN_POINT ( 'NONE',  ( 0.0000000000000000000, 1.836970198721030181E-16, -1.500000000000000222 ) ) ;
#113 = CARTESIAN_POINT ( 'NONE',  ( 0.0000000000000000000, 0.0000000000000000000, 0.0000000000000000000 ) ) ;
#114 = PRODUCT_CONTEXT ( 'NONE', #141, 'mechanical' ) ;
#115 = EDGE_CURVE ( 'NONE', #97, #117, #151, .T. ) ;
#116 = VECTOR ( 'NONE', #186, 1000.000000000000000 ) ;
#117 = VERTEX_POINT ( 'NONE', #64 ) ;
#118 = EDGE_LOOP ( 'NONE', ( #216, #78, #177, #128 ) ) ;
#119 = VECTOR ( 'NONE', #123, 1000.000000000000000 ) ;
#120 = EDGE_LOOP ( 'NONE', ( #225, #142 ) ) ;
#121 = LINE ( 'NONE', #208, #66 ) ;
#122 = DIRECTION ( 'NONE',  ( -1.000000000000000000, -0.0000000000000000000, -0.0000000000000000000 ) ) ;
#123 = DIRECTION ( 'NONE',  ( 1.000000000000000000, -0.0000000000000000000, -0.0000000000000000000 ) ) ;
#124 = ADVANCED_FACE ( 'NONE', ( #150 ), #236, .F. ) ;
#125 = DIRECTION ( 'NONE',  ( 0.0000000000000000000, 0.0000000000000000000, 1.000000000000000000 ) ) ;
#126 = CIRCLE ( 'NONE', #12, 1.500000000000000222 ) ;
#127 = ORIENTED_EDGE ( 'NONE', *, *, #17, .F. ) ;
#128 = ORIENTED_EDGE ( 'NONE', *, *, #29, .F. ) ;
#129 = LINE ( 'NONE', #214, #74 ) ;
#130 = CARTESIAN_POINT ( 'NONE',  ( 29.50000000000000000, 1.197953265070938356, 0.9027225347280739554 ) ) ;
#131 = ORIENTED_EDGE ( 'NONE', *, *, #251, .F. ) ;
#132 = SURFACE_STYLE_USAGE ( .BOTH. , #51 ) ;
#133 = DIRECTION ( 'NONE',  ( 1.000000000000000000, 0.0000000000000000000, 0.0000000000000000000 ) ) ;
#134 =( LENGTH_UNIT ( ) NAMED_UNIT ( * ) SI_UNIT ( .MILLI., .METRE. ) );
#135 = CARTESIAN_POINT ( 'NONE',  ( 0.0000000000000000000, 0.0000000000000000000, 0.0000000000000000000 ) ) ;
#136 = EDGE_CURVE ( 'NONE', #245, #207, #121, .T. ) ;
#137 = UNCERTAINTY_MEASURE_WITH_UNIT (LENGTH_MEASURE( 1.000000000000000082E-05 ), #71, 'distance_accuracy_value', 'NONE');
#138 = ORIENTED_EDGE ( 'NONE', *, *, #29, .T. ) ;
#139 = ORIENTED_EDGE ( 'NONE', *, *, #174, .T. ) ;
#140 = ORIENTED_EDGE ( 'NONE', *, *, #84, .T. ) ;
#141 = APPLICATION_CONTEXT ( 'automotive_design' ) ;
#142 = ORIENTED_EDGE ( 'NONE', *, *, #136, .T. ) ;
#143 = CIRCLE ( 'NONE', #185, 1.500000000000000222 ) ;
#144 = CARTESIAN_POINT ( 'NONE',  ( 6.000000000000000000, 0.0000000000000000000, 0.0000000000000000000 ) ) ;
#145 = ADVANCED_FACE ( 'NONE', ( #99 ), #182, .F. ) ;
#146 = FACE_OUTER_BOUND ( 'NONE', #110, .T. ) ;
#147 = DIRECTION ( 'NONE',  ( 0.0000000000000000000, 0.0000000000000000000, 1.000000000000000000 ) ) ;
#148 = CYLINDRICAL_SURFACE ( 'NONE', #267, 1.500000000000000222 ) ;
#149 = DIRECTION ( 'NONE',  ( 1.000000000000000000, 0.0000000000000000000, 0.0000000000000000000 ) ) ;
#150 = FACE_OUTER_BOUND ( 'NONE', #14, .T. ) ;
#151 = CIRCLE ( 'NONE', #33, 1.500000000000000222 ) ;
#152 = CARTESIAN_POINT ( 'NONE',  ( 29.50000000000000000, 1.197953265070938356, 0.9027225347280739554 ) ) ;
#153 = FILL_AREA_STYLE ('',( #68 ) ) ;
#154 = PRESENTATION_STYLE_ASSIGNMENT (( #69 ) ) ;
#155 = CARTESIAN_POINT ( 'NONE',  ( 6.000000000000000000, 1.197953265070938134, 0.9027225347280741774 ) ) ;
#156 =( NAMED_UNIT ( * ) SI_UNIT ( $, .STERADIAN. ) SOLID_ANGLE_UNIT ( ) );
#157 = EDGE_CURVE ( 'NONE', #50, #203, #250, .T. ) ;
#158 = DIRECTION ( 'NONE',  ( -1.000000000000000000, -0.0000000000000000000, 0.0000000000000000000 ) ) ;
#159 = AXIS2_PLACEMENT_3D ( 'NONE', #210, #22, #102 ) ;
#160 = EDGE_LOOP ( 'NONE', ( #15, #127, #246, #140 ) ) ;
#161 = ORIENTED_EDGE ( 'NONE', *, *, #251, .T. ) ;
#162 =( GEOMETRIC_REPRESENTATION_CONTEXT ( 3 ) GLOBAL_UNCERTAINTY_ASSIGNED_CONTEXT ( ( #75 ) ) GLOBAL_UNIT_ASSIGNED_CONTEXT ( ( #197, #175, #156 ) ) REPRESENTATION_CONTEXT ( 'NONE', 'WORKASPACE' ) );
#163 = PRODUCT_DEFINITION ( 'UNKNOWN', '', #201, #249 ) ;
#164 = ORIENTED_EDGE ( 'NONE', *, *, #36, .F. ) ;
#165 = VECTOR ( 'NONE', #273, 1000.000000000000000 ) ;
#166 = DIRECTION ( 'NONE',  ( 0.0000000000000000000, -0.0000000000000000000, -1.000000000000000000 ) ) ;
#167 = DIRECTION ( 'NONE',  ( 1.000000000000000000, 0.0000000000000000000, 0.0000000000000000000 ) ) ;
#168 = FACE_OUTER_BOUND ( 'NONE', #13, .T. ) ;
#169 = DIRECTION ( 'NONE',  ( 1.000000000000000000, 0.0000000000000000000, 0.0000000000000000000 ) ) ;
#170 = CARTESIAN_POINT ( 'NONE',  ( 43.50000000000000000, 1.836970198721030181E-16, -1.500000000000000222 ) ) ;
#171 =( NAMED_UNIT ( * ) SI_UNIT ( $, .STERADIAN. ) SOLID_ANGLE_UNIT ( ) );
#172 = SURFACE_STYLE_FILL_AREA ( #88 ) ;
#173 = DIRECTION ( 'NONE',  ( 1.000000000000000000, 0.0000000000000000000, 0.0000000000000000000 ) ) ;
#174 = EDGE_CURVE ( 'NONE', #245, #97, #231, .T. ) ;
#175 =( NAMED_UNIT ( * ) PLANE_ANGLE_UNIT ( ) SI_UNIT ( $, .RADIAN. ) );
#176 = FACE_OUTER_BOUND ( 'NONE', #120, .T. ) ;
#177 = ORIENTED_EDGE ( 'NONE', *, *, #10, .F. ) ;
#178 = ORIENTED_EDGE ( 'NONE', *, *, #94, .T. ) ;
#179 = EDGE_CURVE ( 'NONE', #117, #226, #1, .T. ) ;
#180 = ORIENTED_EDGE ( 'NONE', *, *, #272, .T. ) ;
#181 = AXIS2_PLACEMENT_3D ( 'NONE', #144, #229, #39 ) ;
#182 = PLANE ( 'NONE',  #86 ) ;
#183 = CARTESIAN_POINT ( 'NONE',  ( 6.000000000000000000, 1.197953265070938134, -0.9027225347280741774 ) ) ;
#184 = LINE ( 'NONE', #274, #37 ) ;
#185 = AXIS2_PLACEMENT_3D ( 'NONE', #215, #26, #109 ) ;
#186 = DIRECTION ( 'NONE',  ( 1.000000000000000000, -0.0000000000000000000, -0.0000000000000000000 ) ) ;
#187 = ORIENTED_EDGE ( 'NONE', *, *, #189, .F. ) ;
#188 = AXIS2_PLACEMENT_3D ( 'NONE', #63, #149, #234 ) ;
#189 = EDGE_CURVE ( 'NONE', #226, #35, #184, .T. ) ;
#190 = CARTESIAN_POINT ( 'NONE',  ( 29.50000000000000000, 0.0000000000000000000, 0.0000000000000000000 ) ) ;
#191 = APPLICATION_PROTOCOL_DEFINITION ( 'draft international standard', 'automotive_design', 1998, #141 ) ;
#192 =( NAMED_UNIT ( * ) PLANE_ANGLE_UNIT ( ) SI_UNIT ( $, .RADIAN. ) );
#193 = ADVANCED_FACE ( 'NONE', ( #168 ), #253, .T. ) ;
#194 = PLANE ( 'NONE',  #212 ) ;
#195 = CARTESIAN_POINT ( 'NONE',  ( 6.000000000000000000, 1.197953265070938134, -0.9027225347280741774 ) ) ;
#196 = STYLED_ITEM ( 'NONE', ( #217 ), #16 ) ;
#197 =( LENGTH_UNIT ( ) NAMED_UNIT ( * ) SI_UNIT ( .MILLI., .METRE. ) );
#198 = DIRECTION ( 'NONE',  ( 0.0000000000000000000, 0.0000000000000000000, 1.000000000000000000 ) ) ;
#199 = CARTESIAN_POINT ( 'NONE',  ( 43.50000000000000000, 0.0000000000000000000, 0.0000000000000000000 ) ) ;
#200 = APPLICATION_PROTOCOL_DEFINITION ( 'draft international standard', 'automotive_design', 1998, #276 ) ;
#201 = PRODUCT_DEFINITION_FORMATION_WITH_SPECIFIED_SOURCE ( 'ANY', '', #223, .NOT_KNOWN. ) ;
#202 = CIRCLE ( 'NONE', #79, 1.500000000000000222 ) ;
#203 = VERTEX_POINT ( 'NONE', #46 ) ;
#204 = ORIENTED_EDGE ( 'NONE', *, *, #272, .F. ) ;
#205 = EDGE_CURVE ( 'NONE', #117, #18, #129, .T. ) ;
#206 = ORIENTED_EDGE ( 'NONE', *, *, #174, .F. ) ;
#207 = VERTEX_POINT ( 'NONE', #108 ) ;
#208 = CARTESIAN_POINT ( 'NONE',  ( 29.50000000000000000, 1.197953265070938356, 0.9027225347280739554 ) ) ;
#209 = DIRECTION ( 'NONE',  ( 0.0000000000000000000, 0.0000000000000000000, 1.000000000000000000 ) ) ;
#210 = CARTESIAN_POINT ( 'NONE',  ( 43.50000000000000000, 0.0000000000000000000, 0.0000000000000000000 ) ) ;
#211 = CARTESIAN_POINT ( 'NONE',  ( 43.50000000000000000, 1.197953265070938356, 0.9027225347280739554 ) ) ;
#212 = AXIS2_PLACEMENT_3D ( 'NONE', #52, #133, #218 ) ;
#213 = VECTOR ( 'NONE', #241, 1000.000000000000000 ) ;
#214 = CARTESIAN_POINT ( 'NONE',  ( 43.50000000000000000, 0.0000000000000000000, 1.500000000000000222 ) ) ;
#215 = CARTESIAN_POINT ( 'NONE',  ( 6.000000000000000000, 0.0000000000000000000, 0.0000000000000000000 ) ) ;
#216 = ORIENTED_EDGE ( 'NONE', *, *, #94, .F. ) ;
#217 = PRESENTATION_STYLE_ASSIGNMENT (( #132 ) ) ;
#218 = DIRECTION ( 'NONE',  ( 0.0000000000000000000, 0.0000000000000000000, -1.000000000000000000 ) ) ;
#219 = DIRECTION ( 'NONE',  ( 1.000000000000000000, 0.0000000000000000000, 0.0000000000000000000 ) ) ;
#220 = DIRECTION ( 'NONE',  ( 0.0000000000000000000, 0.0000000000000000000, 1.000000000000000000 ) ) ;
#221 = EDGE_CURVE ( 'NONE', #207, #245, #227, .T. ) ;
#222 = ORIENTED_EDGE ( 'NONE', *, *, #10, .T. ) ;
#223 = PRODUCT ( 'Axe 2 régulateur', 'Axe 2 régulateur', '', ( #114 ) ) ;
#224 = STYLED_ITEM ( 'NONE', ( #154 ), #259 ) ;
#225 = ORIENTED_EDGE ( 'NONE', *, *, #221, .T. ) ;
#226 = VERTEX_POINT ( 'NONE', #170 ) ;
#227 = CIRCLE ( 'NONE', #107, 1.500000000000000222 ) ;
#228 = ORIENTED_EDGE ( 'NONE', *, *, #115, .T. ) ;
#229 = DIRECTION ( 'NONE',  ( 1.000000000000000000, 0.0000000000000000000, -0.0000000000000000000 ) ) ;
#230 = CYLINDRICAL_SURFACE ( 'NONE', #45, 1.500000000000000222 ) ;
#231 = LINE ( 'NONE', #42, #119 ) ;
#232 = MECHANICAL_DESIGN_GEOMETRIC_PRESENTATION_REPRESENTATION (  '', ( #196 ), #162 ) ;
#233 = CARTESIAN_POINT ( 'NONE',  ( 43.50000000000000000, 0.0000000000000000000, 0.0000000000000000000 ) ) ;
#234 = DIRECTION ( 'NONE',  ( 0.0000000000000000000, 0.0000000000000000000, -1.000000000000000000 ) ) ;
#235 = ADVANCED_FACE ( 'NONE', ( #255 ), #67, .F. ) ;
#236 = PLANE ( 'NONE',  #181 ) ;
#237 = DIRECTION ( 'NONE',  ( 0.0000000000000000000, -1.000000000000000000, -0.0000000000000000000 ) ) ;
#238 = EDGE_LOOP ( 'NONE', ( #187, #38, #80, #138 ) ) ;
#239 = SURFACE_STYLE_FILL_AREA ( #153 ) ;
#240 = FACE_OUTER_BOUND ( 'NONE', #118, .T. ) ;
#241 = DIRECTION ( 'NONE',  ( -1.000000000000000000, -0.0000000000000000000, -0.0000000000000000000 ) ) ;
#242 = DIRECTION ( 'NONE',  ( 0.0000000000000000000, 0.0000000000000000000, 1.000000000000000000 ) ) ;
#243 = VECTOR ( 'NONE', #147, 1000.000000000000000 ) ;
#244 = UNCERTAINTY_MEASURE_WITH_UNIT (LENGTH_MEASURE( 1.000000000000000082E-05 ), #134, 'distance_accuracy_value', 'NONE');
#245 = VERTEX_POINT ( 'NONE', #130 ) ;
#246 = ORIENTED_EDGE ( 'NONE', *, *, #268, .F. ) ;
#247 = VECTOR ( 'NONE', #90, 1000.000000000000000 ) ;
#248 = CIRCLE ( 'NONE', #93, 1.500000000000000222 ) ;
#249 = PRODUCT_DEFINITION_CONTEXT ( 'detailed design', #276, 'design' ) ;
#250 = LINE ( 'NONE', #61, #243 ) ;
#251 = EDGE_CURVE ( 'NONE', #76, #2, #143, .T. ) ;
#252 = DIRECTION ( 'NONE',  ( 0.0000000000000000000, 0.0000000000000000000, -1.000000000000000000 ) ) ;
#253 = PLANE ( 'NONE',  #188 ) ;
#254 = DIRECTION ( 'NONE',  ( 0.0000000000000000000, 0.0000000000000000000, -1.000000000000000000 ) ) ;
#255 = FACE_OUTER_BOUND ( 'NONE', #48, .T. ) ;
#256 = SURFACE_SIDE_STYLE ('',( #172 ) ) ;
#257 = DIRECTION ( 'NONE',  ( 0.0000000000000000000, 0.0000000000000000000, -1.000000000000000000 ) ) ;
#258 = MECHANICAL_DESIGN_GEOMETRIC_PRESENTATION_REPRESENTATION (  '', ( #224 ), #59 ) ;
#259 = MANIFOLD_SOLID_BREP ( 'Enlèv. méplat roue', #60 ) ;
#260 = PLANE ( 'NONE',  #263 ) ;
#261 = ADVANCED_FACE ( 'NONE', ( #240 ), #194, .F. ) ;
#262 = AXIS2_PLACEMENT_3D ( 'NONE', #152, #237, #49 ) ;
#263 = AXIS2_PLACEMENT_3D ( 'NONE', #73, #158, #242 ) ;
#264 = ORIENTED_EDGE ( 'NONE', *, *, #179, .T. ) ;
#265 = ORIENTED_EDGE ( 'NONE', *, *, #17, .T. ) ;
#266 = PRODUCT_DEFINITION_SHAPE ( 'NONE', 'NONE',  #163 ) ;
#267 = AXIS2_PLACEMENT_3D ( 'NONE', #233, #43, #125 ) ;
#268 = EDGE_CURVE ( 'NONE', #2, #76, #28, .T. ) ;
#269 = ORIENTED_EDGE ( 'NONE', *, *, #115, .F. ) ;
#270 = ORIENTED_EDGE ( 'NONE', *, *, #36, .T. ) ;
#271 = CARTESIAN_POINT ( 'NONE',  ( 6.000000000000000000, 1.197953265070938134, -0.9027225347280741774 ) ) ;
#272 = EDGE_CURVE ( 'NONE', #97, #106, #6, .T. ) ;
#273 = DIRECTION ( 'NONE',  ( -1.000000000000000000, -0.0000000000000000000, -0.0000000000000000000 ) ) ;
#274 = CARTESIAN_POINT ( 'NONE',  ( 43.50000000000000000, 1.836970198721030181E-16, -1.500000000000000222 ) ) ;
#275 = CARTESIAN_POINT ( 'NONE',  ( 43.50000000000000000, 1.197953265070938356, -0.9027225347280739554 ) ) ;
#276 = APPLICATION_CONTEXT ( 'automotive_design' ) ;
ENDSEC;
END-ISO-10303-21;
